  0
SECTION
  2
HEADER
  9
$ACADVER
  1
AC1014
  9
$ACADMAINTVER
 70
     9
  9
$DWGCODEPAGE
  3
ANSI_1252
  9
$INSBASE
 10
0.0
 20
0.0
 30
0.0
  9
$EXTMIN
 10
0.5541916633422872
 20
4.599829155346178
 30
-0.0015258207003583
  9
$EXTMAX
 10
30.84487159357507
 20
15.55429691732197
 30
0.0000000349246037
  9
$LIMMIN
 10
0.0
 20
0.0
  9
$LIMMAX
 10
31.5
 20
20.8
  9
$ORTHOMODE
 70
     0
  9
$REGENMODE
 70
     1
  9
$FILLMODE
 70
     1
  9
$QTEXTMODE
 70
     0
  9
$MIRRTEXT
 70
     0
  9
$DRAGMODE
 70
     2
  9
$LTSCALE
 40
1.0
  9
$OSMODE
 70
    37
  9
$ATTMODE
 70
     1
  9
$TEXTSIZE
 40
0.125
  9
$TRACEWID
 40
0.05
  9
$TEXTSTYLE
  7
ROMANS
  9
$CLAYER
  8
0
  9
$CELTYPE
  6
HIDDEN
  9
$CECOLOR
 62
   256
  9
$CELTSCALE
 40
1.0
  9
$DELOBJ
 70
     1
  9
$DISPSILH
 70
     0
  9
$DIMSCALE
 40
1.0
  9
$DIMASZ
 40
0.125
  9
$DIMEXO
 40
0.0625
  9
$DIMDLI
 40
0.38
  9
$DIMRND
 40
0.0
  9
$DIMDLE
 40
0.0
  9
$DIMEXE
 40
0.09
  9
$DIMTP
 40
0.0
  9
$DIMTM
 40
0.0
  9
$DIMTXT
 40
0.125
  9
$DIMCEN
 40
0.04
  9
$DIMTSZ
 40
0.0
  9
$DIMTOL
 70
     0
  9
$DIMLIM
 70
     0
  9
$DIMTIH
 70
     1
  9
$DIMTOH
 70
     1
  9
$DIMSE1
 70
     0
  9
$DIMSE2
 70
     0
  9
$DIMTAD
 70
     0
  9
$DIMZIN
 70
     0
  9
$DIMBLK
  1

  9
$DIMASO
 70
     1
  9
$DIMSHO
 70
     1
  9
$DIMPOST
  1

  9
$DIMAPOST
  1

  9
$DIMALT
 70
     0
  9
$DIMALTD
 70
     2
  9
$DIMALTF
 40
25.4
  9
$DIMLFAC
 40
1.0
  9
$DIMTOFL
 70
     0
  9
$DIMTVP
 40
0.0
  9
$DIMTIX
 70
     0
  9
$DIMSOXD
 70
     0
  9
$DIMSAH
 70
     0
  9
$DIMBLK1
  1

  9
$DIMBLK2
  1

  9
$DIMSTYLE
  2
STANDARD
  9
$DIMCLRD
 70
   256
  9
$DIMCLRE
 70
   256
  9
$DIMCLRT
 70
     3
  9
$DIMTFAC
 40
1.0
  9
$DIMGAP
 40
0.09
  9
$DIMJUST
 70
     0
  9
$DIMSD1
 70
     0
  9
$DIMSD2
 70
     0
  9
$DIMTOLJ
 70
     1
  9
$DIMTZIN
 70
     0
  9
$DIMALTZ
 70
     0
  9
$DIMALTTZ
 70
     0
  9
$DIMFIT
 70
     3
  9
$DIMUPT
 70
     1
  9
$DIMUNIT
 70
     2
  9
$DIMDEC
 70
     3
  9
$DIMTDEC
 70
     3
  9
$DIMALTU
 70
     2
  9
$DIMALTTD
 70
     2
  9
$DIMTXSTY
  7
STANDARD
  9
$DIMAUNIT
 70
     0
  9
$LUNITS
 70
     2
  9
$LUPREC
 70
     3
  9
$SKETCHINC
 40
0.05
  9
$FILLETRAD
 40
0.125
  9
$AUNITS
 70
     0
  9
$AUPREC
 70
     0
  9
$MENU
  1
.
  9
$ELEVATION
 40
0.0
  9
$PELEVATION
 40
0.0
  9
$THICKNESS
 40
0.0
  9
$LIMCHECK
 70
     0
  9
$BLIPMODE
 70
     0
  9
$CHAMFERA
 40
0.5
  9
$CHAMFERB
 40
0.5
  9
$CHAMFERC
 40
1.0
  9
$CHAMFERD
 40
0.0
  9
$SKPOLY
 70
     0
  9
$TDCREATE
 40
2452509.705996042
  9
$TDUPDATE
 40
2452551.686442743
  9
$TDINDWG
 40
0.2508498264
  9
$TDUSRTIMER
 40
0.2508498264
  9
$USRTIMER
 70
     1
  9
$ANGBASE
 50
0.0
  9
$ANGDIR
 70
     0
  9
$PDMODE
 70
     0
  9
$PDSIZE
 40
0.0
  9
$PLINEWID
 40
0.0
  9
$COORDS
 70
     0
  9
$SPLFRAME
 70
     0
  9
$SPLINETYPE
 70
     6
  9
$SPLINESEGS
 70
    64
  9
$ATTDIA
 70
     0
  9
$ATTREQ
 70
     1
  9
$HANDLING
 70
 22529
  9
$HANDSEED
  5
1DAA
  9
$SURFTAB1
 70
    32
  9
$SURFTAB2
 70
    32
  9
$SURFTYPE
 70
     6
  9
$SURFU
 70
     6
  9
$SURFV
 70
     6
  9
$UCSNAME
  2

  9
$UCSORG
 10
0.0
 20
0.0
 30
0.0
  9
$UCSXDIR
 10
1.0
 20
0.0
 30
0.0
  9
$UCSYDIR
 10
0.0
 20
1.0
 30
0.0
  9
$PUCSNAME
  2

  9
$PUCSORG
 10
0.0
 20
0.0
 30
0.0
  9
$PUCSXDIR
 10
1.0
 20
0.0
 30
0.0
  9
$PUCSYDIR
 10
0.0
 20
1.0
 30
0.0
  9
$USERI1
 70
     0
  9
$USERI2
 70
     0
  9
$USERI3
 70
     0
  9
$USERI4
 70
     0
  9
$USERI5
 70
     0
  9
$USERR1
 40
0.0
  9
$USERR2
 40
0.0
  9
$USERR3
 40
0.0
  9
$USERR4
 40
0.0
  9
$USERR5
 40
0.0
  9
$WORLDVIEW
 70
     1
  9
$SHADEDGE
 70
     3
  9
$SHADEDIF
 70
    70
  9
$TILEMODE
 70
     1
  9
$MAXACTVP
 70
    64
  9
$PINSBASE
 10
0.0
 20
0.0
 30
0.0
  9
$PLIMCHECK
 70
     0
  9
$PEXTMIN
 10
1.000000000000000E+20
 20
1.000000000000000E+20
 30
1.000000000000000E+20
  9
$PEXTMAX
 10
-1.000000000000000E+20
 20
-1.000000000000000E+20
 30
-1.000000000000000E+20
  9
$PLIMMIN
 10
0.0
 20
0.0
  9
$PLIMMAX
 10
12.0
 20
9.0
  9
$UNITMODE
 70
     0
  9
$VISRETAIN
 70
     1
  9
$PLINEGEN
 70
     0
  9
$PSLTSCALE
 70
     1
  9
$TREEDEPTH
 70
  3020
  9
$PICKSTYLE
 70
     1
  9
$CMLSTYLE
  2
STANDARD
  9
$CMLJUST
 70
     0
  9
$CMLSCALE
 40
1.0
  9
$PROXYGRAPHICS
 70
     1
  9
$MEASUREMENT
 70
     0
  0
ENDSEC
  0
SECTION
  2
CLASSES
  0
CLASS
  1
ACDBDICTIONARYWDFLT
  2
AcDbDictionaryWithDefault
  3
AutoCAD 2000
 90
        0
280
     0
281
     0
  0
CLASS
  1
ACDBPLACEHOLDER
  2
AcDbPlaceHolder
  3
AutoCAD 2000
 90
        0
280
     0
281
     0
  0
CLASS
  1
LAYOUT
  2
AcDbLayout
  3
AutoCAD 2000
 90
        0
280
     0
281
     0
  0
CLASS
  1
DICTIONARYVAR
  2
AcDbDictionaryVar
  3
AutoCAD 2000
 90
        0
280
     0
281
     0
  0
CLASS
  1
LONG_TRANSACTION
  2
AcDbLongTransaction
  3
AutoCAD 2000
 90
        0
280
     0
281
     0
  0
CLASS
  1
LWPOLYLINE
  2
AcDbPolyline
  3
AutoCAD 2000
 90
        0
280
     0
281
     1
  0
CLASS
  1
HATCH
  2
AcDbHatch
  3
AutoCAD 2000
 90
        0
280
     0
281
     1
  0
CLASS
  1
XRECORD
  2
AcDbXrecord
  3
AutoCAD 2000
 90
        0
280
     0
281
     0
  0
ENDSEC
  0
SECTION
  2
TABLES
  0
TABLE
  2
VPORT
  5
8
330
0
100
AcDbSymbolTable
 70
     2
  0
VPORT
  5
1D83
330
8
100
AcDbSymbolTableRecord
100
AcDbViewportTableRecord
  2
*ACTIVE
 70
     0
 10
0.0
 20
0.0
 11
1.0
 21
1.0
 12
15.75
 22
10.39999999999999
 13
0.0
 23
0.0
 14
0.5
 24
0.5
 15
0.5
 25
0.5
 16
0.0
 26
0.0
 36
1.0
 17
0.0
 27
0.0
 37
0.0
 40
21.11199999999999
 41
1.781954887218045
 42
50.0
 43
0.0
 44
0.0
 50
0.0
 51
0.0
 71
     0
 72
 15000
 73
     1
 74
     2
 75
     0
 76
     0
 77
     0
 78
     0
  0
ENDTAB
  0
TABLE
  2
LTYPE
  5
5
330
0
100
AcDbSymbolTable
 70
     2
  0
LTYPE
  5
14
330
5
100
AcDbSymbolTableRecord
100
AcDbLinetypeTableRecord
  2
BYBLOCK
 70
     0
  3

 72
    65
 73
     0
 40
0.0
  0
LTYPE
  5
15
330
5
100
AcDbSymbolTableRecord
100
AcDbLinetypeTableRecord
  2
BYLAYER
 70
     0
  3

 72
    65
 73
     0
 40
0.0
  0
LTYPE
  5
16
330
5
100
AcDbSymbolTableRecord
100
AcDbLinetypeTableRecord
  2
CONTINUOUS
 70
     0
  3
Solid line
 72
    65
 73
     0
 40
0.0
  0
LTYPE
  5
199C
330
5
100
AcDbSymbolTableRecord
100
AcDbLinetypeTableRecord
  2
HIDDEN
 70
     0
  3
Hidden __ __ __ __ __ __ __ __ __ __ __ __ __ _
 72
    65
 73
     2
 40
0.375
 49
0.25
 74
     0
 49
-0.125
 74
     0
  0
ENDTAB
  0
TABLE
  2
LAYER
  5
2
330
0
100
AcDbSymbolTable
 70
     4
  0
LAYER
  5
10
330
2
100
AcDbSymbolTableRecord
100
AcDbLayerTableRecord
  2
0
 70
     0
 62
     7
  6
CONTINUOUS
  0
LAYER
  5
62
330
2
100
AcDbSymbolTableRecord
100
AcDbLayerTableRecord
  2
OBJECT1
 70
     0
 62
     7
  6
CONTINUOUS
  0
LAYER
  5
63
330
2
100
AcDbSymbolTableRecord
100
AcDbLayerTableRecord
  2
OBJECT2
 70
     0
 62
     8
  6
CONTINUOUS
  0
LAYER
  5
65
330
2
100
AcDbSymbolTableRecord
100
AcDbLayerTableRecord
  2
TEXT
 70
     0
 62
     7
  6
CONTINUOUS
  0
ENDTAB
  0
TABLE
  2
STYLE
  5
3
330
0
100
AcDbSymbolTable
 70
     2
  0
STYLE
  5
11
330
3
100
AcDbSymbolTableRecord
100
AcDbTextStyleTableRecord
  2
STANDARD
 70
     0
 40
0.0
 41
1.0
 50
0.0
 71
     0
 42
0.125
  3
romans.shx
  4

  0
STYLE
  5
B3
330
3
100
AcDbSymbolTableRecord
100
AcDbTextStyleTableRecord
  2
ROMANS
 70
     0
 40
0.0
 41
1.0
 50
0.0
 71
     0
 42
0.125
  3
romans.shx
  4

  0
ENDTAB
  0
TABLE
  2
VIEW
  5
6
330
0
100
AcDbSymbolTable
 70
     0
  0
ENDTAB
  0
TABLE
  2
UCS
  5
7
330
0
100
AcDbSymbolTable
 70
     0
  0
ENDTAB
  0
TABLE
  2
APPID
  5
9
330
0
100
AcDbSymbolTable
 70
     1
  0
APPID
  5
12
330
9
100
AcDbSymbolTableRecord
100
AcDbRegAppTableRecord
  2
ACAD
 70
     0
  0
ENDTAB
  0
TABLE
  2
DIMSTYLE
  5
A
330
0
100
AcDbSymbolTable
 70
     1
  0
DIMSTYLE
105
99
330
A
100
AcDbSymbolTableRecord
100
AcDbDimStyleTableRecord
  2
STANDARD
 70
     0
  3

  4

  5

  6

  7

 40
1.0
 41
0.125
 42
0.0625
 43
0.38
 44
0.09
 45
0.0
 46
0.0
 47
0.0
 48
0.0
140
0.125
141
0.04
142
0.0
143
25.4
144
1.0
145
0.0
146
1.0
147
0.09
 71
     0
 72
     0
 73
     1
 74
     1
 75
     0
 76
     0
 77
     0
 78
     0
170
     0
171
     2
172
     0
173
     0
174
     0
175
     0
176
   256
177
   256
178
     3
270
     2
271
     3
272
     3
273
     2
274
     2
340
11
275
     0
280
     0
281
     0
282
     0
283
     1
284
     0
285
     0
286
     0
287
     3
288
     1
  0
ENDTAB
  0
TABLE
  2
BLOCK_RECORD
  5
1
330
0
100
AcDbSymbolTable
 70
     4
  0
BLOCK_RECORD
  5
1F
102
{ACAD_XDICTIONARY
360
1DA6
102
}
330
1
100
AcDbSymbolTableRecord
100
AcDbBlockTableRecord
  2
*MODEL_SPACE
  0
BLOCK_RECORD
  5
1B
102
{ACAD_XDICTIONARY
360
1DA4
102
}
330
1
100
AcDbSymbolTableRecord
100
AcDbBlockTableRecord
  2
*PAPER_SPACE
  0
BLOCK_RECORD
  5
28C
330
1
100
AcDbSymbolTableRecord
100
AcDbBlockTableRecord
  2
DIRECTION
1001
ACAD
1000
DesignCenter Data
1002
{
1070
     1
1070
     1
1002
}
  0
BLOCK_RECORD
  5
885
330
1
100
AcDbSymbolTableRecord
100
AcDbBlockTableRecord
  2
*X2
  0
BLOCK_RECORD
  5
8F9
330
1
100
AcDbSymbolTableRecord
100
AcDbBlockTableRecord
  2
*X3
  0
ENDTAB
  0
ENDSEC
  0
SECTION
  2
BLOCKS
  0
BLOCK
  5
20
330
1F
100
AcDbEntity
  8
0
100
AcDbBlockBegin
  2
*MODEL_SPACE
 70
     0
 10
0.0
 20
0.0
 30
0.0
  3
*MODEL_SPACE
  1

  0
ENDBLK
  5
21
330
1F
100
AcDbEntity
  8
0
100
AcDbBlockEnd
  0
BLOCK
  5
1C
330
1B
100
AcDbEntity
 67
     1
  8
0
100
AcDbBlockBegin
  2
*PAPER_SPACE
 70
     0
 10
0.0
 20
0.0
 30
0.0
  3
*PAPER_SPACE
  1

  0
ENDBLK
  5
1D
330
1B
100
AcDbEntity
 67
     1
  8
0
100
AcDbBlockEnd
  0
BLOCK
  5
297
330
28C
100
AcDbEntity
  8
0
100
AcDbBlockBegin
  2
DIRECTION
 70
     0
 10
0.0
 20
0.0
 30
0.0
  3
DIRECTION
  1

  0
TEXT
  5
28D
330
28C
100
AcDbEntity
  8
TEXT
100
AcDbText
 10
-4.6750351796063
 20
-0.1256016724970266
 30
0.0
 40
0.25
  1
DIRECTION OF FLOW
  7
ROMANS
100
AcDbText
  0
LINE
  5
28E
330
28C
100
AcDbEntity
  8
TEXT
100
AcDbLine
 10
0.0
 20
0.0
 30
0.0
 11
-0.1910102263877675
 21
-0.2022263331932876
 31
0.0
  0
LINE
  5
28F
330
28C
100
AcDbEntity
  8
TEXT
100
AcDbLine
 10
-0.6093243179219954
 20
0.0777793570761247
 30
0.0
 11
-0.6093243179219954
 21
-0.0777793570761176
 31
0.0
  0
LINE
  5
290
330
28C
100
AcDbEntity
  8
TEXT
100
AcDbLine
 10
-0.2416904465041973
 20
-0.0777793570761176
 30
0.0
 11
-0.3592352029464472
 21
-0.2022263331932876
 31
0.0
  0
LINE
  5
291
330
28C
100
AcDbEntity
  8
TEXT
100
AcDbLine
 10
-0.2489242575043384
 20
-0.0777793570761176
 30
0.0
 11
-0.6093243179219954
 21
-0.0777793570761176
 31
0.0
  0
LINE
  5
292
330
28C
100
AcDbEntity
  8
TEXT
100
AcDbLine
 10
-0.1910102263877675
 20
-0.2022263331932876
 30
0.0
 11
-0.3592352029464472
 21
-0.2022263331932876
 31
0.0
  0
LINE
  5
293
330
28C
100
AcDbEntity
  8
TEXT
100
AcDbLine
 10
0.0
 20
0.0
 30
0.0
 11
-0.1910102263877675
 21
0.2022263331932876
 31
0.0
  0
LINE
  5
294
330
28C
100
AcDbEntity
  8
TEXT
100
AcDbLine
 10
-0.2489242575043384
 20
0.0777793570761247
 30
0.0
 11
-0.6093243179219954
 21
0.0777793570761247
 31
0.0
  0
LINE
  5
295
330
28C
100
AcDbEntity
  8
TEXT
100
AcDbLine
 10
-0.2489242575043384
 20
0.0777793570761247
 30
0.0
 11
-0.3664690139465847
 21
0.2022263331932876
 31
0.0
  0
LINE
  5
296
330
28C
100
AcDbEntity
  8
TEXT
100
AcDbLine
 10
-0.1910102263877675
 20
0.2022263331932876
 30
0.0
 11
-0.3664690139465847
 21
0.2022263331932876
 31
0.0
  0
ENDBLK
  5
298
330
28C
100
AcDbEntity
  8
0
100
AcDbBlockEnd
  0
BLOCK
  5
8F7
330
885
100
AcDbEntity
  8
0
100
AcDbBlockBegin
  2
*X2
 70
     1
 10
0.0
 20
0.0
 30
0.0
  3
*X2
  1

  0
LINE
  5
886
330
885
100
AcDbEntity
  8
0
 62
     0
100
AcDbLine
 10
41.25
 20
15.0
 30
0.0
 11
41.875
 21
15.0
 31
0.0
  0
LINE
  5
887
330
885
100
AcDbEntity
  8
0
 62
     0
100
AcDbLine
 10
42.5
 20
15.0
 30
0.0
 11
43.125
 21
15.0
 31
0.0
  0
LINE
  5
888
330
885
100
AcDbEntity
  8
0
 62
     0
100
AcDbLine
 10
43.75
 20
15.0
 30
0.0
 11
44.28029978480062
 21
15.0
 31
0.0
  0
LINE
  5
889
330
885
100
AcDbEntity
  8
0
 62
     0
100
AcDbLine
 10
40.625
 20
15.625
 30
0.0
 11
41.25
 21
15.625
 31
0.0
  0
LINE
  5
88A
330
885
100
AcDbEntity
  8
0
 62
     0
100
AcDbLine
 10
41.875
 20
15.625
 30
0.0
 11
42.5
 21
15.625
 31
0.0
  0
LINE
  5
88B
330
885
100
AcDbEntity
  8
0
 62
     0
100
AcDbLine
 10
43.125
 20
15.625
 30
0.0
 11
43.75
 21
15.625
 31
0.0
  0
LINE
  5
88C
330
885
100
AcDbEntity
  8
0
 62
     0
100
AcDbLine
 10
40.28423462970976
 20
16.25
 30
0.0
 11
40.625
 21
16.25
 31
0.0
  0
LINE
  5
88D
330
885
100
AcDbEntity
  8
0
 62
     0
100
AcDbLine
 10
41.25
 20
16.25
 30
0.0
 11
41.875
 21
16.25
 31
0.0
  0
LINE
  5
88E
330
885
100
AcDbEntity
  8
0
 62
     0
100
AcDbLine
 10
42.5
 20
16.25
 30
0.0
 11
43.125
 21
16.25
 31
0.0
  0
LINE
  5
88F
330
885
100
AcDbEntity
  8
0
 62
     0
100
AcDbLine
 10
43.75
 20
16.25
 30
0.0
 11
44.28029978480062
 21
16.25
 31
0.0
  0
LINE
  5
890
330
885
100
AcDbEntity
  8
0
 62
     0
100
AcDbLine
 10
40.625
 20
16.875
 30
0.0
 11
41.25
 21
16.875
 31
0.0
  0
LINE
  5
891
330
885
100
AcDbEntity
  8
0
 62
     0
100
AcDbLine
 10
41.875
 20
16.875
 30
0.0
 11
42.5
 21
16.875
 31
0.0
  0
LINE
  5
892
330
885
100
AcDbEntity
  8
0
 62
     0
100
AcDbLine
 10
43.125
 20
16.875
 30
0.0
 11
43.75
 21
16.875
 31
0.0
  0
LINE
  5
893
330
885
100
AcDbEntity
  8
0
 62
     0
100
AcDbLine
 10
41.875
 20
14.375
 30
0.0
 11
42.5
 21
14.375
 31
0.0
  0
LINE
  5
894
330
885
100
AcDbEntity
  8
0
 62
     0
100
AcDbLine
 10
43.125
 20
14.375
 30
0.0
 11
43.75
 21
14.375
 31
0.0
  0
LINE
  5
895
330
885
100
AcDbEntity
  8
0
 62
     0
100
AcDbLine
 10
42.5
 20
13.75
 30
0.0
 11
43.125
 21
13.75
 31
0.0
  0
LINE
  5
896
330
885
100
AcDbEntity
  8
0
 62
     0
100
AcDbLine
 10
43.75
 20
13.75
 30
0.0
 11
44.28029978480062
 21
13.75
 31
0.0
  0
LINE
  5
897
330
885
100
AcDbEntity
  8
0
 62
     0
100
AcDbLine
 10
41.10503287170213
 20
14.609375
 30
0.0
 11
41.25
 21
14.609375
 31
0.0
  0
LINE
  5
898
330
885
100
AcDbEntity
  8
0
 62
     0
100
AcDbLine
 10
41.875
 20
14.609375
 30
0.0
 11
42.5
 21
14.609375
 31
0.0
  0
LINE
  5
899
330
885
100
AcDbEntity
  8
0
 62
     0
100
AcDbLine
 10
43.125
 20
14.609375
 30
0.0
 11
43.75
 21
14.609375
 31
0.0
  0
LINE
  5
89A
330
885
100
AcDbEntity
  8
0
 62
     0
100
AcDbLine
 10
41.25
 20
15.234375
 30
0.0
 11
41.875
 21
15.234375
 31
0.0
  0
LINE
  5
89B
330
885
100
AcDbEntity
  8
0
 62
     0
100
AcDbLine
 10
42.5
 20
15.234375
 30
0.0
 11
43.125
 21
15.234375
 31
0.0
  0
LINE
  5
89C
330
885
100
AcDbEntity
  8
0
 62
     0
100
AcDbLine
 10
43.75
 20
15.234375
 30
0.0
 11
44.28029978480062
 21
15.234375
 31
0.0
  0
LINE
  5
89D
330
885
100
AcDbEntity
  8
0
 62
     0
100
AcDbLine
 10
40.625
 20
15.859375
 30
0.0
 11
41.25
 21
15.859375
 31
0.0
  0
LINE
  5
89E
330
885
100
AcDbEntity
  8
0
 62
     0
100
AcDbLine
 10
41.875
 20
15.859375
 30
0.0
 11
42.5
 21
15.859375
 31
0.0
  0
LINE
  5
89F
330
885
100
AcDbEntity
  8
0
 62
     0
100
AcDbLine
 10
43.125
 20
15.859375
 30
0.0
 11
43.75
 21
15.859375
 31
0.0
  0
LINE
  5
8A0
330
885
100
AcDbEntity
  8
0
 62
     0
100
AcDbLine
 10
40.23431761646492
 20
16.484375
 30
0.0
 11
40.625
 21
16.484375
 31
0.0
  0
LINE
  5
8A1
330
885
100
AcDbEntity
  8
0
 62
     0
100
AcDbLine
 10
41.25
 20
16.484375
 30
0.0
 11
41.875
 21
16.484375
 31
0.0
  0
LINE
  5
8A2
330
885
100
AcDbEntity
  8
0
 62
     0
100
AcDbLine
 10
42.5
 20
16.484375
 30
0.0
 11
43.125
 21
16.484375
 31
0.0
  0
LINE
  5
8A3
330
885
100
AcDbEntity
  8
0
 62
     0
100
AcDbLine
 10
43.75
 20
16.484375
 30
0.0
 11
44.28029978480062
 21
16.484375
 31
0.0
  0
LINE
  5
8A4
330
885
100
AcDbEntity
  8
0
 62
     0
100
AcDbLine
 10
40.625
 20
17.109375
 30
0.0
 11
41.25
 21
17.109375
 31
0.0
  0
LINE
  5
8A5
330
885
100
AcDbEntity
  8
0
 62
     0
100
AcDbLine
 10
41.875
 20
17.109375
 30
0.0
 11
42.5
 21
17.109375
 31
0.0
  0
LINE
  5
8A6
330
885
100
AcDbEntity
  8
0
 62
     0
100
AcDbLine
 10
43.125
 20
17.109375
 30
0.0
 11
43.75
 21
17.109375
 31
0.0
  0
LINE
  5
8A7
330
885
100
AcDbEntity
  8
0
 62
     0
100
AcDbLine
 10
41.74575129304503
 20
13.984375
 30
0.0
 11
41.875
 21
13.984375
 31
0.0
  0
LINE
  5
8A8
330
885
100
AcDbEntity
  8
0
 62
     0
100
AcDbLine
 10
42.5
 20
13.984375
 30
0.0
 11
43.125
 21
13.984375
 31
0.0
  0
LINE
  5
8A9
330
885
100
AcDbEntity
  8
0
 62
     0
100
AcDbLine
 10
43.75
 20
13.984375
 30
0.0
 11
44.28029978480062
 21
13.984375
 31
0.0
  0
LINE
  5
8AA
330
885
100
AcDbEntity
  8
0
 62
     0
100
AcDbLine
 10
43.125
 20
13.359375
 30
0.0
 11
43.75
 21
13.359375
 31
0.0
  0
LINE
  5
8AB
330
885
100
AcDbEntity
  8
0
 62
     0
100
AcDbLine
 10
40.92578075505477
 20
14.84375
 30
0.0
 11
41.25
 21
14.84375
 31
0.0
  0
LINE
  5
8AC
330
885
100
AcDbEntity
  8
0
 62
     0
100
AcDbLine
 10
41.875
 20
14.84375
 30
0.0
 11
42.5
 21
14.84375
 31
0.0
  0
LINE
  5
8AD
330
885
100
AcDbEntity
  8
0
 62
     0
100
AcDbLine
 10
43.125
 20
14.84375
 30
0.0
 11
43.75
 21
14.84375
 31
0.0
  0
LINE
  5
8AE
330
885
100
AcDbEntity
  8
0
 62
     0
100
AcDbLine
 10
40.56049292378155
 20
15.46875
 30
0.0
 11
40.625
 21
15.46875
 31
0.0
  0
LINE
  5
8AF
330
885
100
AcDbEntity
  8
0
 62
     0
100
AcDbLine
 10
41.25
 20
15.46875
 30
0.0
 11
41.875
 21
15.46875
 31
0.0
  0
LINE
  5
8B0
330
885
100
AcDbEntity
  8
0
 62
     0
100
AcDbLine
 10
42.5
 20
15.46875
 30
0.0
 11
43.125
 21
15.46875
 31
0.0
  0
LINE
  5
8B1
330
885
100
AcDbEntity
  8
0
 62
     0
100
AcDbLine
 10
43.75
 20
15.46875
 30
0.0
 11
44.28029978480062
 21
15.46875
 31
0.0
  0
LINE
  5
8B2
330
885
100
AcDbEntity
  8
0
 62
     0
100
AcDbLine
 10
40.625
 20
16.09375
 30
0.0
 11
41.25
 21
16.09375
 31
0.0
  0
LINE
  5
8B3
330
885
100
AcDbEntity
  8
0
 62
     0
100
AcDbLine
 10
41.875
 20
16.09375
 30
0.0
 11
42.5
 21
16.09375
 31
0.0
  0
LINE
  5
8B4
330
885
100
AcDbEntity
  8
0
 62
     0
100
AcDbLine
 10
43.125
 20
16.09375
 30
0.0
 11
43.75
 21
16.09375
 31
0.0
  0
LINE
  5
8B5
330
885
100
AcDbEntity
  8
0
 62
     0
100
AcDbLine
 10
40.1984443968674
 20
16.71875
 30
0.0
 11
40.625
 21
16.71875
 31
0.0
  0
LINE
  5
8B6
330
885
100
AcDbEntity
  8
0
 62
     0
100
AcDbLine
 10
41.25
 20
16.71875
 30
0.0
 11
41.875
 21
16.71875
 31
0.0
  0
LINE
  5
8B7
330
885
100
AcDbEntity
  8
0
 62
     0
100
AcDbLine
 10
42.5
 20
16.71875
 30
0.0
 11
43.125
 21
16.71875
 31
0.0
  0
LINE
  5
8B8
330
885
100
AcDbEntity
  8
0
 62
     0
100
AcDbLine
 10
43.75
 20
16.71875
 30
0.0
 11
44.28029978480062
 21
16.71875
 31
0.0
  0
LINE
  5
8B9
330
885
100
AcDbEntity
  8
0
 62
     0
100
AcDbLine
 10
41.47185132371581
 20
14.21875
 30
0.0
 11
41.875
 21
14.21875
 31
0.0
  0
LINE
  5
8BA
330
885
100
AcDbEntity
  8
0
 62
     0
100
AcDbLine
 10
42.5
 20
14.21875
 30
0.0
 11
43.125
 21
14.21875
 31
0.0
  0
LINE
  5
8BB
330
885
100
AcDbEntity
  8
0
 62
     0
100
AcDbLine
 10
43.75
 20
14.21875
 30
0.0
 11
44.28029978480062
 21
14.21875
 31
0.0
  0
LINE
  5
8BC
330
885
100
AcDbEntity
  8
0
 62
     0
100
AcDbLine
 10
42.346206303034
 20
13.59375
 30
0.0
 11
42.5
 21
13.59375
 31
0.0
  0
LINE
  5
8BD
330
885
100
AcDbEntity
  8
0
 62
     0
100
AcDbLine
 10
43.125
 20
13.59375
 30
0.0
 11
43.75
 21
13.59375
 31
0.0
  0
LINE
  5
8BE
330
885
100
AcDbEntity
  8
0
 62
     0
100
AcDbLine
 10
41.953125
 20
13.83232035757277
 30
0.0
 11
41.953125
 21
14.296875
 31
0.0
  0
LINE
  5
8BF
330
885
100
AcDbEntity
  8
0
 62
     0
100
AcDbLine
 10
41.953125
 20
14.921875
 30
0.0
 11
41.953125
 21
15.546875
 31
0.0
  0
LINE
  5
8C0
330
885
100
AcDbEntity
  8
0
 62
     0
100
AcDbLine
 10
41.953125
 20
16.171875
 30
0.0
 11
41.953125
 21
16.796875
 31
0.0
  0
LINE
  5
8C1
330
885
100
AcDbEntity
  8
0
 62
     0
100
AcDbLine
 10
41.328125
 20
14.35983232807855
 30
0.0
 11
41.328125
 21
14.921875
 31
0.0
  0
LINE
  5
8C2
330
885
100
AcDbEntity
  8
0
 62
     0
100
AcDbLine
 10
41.328125
 20
15.546875
 30
0.0
 11
41.328125
 21
16.171875
 31
0.0
  0
LINE
  5
8C3
330
885
100
AcDbEntity
  8
0
 62
     0
100
AcDbLine
 10
41.328125
 20
16.796875
 30
0.0
 11
41.328125
 21
17.22358212988598
 31
0.0
  0
LINE
  5
8C4
330
885
100
AcDbEntity
  8
0
 62
     0
100
AcDbLine
 10
40.703125
 20
15.19374976085859
 30
0.0
 11
40.703125
 21
15.546875
 31
0.0
  0
LINE
  5
8C5
330
885
100
AcDbEntity
  8
0
 62
     0
100
AcDbLine
 10
40.703125
 20
16.171875
 30
0.0
 11
40.703125
 21
16.796875
 31
0.0
  0
LINE
  5
8C6
330
885
100
AcDbEntity
  8
0
 62
     0
100
AcDbLine
 10
42.578125
 20
13.47938663694578
 30
0.0
 11
42.578125
 21
13.671875
 31
0.0
  0
LINE
  5
8C7
330
885
100
AcDbEntity
  8
0
 62
     0
100
AcDbLine
 10
42.578125
 20
14.296875
 30
0.0
 11
42.578125
 21
14.921875
 31
0.0
  0
LINE
  5
8C8
330
885
100
AcDbEntity
  8
0
 62
     0
100
AcDbLine
 10
42.578125
 20
15.546875
 30
0.0
 11
42.578125
 21
16.171875
 31
0.0
  0
LINE
  5
8C9
330
885
100
AcDbEntity
  8
0
 62
     0
100
AcDbLine
 10
42.578125
 20
16.796875
 30
0.0
 11
42.578125
 21
17.22358212988598
 31
0.0
  0
LINE
  5
8CA
330
885
100
AcDbEntity
  8
0
 62
     0
100
AcDbLine
 10
43.203125
 20
13.67187499999999
 30
0.0
 11
43.203125
 21
14.29687499999999
 31
0.0
  0
LINE
  5
8CB
330
885
100
AcDbEntity
  8
0
 62
     0
100
AcDbLine
 10
43.203125
 20
14.92187499999999
 30
0.0
 11
43.203125
 21
15.54687499999999
 31
0.0
  0
LINE
  5
8CC
330
885
100
AcDbEntity
  8
0
 62
     0
100
AcDbLine
 10
43.203125
 20
16.17187499999999
 30
0.0
 11
43.203125
 21
16.79687499999999
 31
0.0
  0
LINE
  5
8CD
330
885
100
AcDbEntity
  8
0
 62
     0
100
AcDbLine
 10
43.828125
 20
13.1355585424595
 30
0.0
 11
43.828125
 21
13.671875
 31
0.0
  0
LINE
  5
8CE
330
885
100
AcDbEntity
  8
0
 62
     0
100
AcDbLine
 10
43.828125
 20
14.296875
 30
0.0
 11
43.828125
 21
14.921875
 31
0.0
  0
LINE
  5
8CF
330
885
100
AcDbEntity
  8
0
 62
     0
100
AcDbLine
 10
43.828125
 20
15.546875
 30
0.0
 11
43.828125
 21
16.171875
 31
0.0
  0
LINE
  5
8D0
330
885
100
AcDbEntity
  8
0
 62
     0
100
AcDbLine
 10
43.828125
 20
16.796875
 30
0.0
 11
43.828125
 21
17.22358212988598
 31
0.0
  0
LINE
  5
8D1
330
885
100
AcDbEntity
  8
0
 62
     0
100
AcDbLine
 10
42.1875
 20
13.68287768753228
 30
0.0
 11
42.1875
 21
14.296875
 31
0.0
  0
LINE
  5
8D2
330
885
100
AcDbEntity
  8
0
 62
     0
100
AcDbLine
 10
42.1875
 20
14.921875
 30
0.0
 11
42.1875
 21
15.546875
 31
0.0
  0
LINE
  5
8D3
330
885
100
AcDbEntity
  8
0
 62
     0
100
AcDbLine
 10
42.1875
 20
16.171875
 30
0.0
 11
42.1875
 21
16.796875
 31
0.0
  0
LINE
  5
8D4
330
885
100
AcDbEntity
  8
0
 62
     0
100
AcDbLine
 10
41.5625
 20
14.296875
 30
0.0
 11
41.5625
 21
14.921875
 31
0.0
  0
LINE
  5
8D5
330
885
100
AcDbEntity
  8
0
 62
     0
100
AcDbLine
 10
41.5625
 20
15.546875
 30
0.0
 11
41.5625
 21
16.171875
 31
0.0
  0
LINE
  5
8D6
330
885
100
AcDbEntity
  8
0
 62
     0
100
AcDbLine
 10
41.5625
 20
16.796875
 30
0.0
 11
41.5625
 21
17.22358212988598
 31
0.0
  0
LINE
  5
8D7
330
885
100
AcDbEntity
  8
0
 62
     0
100
AcDbLine
 10
40.9375
 20
14.92187499999999
 30
0.0
 11
40.9375
 21
15.54687499999999
 31
0.0
  0
LINE
  5
8D8
330
885
100
AcDbEntity
  8
0
 62
     0
100
AcDbLine
 10
40.9375
 20
16.17187499999999
 30
0.0
 11
40.9375
 21
16.79687499999999
 31
0.0
  0
LINE
  5
8D9
330
885
100
AcDbEntity
  8
0
 62
     0
100
AcDbLine
 10
40.3125
 20
16.14054761746228
 30
0.0
 11
40.3125
 21
16.17187499999999
 31
0.0
  0
LINE
  5
8DA
330
885
100
AcDbEntity
  8
0
 62
     0
100
AcDbLine
 10
40.3125
 20
16.79687499999999
 30
0.0
 11
40.3125
 21
17.22358212988598
 31
0.0
  0
LINE
  5
8DB
330
885
100
AcDbEntity
  8
0
 62
     0
100
AcDbLine
 10
42.8125
 20
13.38145216343456
 30
0.0
 11
42.8125
 21
13.671875
 31
0.0
  0
LINE
  5
8DC
330
885
100
AcDbEntity
  8
0
 62
     0
100
AcDbLine
 10
42.8125
 20
14.296875
 30
0.0
 11
42.8125
 21
14.921875
 31
0.0
  0
LINE
  5
8DD
330
885
100
AcDbEntity
  8
0
 62
     0
100
AcDbLine
 10
42.8125
 20
15.546875
 30
0.0
 11
42.8125
 21
16.171875
 31
0.0
  0
LINE
  5
8DE
330
885
100
AcDbEntity
  8
0
 62
     0
100
AcDbLine
 10
42.8125
 20
16.796875
 30
0.0
 11
42.8125
 21
17.22358212988598
 31
0.0
  0
LINE
  5
8DF
330
885
100
AcDbEntity
  8
0
 62
     0
100
AcDbLine
 10
43.4375
 20
13.671875
 30
0.0
 11
43.4375
 21
14.296875
 31
0.0
  0
LINE
  5
8E0
330
885
100
AcDbEntity
  8
0
 62
     0
100
AcDbLine
 10
43.4375
 20
14.921875
 30
0.0
 11
43.4375
 21
15.546875
 31
0.0
  0
LINE
  5
8E1
330
885
100
AcDbEntity
  8
0
 62
     0
100
AcDbLine
 10
43.4375
 20
16.171875
 30
0.0
 11
43.4375
 21
16.796875
 31
0.0
  0
LINE
  5
8E2
330
885
100
AcDbEntity
  8
0
 62
     0
100
AcDbLine
 10
44.0625
 20
13.11639791912728
 30
0.0
 11
44.0625
 21
13.671875
 31
0.0
  0
LINE
  5
8E3
330
885
100
AcDbEntity
  8
0
 62
     0
100
AcDbLine
 10
44.0625
 20
14.296875
 30
0.0
 11
44.0625
 21
14.921875
 31
0.0
  0
LINE
  5
8E4
330
885
100
AcDbEntity
  8
0
 62
     0
100
AcDbLine
 10
44.0625
 20
15.546875
 30
0.0
 11
44.0625
 21
16.171875
 31
0.0
  0
LINE
  5
8E5
330
885
100
AcDbEntity
  8
0
 62
     0
100
AcDbLine
 10
44.0625
 20
16.796875
 30
0.0
 11
44.0625
 21
17.22358212988598
 31
0.0
  0
LINE
  5
8E6
330
885
100
AcDbEntity
  8
0
 62
     0
100
AcDbLine
 10
41.796875
 20
14.29687499999999
 30
0.0
 11
41.796875
 21
14.92187499999999
 31
0.0
  0
LINE
  5
8E7
330
885
100
AcDbEntity
  8
0
 62
     0
100
AcDbLine
 10
41.796875
 20
15.54687499999999
 30
0.0
 11
41.796875
 21
16.17187499999999
 31
0.0
  0
LINE
  5
8E8
330
885
100
AcDbEntity
  8
0
 62
     0
100
AcDbLine
 10
41.796875
 20
16.79687499999999
 30
0.0
 11
41.796875
 21
17.22358212988598
 31
0.0
  0
LINE
  5
8E9
330
885
100
AcDbEntity
  8
0
 62
     0
100
AcDbLine
 10
41.171875
 20
14.921875
 30
0.0
 11
41.171875
 21
15.546875
 31
0.0
  0
LINE
  5
8EA
330
885
100
AcDbEntity
  8
0
 62
     0
100
AcDbLine
 10
41.171875
 20
16.171875
 30
0.0
 11
41.171875
 21
16.796875
 31
0.0
  0
LINE
  5
8EB
330
885
100
AcDbEntity
  8
0
 62
     0
100
AcDbLine
 10
40.546875
 20
15.546875
 30
0.0
 11
40.546875
 21
16.171875
 31
0.0
  0
LINE
  5
8EC
330
885
100
AcDbEntity
  8
0
 62
     0
100
AcDbLine
 10
40.546875
 20
16.796875
 30
0.0
 11
40.546875
 21
17.22358212988598
 31
0.0
  0
LINE
  5
8ED
330
885
100
AcDbEntity
  8
0
 62
     0
100
AcDbLine
 10
42.421875
 20
13.671875
 30
0.0
 11
42.421875
 21
14.296875
 31
0.0
  0
LINE
  5
8EE
330
885
100
AcDbEntity
  8
0
 62
     0
100
AcDbLine
 10
42.421875
 20
14.921875
 30
0.0
 11
42.421875
 21
15.546875
 31
0.0
  0
LINE
  5
8EF
330
885
100
AcDbEntity
  8
0
 62
     0
100
AcDbLine
 10
42.421875
 20
16.171875
 30
0.0
 11
42.421875
 21
16.796875
 31
0.0
  0
LINE
  5
8F0
330
885
100
AcDbEntity
  8
0
 62
     0
100
AcDbLine
 10
43.046875
 20
13.29992794181024
 30
0.0
 11
43.046875
 21
13.671875
 31
0.0
  0
LINE
  5
8F1
330
885
100
AcDbEntity
  8
0
 62
     0
100
AcDbLine
 10
43.046875
 20
14.296875
 30
0.0
 11
43.046875
 21
14.921875
 31
0.0
  0
LINE
  5
8F2
330
885
100
AcDbEntity
  8
0
 62
     0
100
AcDbLine
 10
43.046875
 20
15.546875
 30
0.0
 11
43.046875
 21
16.171875
 31
0.0
  0
LINE
  5
8F3
330
885
100
AcDbEntity
  8
0
 62
     0
100
AcDbLine
 10
43.046875
 20
16.796875
 30
0.0
 11
43.046875
 21
17.22358212988598
 31
0.0
  0
LINE
  5
8F4
330
885
100
AcDbEntity
  8
0
 62
     0
100
AcDbLine
 10
43.671875
 20
13.67187499999999
 30
0.0
 11
43.671875
 21
14.29687499999999
 31
0.0
  0
LINE
  5
8F5
330
885
100
AcDbEntity
  8
0
 62
     0
100
AcDbLine
 10
43.671875
 20
14.92187499999999
 30
0.0
 11
43.671875
 21
15.54687499999999
 31
0.0
  0
LINE
  5
8F6
330
885
100
AcDbEntity
  8
0
 62
     0
100
AcDbLine
 10
43.671875
 20
16.17187499999999
 30
0.0
 11
43.671875
 21
16.79687499999999
 31
0.0
  0
ENDBLK
  5
8F8
330
885
100
AcDbEntity
  8
0
100
AcDbBlockEnd
  0
BLOCK
  5
A2C
330
8F9
100
AcDbEntity
  8
0
100
AcDbBlockBegin
  2
*X3
 70
     1
 10
0.0
 20
0.0
 30
0.0
  3
*X3
  1

  0
LINE
  5
8FA
330
8F9
100
AcDbEntity
  8
0
 62
     0
100
AcDbLine
 10
62.53090520879082
 20
14.88071119332601
 30
0.0
 11
62.65142788560705
 21
15.02434452641082
 31
0.0
  0
LINE
  5
8FB
330
8F9
100
AcDbEntity
  8
0
 62
     0
100
AcDbLine
 10
61.43151142170328
 20
11.27663086183412
 30
0.0
 11
61.55203409851951
 21
11.42026419491893
 31
0.0
  0
LINE
  5
8FC
330
8F9
100
AcDbEntity
  8
0
 62
     0
100
AcDbLine
 10
62.877783543498
 20
13.00023085885182
 30
0.0
 11
62.99830622031422
 21
13.14386419193663
 31
0.0
  0
LINE
  5
8FD
330
8F9
100
AcDbEntity
  8
0
 62
     0
100
AcDbLine
 10
61.77838975641044
 20
9.396150527359939
 30
0.0
 11
61.83106726401007
 21
9.458929136290693
 31
0.0
  0
LINE
  5
8FE
330
8F9
100
AcDbEntity
  8
0
 62
     0
100
AcDbLine
 10
63.22466187820516
 20
11.11975052437764
 30
0.0
 11
63.34518455502139
 21
11.26338385746245
 31
0.0
  0
LINE
  5
8FF
330
8F9
100
AcDbEntity
  8
0
 62
     0
100
AcDbLine
 10
62.12526809111762
 20
7.51567019288575
 30
0.0
 11
62.24579076793385
 21
7.659303525970558
 31
0.0
  0
LINE
  5
900
330
8F9
100
AcDbEntity
  8
0
 62
     0
100
AcDbLine
 10
63.57154021291233
 20
9.23927018990345
 30
0.0
 11
63.58842981349277
 21
9.259398432072677
 31
0.0
  0
LINE
  5
901
330
8F9
100
AcDbEntity
  8
0
 62
     0
100
AcDbLine
 10
62.47214642582479
 20
5.63518985841156
 30
0.0
 11
62.59266910264102
 21
5.778823191496368
 31
0.0
  0
LINE
  5
902
330
8F9
100
AcDbEntity
  8
0
 62
     0
100
AcDbLine
 10
44.88752019551312
 20
5.323512898502253
 30
0.0
 11
45.00804287232935
 21
5.467146231587062
 31
0.0
  0
LINE
  5
903
330
8F9
100
AcDbEntity
  8
0
 62
     0
100
AcDbLine
 10
46.33379231730784
 20
7.047112895519954
 30
0.0
 11
46.45431499412406
 21
7.190746228604762
 31
0.0
  0
LINE
  5
904
330
8F9
100
AcDbEntity
  8
0
 62
     0
100
AcDbLine
 10
44.54064186080596
 20
7.203993232976444
 30
0.0
 11
44.66116453762218
 21
7.347626566061252
 31
0.0
  0
LINE
  5
905
330
8F9
100
AcDbEntity
  8
0
 62
     0
100
AcDbLine
 10
45.98691398260067
 20
8.927593229994144
 30
0.0
 11
46.10743665941689
 21
9.071226563078953
 31
0.0
  0
LINE
  5
906
330
8F9
100
AcDbEntity
  8
0
 62
     0
100
AcDbLine
 10
44.28029978480062
 20
9.187603464648212
 30
0.0
 11
44.31428620291501
 21
9.22810690053544
 31
0.0
  0
LINE
  5
907
330
8F9
100
AcDbEntity
  8
0
 62
     0
100
AcDbLine
 10
45.64003564789349
 20
10.80807356446833
 30
0.0
 11
45.76055832470973
 21
10.95170689755313
 31
0.0
  0
LINE
  5
908
330
8F9
100
AcDbEntity
  8
0
 62
     0
100
AcDbLine
 10
45.29315731318632
 20
12.68855389894252
 30
0.0
 11
45.41367999000256
 21
12.83218723202733
 31
0.0
  0
LINE
  5
909
330
8F9
100
AcDbEntity
  8
0
 62
     0
100
AcDbLine
 10
44.94627897847916
 20
14.5690342334167
 30
0.0
 11
45.06680165529539
 21
14.71266756650151
 31
0.0
  0
LINE
  5
90A
330
8F9
100
AcDbEntity
  8
0
 62
     0
100
AcDbLine
 10
44.59940064377199
 20
16.44951456789089
 30
0.0
 11
44.71992332058821
 21
16.5931479009757
 31
0.0
  0
LINE
  5
90B
330
8F9
100
AcDbEntity
  8
0
 62
     0
100
AcDbLine
 10
45.64003565499882
 20
10.80807357646405
 30
0.0
 11
45.78946485971258
 21
10.7950002150519
 31
0.0
  0
LINE
  5
90C
330
8F9
100
AcDbEntity
  8
0
 62
     0
100
AcDbLine
 10
61.7783897640851
 20
9.396150543951993
 30
0.0
 11
61.92781896879886
 21
9.383077182539844
 31
0.0
  0
LINE
  5
90D
330
8F9
100
AcDbEntity
  8
0
 62
     0
100
AcDbLine
 10
63.57154022065024
 20
9.239270207006208
 30
0.0
 11
63.58842981349277
 21
9.237792559100919
 31
0.0
  0
LINE
  5
90E
330
8F9
100
AcDbEntity
  8
0
 62
     0
100
AcDbLine
 10
45.29315732096632
 20
12.68855391071408
 30
0.0
 11
45.44258652568008
 21
12.67548054930193
 31
0.0
  0
LINE
  5
90F
330
8F9
100
AcDbEntity
  8
0
 62
     0
100
AcDbLine
 10
61.4315114300526
 20
11.27663087820202
 30
0.0
 11
61.58094063476636
 21
11.26355751678987
 31
0.0
  0
LINE
  5
910
330
8F9
100
AcDbEntity
  8
0
 62
     0
100
AcDbLine
 10
63.22466188661774
 20
11.11975054125623
 30
0.0
 11
63.37409109133151
 21
11.10667717984408
 31
0.0
  0
LINE
  5
911
330
8F9
100
AcDbEntity
  8
0
 62
     0
100
AcDbLine
 10
44.94627898693383
 20
14.5690342449641
 30
0.0
 11
45.09570819164759
 21
14.55596088355196
 31
0.0
  0
LINE
  5
912
330
8F9
100
AcDbEntity
  8
0
 62
     0
100
AcDbLine
 10
62.87778355258524
 20
13.00023087550626
 30
0.0
 11
63.02721275729901
 21
12.98715751409411
 31
0.0
  0
LINE
  5
913
330
8F9
100
AcDbEntity
  8
0
 62
     0
100
AcDbLine
 10
44.59940065290132
 20
16.44951457921413
 30
0.0
 11
44.74882985761508
 21
16.43644121780198
 31
0.0
  0
LINE
  5
914
330
8F9
100
AcDbEntity
  8
0
 62
     0
100
AcDbLine
 10
62.53090521855273
 20
14.88071120975629
 30
0.0
 11
62.6803344232665
 21
14.86763784834414
 31
0.0
  0
LINE
  5
915
330
8F9
100
AcDbEntity
  8
0
 62
     0
100
AcDbLine
 10
44.28029978480062
 20
9.076902638096525
 30
0.0
 11
44.34319273717995
 21
9.071400217747658
 31
0.0
  0
LINE
  5
916
330
8F9
100
AcDbEntity
  8
0
 62
     0
100
AcDbLine
 10
45.98691398903133
 20
8.927593242214022
 30
0.0
 11
46.13634319374509
 21
8.914519880801874
 31
0.0
  0
LINE
  5
917
330
8F9
100
AcDbEntity
  8
0
 62
     0
100
AcDbLine
 10
62.1252680981176
 20
7.515670209701963
 30
0.0
 11
62.27469730283136
 21
7.502596848289814
 31
0.0
  0
LINE
  5
918
330
8F9
100
AcDbEntity
  8
0
 62
     0
100
AcDbLine
 10
44.54064186649868
 20
7.203993244909777
 30
0.0
 11
44.69007107121245
 21
7.190919883497628
 31
0.0
  0
LINE
  5
919
330
8F9
100
AcDbEntity
  8
0
 62
     0
100
AcDbLine
 10
46.33379232306383
 20
7.047112907963993
 30
0.0
 11
46.48322152777759
 21
7.034039546551844
 31
0.0
  0
LINE
  5
91A
330
8F9
100
AcDbEntity
  8
0
 62
     0
100
AcDbLine
 10
62.47214643215009
 20
5.635189875451932
 30
0.0
 11
62.62157563686386
 21
5.622116514039784
 31
0.0
  0
LINE
  5
91B
330
8F9
100
AcDbEntity
  8
0
 62
     0
100
AcDbLine
 10
44.88752020053119
 20
5.323512910659748
 30
0.0
 11
45.03694940524495
 21
5.310439549247599
 31
0.0
  0
LINE
  5
91C
330
8F9
100
AcDbEntity
  8
0
 62
     0
100
AcDbLine
 10
62.62157951925694
 20
5.622067414269677
 30
0.0
 11
62.59267311463005
 21
5.778774126487986
 31
0.0
  0
LINE
  5
91D
330
8F9
100
AcDbEntity
  8
0
 62
     0
100
AcDbLine
 10
62.27470265375711
 20
7.502548014976882
 30
0.0
 11
62.24579624913022
 21
7.659254727195191
 31
0.0
  0
LINE
  5
91E
330
8F9
100
AcDbEntity
  8
0
 62
     0
100
AcDbLine
 10
61.92782578825728
 20
9.383028615684088
 30
0.0
 11
61.9138250404336
 21
9.458929136290704
 31
0.0
  0
LINE
  5
91F
330
8F9
100
AcDbEntity
  8
0
 62
     0
100
AcDbLine
 10
61.58094892275745
 20
11.26350921639129
 30
0.0
 11
61.55204251813055
 21
11.4202159286096
 31
0.0
  0
LINE
  5
920
330
8F9
100
AcDbEntity
  8
0
 62
     0
100
AcDbLine
 10
63.37409924254234
 20
11.10662747083646
 30
0.0
 11
63.34519283791544
 21
11.26333418305476
 31
0.0
  0
LINE
  5
921
330
8F9
100
AcDbEntity
  8
0
 62
     0
100
AcDbLine
 10
63.02722237704251
 20
12.98710807154366
 30
0.0
 11
62.99831597241561
 21
13.14381478376197
 31
0.0
  0
LINE
  5
922
330
8F9
100
AcDbEntity
  8
0
 62
     0
100
AcDbLine
 10
62.68034551154268
 20
14.86758867225087
 30
0.0
 11
62.65143910691578
 21
15.02429538446918
 31
0.0
  0
LINE
  5
923
330
8F9
100
AcDbEntity
  8
0
 62
     0
100
AcDbLine
 10
46.48322664119295
 20
7.034003124263058
 30
0.0
 11
46.45432023656606
 21
7.190709836481367
 31
0.0
  0
LINE
  5
924
330
8F9
100
AcDbEntity
  8
0
 62
     0
100
AcDbLine
 10
46.13634977569312
 20
8.914483724970263
 30
0.0
 11
46.10744337106623
 21
9.071190437188572
 31
0.0
  0
LINE
  5
925
330
8F9
100
AcDbEntity
  8
0
 62
     0
100
AcDbLine
 10
45.78947291019328
 20
10.79496432567746
 30
0.0
 11
45.7605665055664
 21
10.95167103789577
 31
0.0
  0
LINE
  5
926
330
8F9
100
AcDbEntity
  8
0
 62
     0
100
AcDbLine
 10
45.44259604469345
 20
12.67544492638467
 30
0.0
 11
45.41368964006657
 21
12.83215163860298
 31
0.0
  0
LINE
  5
927
330
8F9
100
AcDbEntity
  8
0
 62
     0
100
AcDbLine
 10
45.09571917919362
 20
14.55592552709187
 30
0.0
 11
45.06681277456674
 21
14.71263223931018
 31
0.0
  0
LINE
  5
928
330
8F9
100
AcDbEntity
  8
0
 62
     0
100
AcDbLine
 10
44.74884231369379
 20
16.43640612779908
 30
0.0
 11
44.71993590906691
 21
16.59311284001739
 31
0.0
  0
LINE
  5
929
330
8F9
100
AcDbEntity
  8
0
 62
     0
100
AcDbLine
 10
45.0369531869079
 20
5.310404269110673
 30
0.0
 11
45.008046782281
 21
5.467110981328982
 31
0.0
  0
LINE
  5
92A
330
8F9
100
AcDbEntity
  8
0
 62
     0
100
AcDbLine
 10
44.69007632140807
 20
7.190884869817878
 30
0.0
 11
44.66116991678117
 21
7.347591582036187
 31
0.0
  0
LINE
  5
92B
330
8F9
100
AcDbEntity
  8
0
 62
     0
100
AcDbLine
 10
44.34319945590824
 20
9.071365470525083
 30
0.0
 11
44.31429305128134
 21
9.228072182743392
 31
0.0
  0
LINE
  5
92C
330
8F9
100
AcDbEntity
  8
0
 62
     0
100
AcDbLine
 10
61.38288084851583
 20
13.36161144097157
 30
0.0
 11
61.57760208709385
 21
13.56455281611878
 31
0.0
  0
LINE
  5
92D
330
8F9
100
AcDbEntity
  8
0
 62
     0
100
AcDbLine
 10
61.71432860714369
 20
10.51251740338249
 30
0.0
 11
61.90904984572171
 21
10.7154587785297
 31
0.0
  0
LINE
  5
92E
330
8F9
100
AcDbEntity
  8
0
 62
     0
100
AcDbLine
 10
62.04577636577154
 20
7.663423365793404
 30
0.0
 11
62.24049760434956
 21
7.866364740940615
 31
0.0
  0
LINE
  5
92F
330
8F9
100
AcDbEntity
  8
0
 62
     0
100
AcDbLine
 10
62.37722412439939
 20
4.814329328204328
 30
0.0
 11
62.57194536297742
 21
5.017270703351539
 31
0.0
  0
LINE
  5
930
330
8F9
100
AcDbEntity
  8
0
 62
     0
100
AcDbLine
 10
46.36860839501473
 20
7.297114543139595
 30
0.0
 11
46.50554637997613
 21
7.43983335070726
 31
0.0
  0
LINE
  5
931
330
8F9
100
AcDbEntity
  8
0
 62
     0
100
AcDbLine
 10
45.70571287775901
 20
12.99530261831776
 30
0.0
 11
45.90043411633703
 21
13.19824399346497
 31
0.0
  0
LINE
  5
932
330
8F9
100
AcDbEntity
  8
0
 62
     0
100
AcDbLine
 10
45.37426511913117
 20
15.84439665590684
 30
0.0
 11
45.4554241545768
 21
15.92898181148225
 31
0.0
  0
LINE
  5
933
330
8F9
100
AcDbEntity
  8
0
 62
     0
100
AcDbLine
 10
62.59956841915943
 20
4.77980527308062
 30
0.0
 11
62.57194795799337
 21
5.017229797817415
 31
0.0
  0
LINE
  5
934
330
8F9
100
AcDbEntity
  8
0
 62
     0
100
AcDbLine
 10
62.26812293369957
 20
7.628899152735668
 30
0.0
 11
62.24050247253352
 21
7.866323677472462
 31
0.0
  0
LINE
  5
935
330
8F9
100
AcDbEntity
  8
0
 62
     0
100
AcDbLine
 10
61.93523664391806
 20
10.49037813629069
 30
0.0
 11
61.90905698707365
 21
10.71541755712751
 31
0.0
  0
LINE
  5
936
330
8F9
100
AcDbEntity
  8
0
 62
     0
100
AcDbLine
 10
61.60523196277985
 20
13.32708691204576
 30
0.0
 11
61.5776115016138
 21
13.56451143678256
 31
0.0
  0
LINE
  5
937
330
8F9
100
AcDbEntity
  8
0
 62
     0
100
AcDbLine
 10
45.92806395225004
 20
12.96078824681436
 30
0.0
 11
45.90044349108398
 21
13.19821277155115
 31
0.0
  0
LINE
  5
938
330
8F9
100
AcDbEntity
  8
0
 62
     0
100
AcDbLine
 10
45.59661846679018
 20
15.80988212646941
 30
0.0
 11
45.58276316591747
 21
15.92898181148225
 31
0.0
  0
LINE
  5
939
330
8F9
100
AcDbEntity
  8
0
 62
     0
100
AcDbLine
 10
62.04577636778024
 20
7.663423382718814
 30
0.0
 11
62.26811825292273
 21
7.628940254796773
 31
0.0
  0
LINE
  5
93A
330
8F9
100
AcDbEntity
  8
0
 62
     0
100
AcDbLine
 10
45.70571287864592
 20
12.99530263048364
 30
0.0
 11
45.92805476378841
 21
12.9608195025616
 31
0.0
  0
LINE
  5
93B
330
8F9
100
AcDbEntity
  8
0
 62
     0
100
AcDbLine
 10
61.71432860890454
 20
10.51251742009662
 30
0.0
 11
61.8570792928983
 21
10.49037813629069
 31
0.0
  0
LINE
  5
93C
330
8F9
100
AcDbEntity
  8
0
 62
     0
100
AcDbLine
 10
45.37426511977022
 20
15.84439666786146
 30
0.0
 11
45.5966070049127
 21
15.80991353993942
 31
0.0
  0
LINE
  5
93D
330
8F9
100
AcDbEntity
  8
0
 62
     0
100
AcDbLine
 10
61.38288085002884
 20
13.36161145747444
 30
0.0
 11
61.60522273517132
 21
13.3271283295524
 31
0.0
  0
LINE
  5
93E
330
8F9
100
AcDbEntity
  8
0
 62
     0
100
AcDbLine
 10
46.36860839639733
 20
7.297114555728019
 30
0.0
 11
46.50554637997613
 21
7.275876766896156
 31
0.0
  0
LINE
  5
93F
330
8F9
100
AcDbEntity
  8
0
 62
     0
100
AcDbLine
 10
62.37722412665594
 20
4.814329345340999
 30
0.0
 11
62.59956601179843
 21
4.779846217418957
 31
0.0
  0
LINE
  5
940
330
8F9
100
AcDbEntity
  8
0
 62
     0
100
AcDbLine
 10
44.91305709529489
 20
8.043290710127655
 30
0.0
 11
45.08810342526312
 21
8.110484700667399
 31
0.0
  0
LINE
  5
941
330
8F9
100
AcDbEntity
  8
0
 62
     0
100
AcDbLine
 10
61.71750477224453
 20
14.49391380194305
 30
0.0
 11
61.89255110221274
 21
14.5611077924828
 31
0.0
  0
LINE
  5
942
330
8F9
100
AcDbEntity
  8
0
 62
     0
100
AcDbLine
 10
44.30476876597235
 20
6.230415596987383
 30
0.0
 11
44.47981509594057
 21
6.297609587527127
 31
0.0
  0
LINE
  5
943
330
8F9
100
AcDbEntity
  8
0
 62
     0
100
AcDbLine
 10
46.40532472559105
 20
7.036743483464309
 30
0.0
 11
46.50554637997612
 21
7.07521497211449
 31
0.0
  0
LINE
  5
944
330
8F9
100
AcDbEntity
  8
0
 62
     0
100
AcDbLine
 10
63.20977240254068
 20
13.48736657527971
 30
0.0
 11
63.3848187325089
 21
13.55456056581945
 31
0.0
  0
LINE
  5
945
330
8F9
100
AcDbEntity
  8
0
 62
     0
100
AcDbLine
 10
45.7970363962685
 20
5.223868370324035
 30
0.0
 11
45.97208272623673
 21
5.291062360863779
 31
0.0
  0
LINE
  5
946
330
8F9
100
AcDbEntity
  8
0
 62
     0
100
AcDbLine
 10
62.60148407321814
 20
11.67449146213944
 30
0.0
 11
62.77653040318636
 21
11.74168545267918
 31
0.0
  0
LINE
  5
947
330
8F9
100
AcDbEntity
  8
0
 62
     0
100
AcDbLine
 10
61.38490741457303
 20
8.048741235858896
 30
0.0
 11
61.55995374454126
 21
8.11593522639864
 31
0.0
  0
LINE
  5
948
330
8F9
100
AcDbEntity
  8
0
 62
     0
100
AcDbLine
 10
63.48546337419174
 20
8.855069122335821
 30
0.0
 11
63.58842981349278
 21
8.89459423519915
 31
0.0
  0
LINE
  5
949
330
8F9
100
AcDbEntity
  8
0
 62
     0
100
AcDbLine
 10
62.87717504486919
 20
7.042194009195551
 30
0.0
 11
63.05222137483742
 21
7.109387999735295
 31
0.0
  0
LINE
  5
94A
330
8F9
100
AcDbEntity
  8
0
 62
     0
100
AcDbLine
 10
62.26888671554664
 20
5.229318896055278
 30
0.0
 11
62.44393304551486
 21
5.296512886595022
 31
0.0
  0
LINE
  5
94B
330
8F9
100
AcDbEntity
  8
0
 62
     0
100
AcDbLine
 10
62.44369519559356
 20
16.35204728863546
 30
0.0
 11
62.5008394315353
 21
16.37398290562307
 31
0.0
  0
LINE
  5
94C
330
8F9
100
AcDbEntity
  8
0
 62
     0
100
AcDbLine
 10
46.12963375394
 20
11.6690409364082
 30
0.0
 11
46.30468008390822
 21
11.73623492694794
 31
0.0
  0
LINE
  5
94D
330
8F9
100
AcDbEntity
  8
0
 62
     0
100
AcDbLine
 10
44.63736612364384
 20
12.67558816307154
 30
0.0
 11
44.81241245361206
 21
12.74278215361129
 31
0.0
  0
LINE
  5
94E
330
8F9
100
AcDbEntity
  8
0
 62
     0
100
AcDbLine
 10
45.24565445296638
 20
14.48846327621181
 30
0.0
 11
45.42070078293461
 21
14.55565726675156
 31
0.0
  0
LINE
  5
94F
330
8F9
100
AcDbEntity
  8
0
 62
     0
100
AcDbLine
 10
45.24565446925873
 20
14.4884632749011
 30
0.0
 11
45.37001010514198
 21
14.40458433938049
 31
0.0
  0
LINE
  5
950
330
8F9
100
AcDbEntity
  8
0
 62
     0
100
AcDbLine
 10
62.26888673565252
 20
5.229318898797457
 30
0.0
 11
62.39324237153577
 21
5.145439963276845
 31
0.0
  0
LINE
  5
951
330
8F9
100
AcDbEntity
  8
0
 62
     0
100
AcDbLine
 10
61.38490743485739
 20
8.04874123766193
 30
0.0
 11
61.50926307074065
 21
7.964862302141319
 31
0.0
  0
LINE
  5
952
330
8F9
100
AcDbEntity
  8
0
 62
     0
100
AcDbLine
 10
62.87717506545646
 20
7.042194011414587
 30
0.0
 11
63.00153070133973
 21
6.958315075893976
 31
0.0
  0
LINE
  5
953
330
8F9
100
AcDbEntity
  8
0
 62
     0
100
AcDbLine
 10
63.48546339526042
 20
8.855069124031729
 30
0.0
 11
63.58842981349277
 21
8.78561739798525
 31
0.0
  0
LINE
  5
954
330
8F9
100
AcDbEntity
  8
0
 62
     0
100
AcDbLine
 10
62.6014840944653
 20
11.6744914628962
 30
0.0
 11
62.72583973034856
 21
11.59061252737559
 31
0.0
  0
LINE
  5
955
330
8F9
100
AcDbEntity
  8
0
 62
     0
100
AcDbLine
 10
61.71750479367019
 20
14.49391380176068
 30
0.0
 11
61.84186042955344
 21
14.41003486624006
 31
0.0
  0
LINE
  5
956
330
8F9
100
AcDbEntity
  8
0
 62
     0
100
AcDbLine
 10
63.20977242426926
 20
13.48736657551333
 30
0.0
 11
63.33412806015251
 21
13.40348763999272
 31
0.0
  0
LINE
  5
957
330
8F9
100
AcDbEntity
  8
0
 62
     0
100
AcDbLine
 10
62.44369519559356
 20
16.22726296257989
 30
0.0
 11
62.4501487593574
 21
16.2229099788572
 31
0.0
  0
LINE
  5
958
330
8F9
100
AcDbEntity
  8
0
 62
     0
100
AcDbLine
 10
44.63736613945478
 20
12.67558816228397
 30
0.0
 11
44.76172177533803
 21
12.59170922676335
 31
0.0
  0
LINE
  5
959
330
8F9
100
AcDbEntity
  8
0
 62
     0
100
AcDbLine
 10
46.12963377005385
 20
11.66904093603662
 30
0.0
 11
46.25398940593711
 21
11.58516200051601
 31
0.0
  0
LINE
  5
95A
330
8F9
100
AcDbEntity
  8
0
 62
     0
100
AcDbLine
 10
44.91305711044594
 20
8.043290710802358
 30
0.0
 11
45.03741274632919
 21
7.959411775281746
 31
0.0
  0
LINE
  5
95B
330
8F9
100
AcDbEntity
  8
0
 62
     0
100
AcDbLine
 10
46.40532474104501
 20
7.036743484555015
 30
0.0
 11
46.50554637997611
 21
6.969143135524079
 31
0.0
  0
LINE
  5
95C
330
8F9
100
AcDbEntity
  8
0
 62
     0
100
AcDbLine
 10
44.30476878064199
 20
6.230415598185223
 30
0.0
 11
44.42912441652524
 21
6.146536662664612
 31
0.0
  0
LINE
  5
95D
330
8F9
100
AcDbEntity
  8
0
 62
     0
100
AcDbLine
 10
45.79703641124106
 20
5.22386837193788
 30
0.0
 11
45.92139204712432
 21
5.139989436417269
 31
0.0
  0
LINE
  5
95E
330
8F9
100
AcDbEntity
  8
0
 62
     0
100
AcDbLine
 10
61.84187083721006
 20
14.40998667777893
 30
0.0
 11
61.89256164770145
 21
14.56105955957594
 31
0.0
  0
LINE
  5
95F
330
8F9
100
AcDbEntity
  8
0
 62
     0
100
AcDbLine
 10
62.45016058060263
 20
16.222861311486
 30
0.0
 11
62.50085139109401
 21
16.373934193283
 31
0.0
  0
LINE
  5
960
330
8F9
100
AcDbEntity
  8
0
 62
     0
100
AcDbLine
 10
61.50926843509352
 20
7.964814384725556
 30
0.0
 11
61.5599592455849
 21
8.115887266522564
 31
0.0
  0
LINE
  5
961
330
8F9
100
AcDbEntity
  8
0
 62
     0
100
AcDbLine
 10
62.72584792187865
 20
11.59056365213968
 30
0.0
 11
62.77653873237003
 21
11.74163653393669
 31
0.0
  0
LINE
  5
962
330
8F9
100
AcDbEntity
  8
0
 62
     0
100
AcDbLine
 10
63.33413766527122
 20
13.40343828584675
 30
0.0
 11
63.3848284757626
 21
13.55451116764376
 31
0.0
  0
LINE
  5
963
330
8F9
100
AcDbEntity
  8
0
 62
     0
100
AcDbLine
 10
62.39324551976211
 20
5.145391359086311
 30
0.0
 11
62.44393633025349
 21
5.296464240883318
 31
0.0
  0
LINE
  5
964
330
8F9
100
AcDbEntity
  8
0
 62
     0
100
AcDbLine
 10
63.00153526315468
 20
6.958265992793376
 30
0.0
 11
63.05222607364606
 21
7.109338874590383
 31
0.0
  0
LINE
  5
965
330
8F9
100
AcDbEntity
  8
0
 62
     0
100
AcDbLine
 10
45.92139535024886
 20
5.139953717940634
 30
0.0
 11
45.97208616074023
 21
5.291026599737641
 31
0.0
  0
LINE
  5
966
330
8F9
100
AcDbEntity
  8
0
 62
     0
100
AcDbLine
 10
44.42912852218769
 20
6.146502109872817
 30
0.0
 11
44.47981933267907
 21
6.297574991669824
 31
0.0
  0
LINE
  5
967
330
8F9
100
AcDbEntity
  8
0
 62
     0
100
AcDbLine
 10
45.03741826558026
 20
7.959376743579881
 30
0.0
 11
45.08810907607164
 21
8.110449625376888
 31
0.0
  0
LINE
  5
968
330
8F9
100
AcDbEntity
  8
0
 62
     0
100
AcDbLine
 10
46.2539977523654
 20
11.58512601099401
 30
0.0
 11
46.30468856285679
 21
11.73619889279102
 31
0.0
  0
LINE
  5
969
330
8F9
100
AcDbEntity
  8
0
 62
     0
100
AcDbLine
 10
44.76173092430424
 20
12.59167440292619
 30
0.0
 11
44.81242173479563
 21
12.7427472847232
 31
0.0
  0
LINE
  5
96A
330
8F9
100
AcDbEntity
  8
0
 62
     0
100
AcDbLine
 10
45.37002066769681
 20
14.40454903663326
 30
0.0
 11
45.42071147818819
 21
14.55562191843027
 31
0.0
  0
LINE
  5
96B
330
8F9
100
AcDbEntity
  8
0
 62
     0
100
AcDbLine
 10
44.79351302753194
 20
4.441669079842172
 30
0.0
 11
44.79351302753194
 21
4.441669079842172
 31
0.0
  0
LINE
  5
96C
330
8F9
100
AcDbEntity
  8
0
 62
     0
100
AcDbLine
 10
46.1075044973893
 20
5.449930196637866
 30
0.0
 11
46.1075044973893
 21
5.449930196637866
 31
0.0
  0
LINE
  5
96D
330
8F9
100
AcDbEntity
  8
0
 62
     0
100
AcDbLine
 10
44.82391266582516
 20
5.273903714420455
 30
0.0
 11
44.82391266582516
 21
5.273903714420455
 31
0.0
  0
LINE
  5
96E
330
8F9
100
AcDbEntity
  8
0
 62
     0
100
AcDbLine
 10
46.13790413568252
 20
6.282164831216148
 30
0.0
 11
46.13790413568252
 21
6.282164831216148
 31
0.0
  0
LINE
  5
96F
330
8F9
100
AcDbEntity
  8
0
 62
     0
100
AcDbLine
 10
44.85431230411839
 20
6.106138348998731
 30
0.0
 11
44.85431230411839
 21
6.106138348998731
 31
0.0
  0
LINE
  5
970
330
8F9
100
AcDbEntity
  8
0
 62
     0
100
AcDbLine
 10
46.16830377397575
 20
7.114399465794424
 30
0.0
 11
46.16830377397575
 21
7.114399465794424
 31
0.0
  0
LINE
  5
971
330
8F9
100
AcDbEntity
  8
0
 62
     0
100
AcDbLine
 10
44.88471194241161
 20
6.938372983577008
 30
0.0
 11
44.88471194241161
 21
6.938372983577008
 31
0.0
  0
LINE
  5
972
330
8F9
100
AcDbEntity
  8
0
 62
     0
100
AcDbLine
 10
46.19870341226897
 20
7.946634100372701
 30
0.0
 11
46.19870341226897
 21
7.946634100372701
 31
0.0
  0
LINE
  5
973
330
8F9
100
AcDbEntity
  8
0
 62
     0
100
AcDbLine
 10
44.91511158070484
 20
7.770607618155288
 30
0.0
 11
44.91511158070484
 21
7.770607618155288
 31
0.0
  0
LINE
  5
974
330
8F9
100
AcDbEntity
  8
0
 62
     0
100
AcDbLine
 10
46.2291030505622
 20
8.778868734950982
 30
0.0
 11
46.2291030505622
 21
8.778868734950982
 31
0.0
  0
LINE
  5
975
330
8F9
100
AcDbEntity
  8
0
 62
     0
100
AcDbLine
 10
44.94551121899807
 20
8.602842252733569
 30
0.0
 11
44.94551121899807
 21
8.602842252733569
 31
0.0
  0
LINE
  5
976
330
8F9
100
AcDbEntity
  8
0
 62
     0
100
AcDbLine
 10
44.9759108572913
 20
9.435076887311847
 30
0.0
 11
44.9759108572913
 21
9.435076887311847
 31
0.0
  0
LINE
  5
977
330
8F9
100
AcDbEntity
  8
0
 62
     0
100
AcDbLine
 10
46.32030196544188
 20
11.27557263868582
 30
0.0
 11
46.32030196544188
 21
11.27557263868582
 31
0.0
  0
LINE
  5
978
330
8F9
100
AcDbEntity
  8
0
 62
     0
100
AcDbLine
 10
45.03671013387775
 20
11.0995461564684
 30
0.0
 11
45.03671013387775
 21
11.0995461564684
 31
0.0
  0
LINE
  5
979
330
8F9
100
AcDbEntity
  8
0
 62
     0
100
AcDbLine
 10
46.35070160373511
 20
12.10780727326409
 30
0.0
 11
46.35070160373511
 21
12.10780727326409
 31
0.0
  0
LINE
  5
97A
330
8F9
100
AcDbEntity
  8
0
 62
     0
100
AcDbLine
 10
45.06710977217098
 20
11.93178079104668
 30
0.0
 11
45.06710977217098
 21
11.93178079104668
 31
0.0
  0
LINE
  5
97B
330
8F9
100
AcDbEntity
  8
0
 62
     0
100
AcDbLine
 10
46.38110124202833
 20
12.94004190784237
 30
0.0
 11
46.38110124202833
 21
12.94004190784237
 31
0.0
  0
LINE
  5
97C
330
8F9
100
AcDbEntity
  8
0
 62
     0
100
AcDbLine
 10
45.0975094104642
 20
12.76401542562496
 30
0.0
 11
45.0975094104642
 21
12.76401542562496
 31
0.0
  0
LINE
  5
97D
330
8F9
100
AcDbEntity
  8
0
 62
     0
100
AcDbLine
 10
46.41150088032156
 20
13.77227654242065
 30
0.0
 11
46.41150088032156
 21
13.77227654242065
 31
0.0
  0
LINE
  5
97E
330
8F9
100
AcDbEntity
  8
0
 62
     0
100
AcDbLine
 10
45.12790904875743
 20
13.59625006020324
 30
0.0
 11
45.12790904875743
 21
13.59625006020324
 31
0.0
  0
LINE
  5
97F
330
8F9
100
AcDbEntity
  8
0
 62
     0
100
AcDbLine
 10
46.44190051861478
 20
14.60451117699893
 30
0.0
 11
46.44190051861478
 21
14.60451117699893
 31
0.0
  0
LINE
  5
980
330
8F9
100
AcDbEntity
  8
0
 62
     0
100
AcDbLine
 10
45.15830868705065
 20
14.42848469478152
 30
0.0
 11
45.15830868705065
 21
14.42848469478152
 31
0.0
  0
LINE
  5
981
330
8F9
100
AcDbEntity
  8
0
 62
     0
100
AcDbLine
 10
46.47230015690801
 20
15.43674581157721
 30
0.0
 11
46.47230015690801
 21
15.43674581157721
 31
0.0
  0
LINE
  5
982
330
8F9
100
AcDbEntity
  8
0
 62
     0
100
AcDbLine
 10
45.18870832534388
 20
15.26071932935979
 30
0.0
 11
45.18870832534388
 21
15.26071932935979
 31
0.0
  0
LINE
  5
983
330
8F9
100
AcDbEntity
  8
0
 62
     0
100
AcDbLine
 10
45.21910796363711
 20
16.09295396393807
 30
0.0
 11
45.21910796363711
 21
16.09295396393807
 31
0.0
  0
LINE
  5
984
330
8F9
100
AcDbEntity
  8
0
 62
     0
100
AcDbLine
 10
45.24950760193034
 20
16.92518859851635
 30
0.0
 11
45.24950760193034
 21
16.92518859851635
 31
0.0
  0
LINE
  5
985
330
8F9
100
AcDbEntity
  8
0
 62
     0
100
AcDbLine
 10
46.07710485909606
 20
4.61769556205959
 30
0.0
 11
46.07710485909606
 21
4.61769556205959
 31
0.0
  0
LINE
  5
986
330
8F9
100
AcDbEntity
  8
0
 62
     0
100
AcDbLine
 10
61.79080225888241
 20
15.86633148615936
 30
0.0
 11
61.79080225888241
 21
15.86633148615936
 31
0.0
  0
LINE
  5
987
330
8F9
100
AcDbEntity
  8
0
 62
     0
100
AcDbLine
 10
63.08396820355712
 20
16.85861261544359
 30
0.0
 11
63.08396820355712
 21
16.85861261544359
 31
0.0
  0
LINE
  5
988
330
8F9
100
AcDbEntity
  8
0
 62
     0
100
AcDbLine
 10
61.76040262058918
 20
15.03409685158109
 30
0.0
 11
61.76040262058918
 21
15.03409685158109
 31
0.0
  0
LINE
  5
989
330
8F9
100
AcDbEntity
  8
0
 62
     0
100
AcDbLine
 10
63.05356856526389
 20
16.0263779808653
 30
0.0
 11
63.05356856526389
 21
16.0263779808653
 31
0.0
  0
LINE
  5
98A
330
8F9
100
AcDbEntity
  8
0
 62
     0
100
AcDbLine
 10
61.73000298229595
 20
14.20186221700281
 30
0.0
 11
61.73000298229595
 21
14.20186221700281
 31
0.0
  0
LINE
  5
98B
330
8F9
100
AcDbEntity
  8
0
 62
     0
100
AcDbLine
 10
63.02316892697066
 20
15.19414334628702
 30
0.0
 11
63.02316892697066
 21
15.19414334628702
 31
0.0
  0
LINE
  5
98C
330
8F9
100
AcDbEntity
  8
0
 62
     0
100
AcDbLine
 10
61.69960334400272
 20
13.36962758242453
 30
0.0
 11
61.69960334400272
 21
13.36962758242453
 31
0.0
  0
LINE
  5
98D
330
8F9
100
AcDbEntity
  8
0
 62
     0
100
AcDbLine
 10
62.99276928867743
 20
14.36190871170874
 30
0.0
 11
62.99276928867743
 21
14.36190871170874
 31
0.0
  0
LINE
  5
98E
330
8F9
100
AcDbEntity
  8
0
 62
     0
100
AcDbLine
 10
61.6692037057095
 20
12.53739294784625
 30
0.0
 11
61.6692037057095
 21
12.53739294784625
 31
0.0
  0
LINE
  5
98F
330
8F9
100
AcDbEntity
  8
0
 62
     0
100
AcDbLine
 10
62.96236965038421
 20
13.52967407713046
 30
0.0
 11
62.96236965038421
 21
13.52967407713046
 31
0.0
  0
LINE
  5
990
330
8F9
100
AcDbEntity
  8
0
 62
     0
100
AcDbLine
 10
61.63880406741627
 20
11.70515831326797
 30
0.0
 11
61.63880406741627
 21
11.70515831326797
 31
0.0
  0
LINE
  5
991
330
8F9
100
AcDbEntity
  8
0
 62
     0
100
AcDbLine
 10
62.93197001209098
 20
12.69743944255218
 30
0.0
 11
62.93197001209098
 21
12.69743944255218
 31
0.0
  0
LINE
  5
992
330
8F9
100
AcDbEntity
  8
0
 62
     0
100
AcDbLine
 10
61.60840442912305
 20
10.87292367868969
 30
0.0
 11
61.60840442912305
 21
10.87292367868969
 31
0.0
  0
LINE
  5
993
330
8F9
100
AcDbEntity
  8
0
 62
     0
100
AcDbLine
 10
62.90157037379776
 20
11.86520480797391
 30
0.0
 11
62.90157037379776
 21
11.86520480797391
 31
0.0
  0
LINE
  5
994
330
8F9
100
AcDbEntity
  8
0
 62
     0
100
AcDbLine
 10
62.87117073550453
 20
11.03297017339563
 30
0.0
 11
62.87117073550453
 21
11.03297017339563
 31
0.0
  0
LINE
  5
995
330
8F9
100
AcDbEntity
  8
0
 62
     0
100
AcDbLine
 10
61.54760515253659
 20
9.208454409533141
 30
0.0
 11
61.54760515253659
 21
9.208454409533141
 31
0.0
  0
LINE
  5
996
330
8F9
100
AcDbEntity
  8
0
 62
     0
100
AcDbLine
 10
61.51720551424336
 20
8.37621977495486
 30
0.0
 11
61.51720551424336
 21
8.37621977495486
 31
0.0
  0
LINE
  5
997
330
8F9
100
AcDbEntity
  8
0
 62
     0
100
AcDbLine
 10
62.81037145891807
 20
9.368500904239073
 30
0.0
 11
62.81037145891807
 21
9.368500904239073
 31
0.0
  0
LINE
  5
998
330
8F9
100
AcDbEntity
  8
0
 62
     0
100
AcDbLine
 10
61.48680587595014
 20
7.543985140376583
 30
0.0
 11
61.48680587595014
 21
7.543985140376583
 31
0.0
  0
LINE
  5
999
330
8F9
100
AcDbEntity
  8
0
 62
     0
100
AcDbLine
 10
62.77997182062485
 20
8.536266269660798
 30
0.0
 11
62.77997182062485
 21
8.536266269660798
 31
0.0
  0
LINE
  5
99A
330
8F9
100
AcDbEntity
  8
0
 62
     0
100
AcDbLine
 10
61.45640623765692
 20
6.711750505798306
 30
0.0
 11
61.45640623765692
 21
6.711750505798306
 31
0.0
  0
LINE
  5
99B
330
8F9
100
AcDbEntity
  8
0
 62
     0
100
AcDbLine
 10
62.74957218233163
 20
7.704031635082521
 30
0.0
 11
62.74957218233163
 21
7.704031635082521
 31
0.0
  0
LINE
  5
99C
330
8F9
100
AcDbEntity
  8
0
 62
     0
100
AcDbLine
 10
61.42600659936369
 20
5.879515871220029
 30
0.0
 11
61.42600659936369
 21
5.879515871220029
 31
0.0
  0
LINE
  5
99D
330
8F9
100
AcDbEntity
  8
0
 62
     0
100
AcDbLine
 10
62.7191725440384
 20
6.871797000504244
 30
0.0
 11
62.7191725440384
 21
6.871797000504244
 31
0.0
  0
LINE
  5
99E
330
8F9
100
AcDbEntity
  8
0
 62
     0
100
AcDbLine
 10
61.39560696107046
 20
5.047281236641744
 30
0.0
 11
61.39560696107046
 21
5.047281236641744
 31
0.0
  0
LINE
  5
99F
330
8F9
100
AcDbEntity
  8
0
 62
     0
100
AcDbLine
 10
62.68877290574517
 20
6.039562365925958
 30
0.0
 11
62.68877290574517
 21
6.039562365925958
 31
0.0
  0
LINE
  5
9A0
330
8F9
100
AcDbEntity
  8
0
 62
     0
100
AcDbLine
 10
61.36520732277723
 20
4.215046602063467
 30
0.0
 11
61.36520732277723
 21
4.215046602063467
 31
0.0
  0
LINE
  5
9A1
330
8F9
100
AcDbEntity
  8
0
 62
     0
100
AcDbLine
 10
62.65837326745194
 20
5.207327731347682
 30
0.0
 11
62.65837326745194
 21
5.207327731347682
 31
0.0
  0
LINE
  5
9A2
330
8F9
100
AcDbEntity
  8
0
 62
     0
100
AcDbLine
 10
62.62797362915872
 20
4.375093096769406
 30
0.0
 11
62.62797362915872
 21
4.375093096769406
 31
0.0
  0
LINE
  5
9A3
330
8F9
100
AcDbEntity
  8
0
 62
     0
100
AcDbLine
 10
61.88439751442727
 20
11.74501499685498
 30
0.0
 11
61.88439751442727
 21
11.74501499685498
 31
0.0
  0
LINE
  5
9A4
330
8F9
100
AcDbEntity
  8
0
 62
     0
100
AcDbLine
 10
62.51024708316949
 20
11.82740965569389
 30
0.0
 11
62.51024708316949
 21
11.82740965569389
 31
0.0
  0
LINE
  5
9A5
330
8F9
100
AcDbEntity
  8
0
 62
     0
100
AcDbLine
 10
63.45707692578148
 20
11.95206216926404
 30
0.0
 11
63.45707692578148
 21
11.95206216926404
 31
0.0
  0
LINE
  5
9A6
330
8F9
100
AcDbEntity
  8
0
 62
     0
100
AcDbLine
 10
62.54207135803263
 20
12.73104427656088
 30
0.0
 11
62.54207135803263
 21
12.73104427656088
 31
0.0
  0
LINE
  5
9A7
330
8F9
100
AcDbEntity
  8
0
 62
     0
100
AcDbLine
 10
63.16792092677485
 20
12.81343893539979
 30
0.0
 11
63.16792092677485
 21
12.81343893539979
 31
0.0
  0
LINE
  5
9A8
330
8F9
100
AcDbEntity
  8
0
 62
     0
100
AcDbLine
 10
44.29041308308601
 20
11.22761275514985
 30
0.0
 11
44.29041308308601
 21
11.22761275514985
 31
0.0
  0
LINE
  5
9A9
330
8F9
100
AcDbEntity
  8
0
 62
     0
100
AcDbLine
 10
44.91626265182823
 20
11.31000741398876
 30
0.0
 11
44.91626265182823
 21
11.31000741398876
 31
0.0
  0
LINE
  5
9AA
330
8F9
100
AcDbEntity
  8
0
 62
     0
100
AcDbLine
 10
45.86309249444022
 20
11.43465992755891
 30
0.0
 11
45.86309249444022
 21
11.43465992755891
 31
0.0
  0
LINE
  5
9AB
330
8F9
100
AcDbEntity
  8
0
 62
     0
100
AcDbLine
 10
61.62086925990021
 20
13.50921059515635
 30
0.0
 11
61.62086925990021
 21
13.50921059515635
 31
0.0
  0
LINE
  5
9AC
330
8F9
100
AcDbEntity
  8
0
 62
     0
100
AcDbLine
 10
63.19974520163801
 20
13.71707355626678
 30
0.0
 11
63.19974520163801
 21
13.71707355626678
 31
0.0
  0
LINE
  5
9AD
330
8F9
100
AcDbEntity
  8
0
 62
     0
100
AcDbLine
 10
44.94808692669138
 20
12.21364203485575
 30
0.0
 11
44.94808692669138
 21
12.21364203485575
 31
0.0
  0
LINE
  5
9AE
330
8F9
100
AcDbEntity
  8
0
 62
     0
100
AcDbLine
 10
45.5739364954336
 20
12.29603669369466
 30
0.0
 11
45.5739364954336
 21
12.29603669369466
 31
0.0
  0
LINE
  5
9AF
330
8F9
100
AcDbEntity
  8
0
 62
     0
100
AcDbLine
 10
62.27854310350559
 20
14.49523987486225
 30
0.0
 11
62.27854310350559
 21
14.49523987486225
 31
0.0
  0
LINE
  5
9B0
330
8F9
100
AcDbEntity
  8
0
 62
     0
100
AcDbLine
 10
45.60576077029675
 20
13.19967131456165
 30
0.0
 11
45.60576077029675
 21
13.19967131456165
 31
0.0
  0
LINE
  5
9B1
330
8F9
100
AcDbEntity
  8
0
 62
     0
100
AcDbLine
 10
46.23161033903897
 20
13.28206597340056
 30
0.0
 11
46.23161033903897
 21
13.28206597340056
 31
0.0
  0
LINE
  5
9B2
330
8F9
100
AcDbEntity
  8
0
 62
     0
100
AcDbLine
 10
61.36353753575676
 20
15.27422198215909
 30
0.0
 11
61.36353753575676
 21
15.27422198215909
 31
0.0
  0
LINE
  5
9B3
330
8F9
100
AcDbEntity
  8
0
 62
     0
100
AcDbLine
 10
61.98938710449898
 20
15.356616640998
 30
0.0
 11
61.98938710449898
 21
15.356616640998
 31
0.0
  0
LINE
  5
9B4
330
8F9
100
AcDbEntity
  8
0
 62
     0
100
AcDbLine
 10
62.93621694711096
 20
15.48126915456815
 30
0.0
 11
62.93621694711096
 21
15.48126915456815
 31
0.0
  0
LINE
  5
9B5
330
8F9
100
AcDbEntity
  8
0
 62
     0
100
AcDbLine
 10
44.68455867216433
 20
13.97783763315712
 30
0.0
 11
44.68455867216433
 21
13.97783763315712
 31
0.0
  0
LINE
  5
9B6
330
8F9
100
AcDbEntity
  8
0
 62
     0
100
AcDbLine
 10
46.26343461390212
 20
14.18570059426755
 30
0.0
 11
46.26343461390212
 21
14.18570059426755
 31
0.0
  0
LINE
  5
9B7
330
8F9
100
AcDbEntity
  8
0
 62
     0
100
AcDbLine
 10
62.64706094810435
 20
16.3426459207039
 30
0.0
 11
62.64706094810435
 21
16.3426459207039
 31
0.0
  0
LINE
  5
9B8
330
8F9
100
AcDbEntity
  8
0
 62
     0
100
AcDbLine
 10
44.39540267315772
 20
14.83921439929287
 30
0.0
 11
44.39540267315772
 21
14.83921439929287
 31
0.0
  0
LINE
  5
9B9
330
8F9
100
AcDbEntity
  8
0
 62
     0
100
AcDbLine
 10
45.3422325157697
 20
14.96386691286302
 30
0.0
 11
45.3422325157697
 21
14.96386691286302
 31
0.0
  0
LINE
  5
9BA
330
8F9
100
AcDbEntity
  8
0
 62
     0
100
AcDbLine
 10
44.42722694802086
 20
15.74284902015986
 30
0.0
 11
44.42722694802086
 21
15.74284902015986
 31
0.0
  0
LINE
  5
9BB
330
8F9
100
AcDbEntity
  8
0
 62
     0
100
AcDbLine
 10
45.05307651676308
 20
15.82524367899877
 30
0.0
 11
45.05307651676308
 21
15.82524367899877
 31
0.0
  0
LINE
  5
9BC
330
8F9
100
AcDbEntity
  8
0
 62
     0
100
AcDbLine
 10
45.08490079162624
 20
16.72887829986576
 30
0.0
 11
45.08490079162624
 21
16.72887829986576
 31
0.0
  0
LINE
  5
9BD
330
8F9
100
AcDbEntity
  8
0
 62
     0
100
AcDbLine
 10
45.46894690536189
 20
8.684435049551639
 30
0.0
 11
45.46894690536189
 21
8.684435049551639
 31
0.0
  0
LINE
  5
9BE
330
8F9
100
AcDbEntity
  8
0
 62
     0
100
AcDbLine
 10
46.09479647410411
 20
8.766829708390547
 30
0.0
 11
46.09479647410411
 21
8.766829708390547
 31
0.0
  0
LINE
  5
9BF
330
8F9
100
AcDbEntity
  8
0
 62
     0
100
AcDbLine
 10
61.85257323956411
 20
10.84138037598799
 30
0.0
 11
61.85257323956411
 21
10.84138037598799
 31
0.0
  0
LINE
  5
9C0
330
8F9
100
AcDbEntity
  8
0
 62
     0
100
AcDbLine
 10
62.79940308217611
 20
10.96603288955814
 30
0.0
 11
62.79940308217611
 21
10.96603288955814
 31
0.0
  0
LINE
  5
9C1
330
8F9
100
AcDbEntity
  8
0
 62
     0
100
AcDbLine
 10
44.81127306175653
 20
7.698405769845739
 30
0.0
 11
44.81127306175653
 21
7.698405769845739
 31
0.0
  0
LINE
  5
9C2
330
8F9
100
AcDbEntity
  8
0
 62
     0
100
AcDbLine
 10
45.43712263049875
 20
7.780800428684647
 30
0.0
 11
45.43712263049875
 21
7.780800428684647
 31
0.0
  0
LINE
  5
9C3
330
8F9
100
AcDbEntity
  8
0
 62
     0
100
AcDbLine
 10
46.38395247311073
 20
7.905452942254796
 30
0.0
 11
46.38395247311073
 21
7.905452942254796
 31
0.0
  0
LINE
  5
9C4
330
8F9
100
AcDbEntity
  8
0
 62
     0
100
AcDbLine
 10
44.77944878689337
 20
6.794771148978746
 30
0.0
 11
44.77944878689337
 21
6.794771148978746
 31
0.0
  0
LINE
  5
9C5
330
8F9
100
AcDbEntity
  8
0
 62
     0
100
AcDbLine
 10
45.72627862950535
 20
6.919423662548895
 30
0.0
 11
45.72627862950535
 21
6.919423662548895
 31
0.0
  0
LINE
  5
9C6
330
8F9
100
AcDbEntity
  8
0
 62
     0
100
AcDbLine
 10
61.48405539496536
 20
8.99397433014634
 30
0.0
 11
61.48405539496536
 21
8.99397433014634
 31
0.0
  0
LINE
  5
9C7
330
8F9
100
AcDbEntity
  8
0
 62
     0
100
AcDbLine
 10
63.06293133670315
 20
9.201837291256772
 30
0.0
 11
63.06293133670315
 21
9.201837291256772
 31
0.0
  0
LINE
  5
9C8
330
8F9
100
AcDbEntity
  8
0
 62
     0
100
AcDbLine
 10
45.06860478589998
 20
5.933394382842994
 30
0.0
 11
45.06860478589998
 21
5.933394382842994
 31
0.0
  0
LINE
  5
9C9
330
8F9
100
AcDbEntity
  8
0
 62
     0
100
AcDbLine
 10
62.40525749309778
 20
8.215808011550871
 30
0.0
 11
62.40525749309778
 21
8.215808011550871
 31
0.0
  0
LINE
  5
9CA
330
8F9
100
AcDbEntity
  8
0
 62
     0
100
AcDbLine
 10
63.03110706184
 20
8.298202670389779
 30
0.0
 11
63.03110706184
 21
8.298202670389779
 31
0.0
  0
LINE
  5
9CB
330
8F9
100
AcDbEntity
  8
0
 62
     0
100
AcDbLine
 10
44.41093094229461
 20
4.947365103137093
 30
0.0
 11
44.41093094229461
 21
4.947365103137093
 31
0.0
  0
LINE
  5
9CC
330
8F9
100
AcDbEntity
  8
0
 62
     0
100
AcDbLine
 10
45.9898068840324
 20
5.155228064247526
 30
0.0
 11
45.9898068840324
 21
5.155228064247526
 31
0.0
  0
LINE
  5
9CD
330
8F9
100
AcDbEntity
  8
0
 62
     0
100
AcDbLine
 10
61.74758364949241
 20
7.22977873184497
 30
0.0
 11
61.74758364949241
 21
7.22977873184497
 31
0.0
  0
LINE
  5
9CE
330
8F9
100
AcDbEntity
  8
0
 62
     0
100
AcDbLine
 10
62.37343321823463
 20
7.312173390683878
 30
0.0
 11
62.37343321823463
 21
7.312173390683878
 31
0.0
  0
LINE
  5
9CF
330
8F9
100
AcDbEntity
  8
0
 62
     0
100
AcDbLine
 10
63.32026306084662
 20
7.436825904254027
 30
0.0
 11
63.32026306084662
 21
7.436825904254027
 31
0.0
  0
LINE
  5
9D0
330
8F9
100
AcDbEntity
  8
0
 62
     0
100
AcDbLine
 10
45.95798260916925
 20
4.251593443380534
 30
0.0
 11
45.95798260916925
 21
4.251593443380534
 31
0.0
  0
LINE
  5
9D1
330
8F9
100
AcDbEntity
  8
0
 62
     0
100
AcDbLine
 10
61.71575937462925
 20
6.326144110977978
 30
0.0
 11
61.71575937462925
 21
6.326144110977978
 31
0.0
  0
LINE
  5
9D2
330
8F9
100
AcDbEntity
  8
0
 62
     0
100
AcDbLine
 10
62.66258921724125
 20
6.450796624548127
 30
0.0
 11
62.66258921724125
 21
6.450796624548127
 31
0.0
  0
LINE
  5
9D3
330
8F9
100
AcDbEntity
  8
0
 62
     0
100
AcDbLine
 10
62.00491537363586
 20
5.464767344842226
 30
0.0
 11
62.00491537363586
 21
5.464767344842226
 31
0.0
  0
LINE
  5
9D4
330
8F9
100
AcDbEntity
  8
0
 62
     0
100
AcDbLine
 10
63.58379131537366
 20
5.672630305952658
 30
0.0
 11
63.58379131537366
 21
5.672630305952658
 31
0.0
  0
LINE
  5
9D5
330
8F9
100
AcDbEntity
  8
0
 62
     0
100
AcDbLine
 10
62.92611747176828
 20
4.686601026246758
 30
0.0
 11
62.92611747176828
 21
4.686601026246758
 31
0.0
  0
LINE
  5
9D6
330
8F9
100
AcDbEntity
  8
0
 62
     0
100
AcDbLine
 10
63.5519670405105
 20
4.768995685085665
 30
0.0
 11
63.5519670405105
 21
4.768995685085665
 31
0.0
  0
LINE
  5
9D7
330
8F9
100
AcDbEntity
  8
0
 62
     0
100
AcDbLine
 10
45.03413878150514
 20
16.20259537448422
 30
0.0
 11
45.03413878150514
 21
16.20259537448422
 31
0.0
  0
LINE
  5
9D8
330
8F9
100
AcDbEntity
  8
0
 62
     0
100
AcDbLine
 10
62.45017213754122
 20
5.107358462122306
 30
0.0
 11
62.45017213754122
 21
5.107358462122306
 31
0.0
  0
LINE
  5
9D9
330
8F9
100
AcDbEntity
  8
0
 62
     0
100
AcDbLine
 10
62.97729179117427
 20
4.771546206905541
 30
0.0
 11
62.97729179117427
 21
4.771546206905541
 31
0.0
  0
LINE
  5
9DA
330
8F9
100
AcDbEntity
  8
0
 62
     0
100
AcDbLine
 10
45.56125843513819
 20
15.86678311926745
 30
0.0
 11
45.56125843513819
 21
15.86678311926745
 31
0.0
  0
LINE
  5
9DB
330
8F9
100
AcDbEntity
  8
0
 62
     0
100
AcDbLine
 10
61.60245286193139
 20
6.441234019383769
 30
0.0
 11
61.60245286193139
 21
6.441234019383769
 31
0.0
  0
LINE
  5
9DC
330
8F9
100
AcDbEntity
  8
0
 62
     0
100
AcDbLine
 10
62.93700895236241
 20
6.384846840047818
 30
0.0
 11
62.93700895236241
 21
6.384846840047818
 31
0.0
  0
LINE
  5
9DD
330
8F9
100
AcDbEntity
  8
0
 62
     0
100
AcDbLine
 10
62.09983206982525
 20
7.712006152204938
 30
0.0
 11
62.09983206982525
 21
7.712006152204938
 31
0.0
  0
LINE
  5
9DE
330
8F9
100
AcDbEntity
  8
0
 62
     0
100
AcDbLine
 10
62.6269517234583
 20
7.376193896988173
 30
0.0
 11
62.6269517234583
 21
7.376193896988173
 31
0.0
  0
LINE
  5
9DF
330
8F9
100
AcDbEntity
  8
0
 62
     0
100
AcDbLine
 10
63.43438816025628
 20
7.655618972868995
 30
0.0
 11
63.43438816025628
 21
7.655618972868995
 31
0.0
  0
LINE
  5
9E0
330
8F9
100
AcDbEntity
  8
0
 62
     0
100
AcDbLine
 10
62.58666888464646
 20
8.989494530130452
 30
0.0
 11
62.58666888464646
 21
8.989494530130452
 31
0.0
  0
LINE
  5
9E1
330
8F9
100
AcDbEntity
  8
0
 62
     0
100
AcDbLine
 10
62.23632881693051
 20
11.59414222021307
 30
0.0
 11
62.23632881693051
 21
11.59414222021307
 31
0.0
  0
LINE
  5
9E2
330
8F9
100
AcDbEntity
  8
0
 62
     0
100
AcDbLine
 10
61.39915193439335
 20
12.9213015323702
 30
0.0
 11
61.39915193439335
 21
12.9213015323702
 31
0.0
  0
LINE
  5
9E3
330
8F9
100
AcDbEntity
  8
0
 62
     0
100
AcDbLine
 10
61.9262715880264
 20
12.58548927715343
 30
0.0
 11
61.9262715880264
 21
12.58548927715343
 31
0.0
  0
LINE
  5
9E4
330
8F9
100
AcDbEntity
  8
0
 62
     0
100
AcDbLine
 10
63.57088490736153
 20
11.53775504087712
 30
0.0
 11
63.57088490736153
 21
11.53775504087712
 31
0.0
  0
LINE
  5
9E5
330
8F9
100
AcDbEntity
  8
0
 62
     0
100
AcDbLine
 10
62.73370802482438
 20
12.86491435303425
 30
0.0
 11
62.73370802482438
 21
12.86491435303425
 31
0.0
  0
LINE
  5
9E6
330
8F9
100
AcDbEntity
  8
0
 62
     0
100
AcDbLine
 10
63.26082767845743
 20
12.52910209781748
 30
0.0
 11
63.26082767845743
 21
12.52910209781748
 31
0.0
  0
LINE
  5
9E7
330
8F9
100
AcDbEntity
  8
0
 62
     0
100
AcDbLine
 10
61.88598874921456
 20
14.1987899102957
 30
0.0
 11
61.88598874921456
 21
14.1987899102957
 31
0.0
  0
LINE
  5
9E8
330
8F9
100
AcDbEntity
  8
0
 62
     0
100
AcDbLine
 10
61.57593152031045
 20
15.19013696723606
 30
0.0
 11
61.57593152031045
 21
15.19013696723606
 31
0.0
  0
LINE
  5
9E9
330
8F9
100
AcDbEntity
  8
0
 62
     0
100
AcDbLine
 10
63.22054483964558
 20
14.14240273095975
 30
0.0
 11
63.22054483964558
 21
14.14240273095975
 31
0.0
  0
LINE
  5
9EA
330
8F9
100
AcDbEntity
  8
0
 62
     0
100
AcDbLine
 10
62.38336795710843
 20
15.46956204311688
 30
0.0
 11
62.38336795710843
 21
15.46956204311688
 31
0.0
  0
LINE
  5
9EB
330
8F9
100
AcDbEntity
  8
0
 62
     0
100
AcDbLine
 10
62.91048761074148
 20
15.13374978790012
 30
0.0
 11
62.91048761074148
 21
15.13374978790012
 31
0.0
  0
LINE
  5
9EC
330
8F9
100
AcDbEntity
  8
0
 62
     0
100
AcDbLine
 10
62.87020477192964
 20
16.74705042104239
 30
0.0
 11
62.87020477192964
 21
16.74705042104239
 31
0.0
  0
LINE
  5
9ED
330
8F9
100
AcDbEntity
  8
0
 62
     0
100
AcDbLine
 10
45.87131566404229
 20
14.8754360623271
 30
0.0
 11
45.87131566404229
 21
14.8754360623271
 31
0.0
  0
LINE
  5
9EE
330
8F9
100
AcDbEntity
  8
0
 62
     0
100
AcDbLine
 10
61.64273570074325
 20
4.827933386241491
 30
0.0
 11
61.64273570074325
 21
4.827933386241491
 31
0.0
  0
LINE
  5
9EF
330
8F9
100
AcDbEntity
  8
0
 62
     0
100
AcDbLine
 10
44.53675957361127
 20
14.93182324166305
 30
0.0
 11
44.53675957361127
 21
14.93182324166305
 31
0.0
  0
LINE
  5
9F0
330
8F9
100
AcDbEntity
  8
0
 62
     0
100
AcDbLine
 10
45.38447884922109
 20
13.5979476844016
 30
0.0
 11
45.38447884922109
 21
13.5979476844016
 31
0.0
  0
LINE
  5
9F1
330
8F9
100
AcDbEntity
  8
0
 62
     0
100
AcDbLine
 10
45.91159850285413
 20
13.26213542918483
 30
0.0
 11
45.91159850285413
 21
13.26213542918483
 31
0.0
  0
LINE
  5
9F2
330
8F9
100
AcDbEntity
  8
0
 62
     0
100
AcDbLine
 10
44.57704241242312
 20
13.31852260852078
 30
0.0
 11
44.57704241242312
 21
13.31852260852078
 31
0.0
  0
LINE
  5
9F3
330
8F9
100
AcDbEntity
  8
0
 62
     0
100
AcDbLine
 10
46.22165573175825
 20
12.27078837224447
 30
0.0
 11
46.22165573175825
 21
12.27078837224447
 31
0.0
  0
LINE
  5
9F4
330
8F9
100
AcDbEntity
  8
0
 62
     0
100
AcDbLine
 10
44.88709964132723
 20
12.32717555158042
 30
0.0
 11
44.88709964132723
 21
12.32717555158042
 31
0.0
  0
LINE
  5
9F5
330
8F9
100
AcDbEntity
  8
0
 62
     0
100
AcDbLine
 10
45.73481891693704
 20
10.99329999431897
 30
0.0
 11
45.73481891693704
 21
10.99329999431897
 31
0.0
  0
LINE
  5
9F6
330
8F9
100
AcDbEntity
  8
0
 62
     0
100
AcDbLine
 10
46.2619385705701
 20
10.6574877391022
 30
0.0
 11
46.2619385705701
 21
10.6574877391022
 31
0.0
  0
LINE
  5
9F7
330
8F9
100
AcDbEntity
  8
0
 62
     0
100
AcDbLine
 10
44.40026282650602
 20
11.04968717365491
 30
0.0
 11
44.40026282650602
 21
11.04968717365491
 31
0.0
  0
LINE
  5
9F8
330
8F9
100
AcDbEntity
  8
0
 62
     0
100
AcDbLine
 10
44.92738248013907
 20
10.71387491843814
 30
0.0
 11
44.92738248013907
 21
10.71387491843814
 31
0.0
  0
LINE
  5
9F9
330
8F9
100
AcDbEntity
  8
0
 62
     0
100
AcDbLine
 10
46.08515898465299
 20
8.388652304236337
 30
0.0
 11
46.08515898465299
 21
8.388652304236337
 31
0.0
  0
LINE
  5
9FA
330
8F9
100
AcDbEntity
  8
0
 62
     0
100
AcDbLine
 10
44.75060289422197
 20
8.445039483572285
 30
0.0
 11
44.75060289422197
 21
8.445039483572285
 31
0.0
  0
LINE
  5
9FB
330
8F9
100
AcDbEntity
  8
0
 62
     0
100
AcDbLine
 10
45.27772254785502
 20
8.10922722835552
 30
0.0
 11
45.27772254785502
 21
8.10922722835552
 31
0.0
  0
LINE
  5
9FC
330
8F9
100
AcDbEntity
  8
0
 62
     0
100
AcDbLine
 10
45.58777977675912
 20
7.11788017141516
 30
0.0
 11
45.58777977675912
 21
7.11788017141516
 31
0.0
  0
LINE
  5
9FD
330
8F9
100
AcDbEntity
  8
0
 62
     0
100
AcDbLine
 10
46.43549905236894
 20
5.784004614153703
 30
0.0
 11
46.43549905236894
 21
5.784004614153703
 31
0.0
  0
LINE
  5
9FE
330
8F9
100
AcDbEntity
  8
0
 62
     0
100
AcDbLine
 10
45.10094296193792
 20
5.840391793489651
 30
0.0
 11
45.10094296193792
 21
5.840391793489651
 31
0.0
  0
LINE
  5
9FF
330
8F9
100
AcDbEntity
  8
0
 62
     0
100
AcDbLine
 10
45.62806261557097
 20
5.504579538272886
 30
0.0
 11
45.62806261557097
 21
5.504579538272886
 31
0.0
  0
LINE
  5
A00
330
8F9
100
AcDbEntity
  8
0
 62
     0
100
AcDbLine
 10
44.29350652513995
 20
5.560966717608837
 30
0.0
 11
44.29350652513995
 21
5.560966717608837
 31
0.0
  0
LINE
  5
A01
330
8F9
100
AcDbEntity
  8
0
 62
     0
100
AcDbLine
 10
45.93811984447508
 20
4.51323248133253
 30
0.0
 11
45.93811984447508
 21
4.51323248133253
 31
0.0
  0
LINE
  5
A02
330
8F9
100
AcDbEntity
  8
0
 62
     0
100
AcDbLine
 10
44.60356375404406
 20
4.569619660668482
 30
0.0
 11
44.60356375404406
 21
4.569619660668482
 31
0.0
  0
LINE
  5
A03
330
8F9
100
AcDbEntity
  8
0
 62
     0
100
AcDbLine
 10
61.87026969831453
 20
4.429829039313415
 30
0.0
 11
61.87026969831453
 21
4.429829039313415
 31
0.0
  0
LINE
  5
A04
330
8F9
100
AcDbEntity
  8
0
 62
     0
100
AcDbLine
 10
61.9734880152819
 20
5.921488501637989
 30
0.0
 11
61.9734880152819
 21
5.921488501637989
 31
0.0
  0
LINE
  5
A05
330
8F9
100
AcDbEntity
  8
0
 62
     0
100
AcDbLine
 10
63.3282351216705
 20
4.680091495144213
 30
0.0
 11
63.3282351216705
 21
4.680091495144213
 31
0.0
  0
LINE
  5
A06
330
8F9
100
AcDbEntity
  8
0
 62
     0
100
AcDbLine
 10
61.87764145131053
 20
7.595557320018786
 30
0.0
 11
61.87764145131053
 21
7.595557320018786
 31
0.0
  0
LINE
  5
A07
330
8F9
100
AcDbEntity
  8
0
 62
     0
100
AcDbLine
 10
62.47667928746875
 20
7.046640276331062
 30
0.0
 11
62.47667928746875
 21
7.046640276331062
 31
0.0
  0
LINE
  5
A08
330
8F9
100
AcDbEntity
  8
0
 62
     0
100
AcDbLine
 10
63.43145343863787
 20
6.171750957468781
 30
0.0
 11
63.43145343863787
 21
6.171750957468781
 31
0.0
  0
LINE
  5
A09
330
8F9
100
AcDbEntity
  8
0
 62
     0
100
AcDbLine
 10
61.9808597682779
 20
9.087216782343363
 30
0.0
 11
61.9808597682779
 21
9.087216782343363
 31
0.0
  0
LINE
  5
A0A
330
8F9
100
AcDbEntity
  8
0
 62
     0
100
AcDbLine
 10
63.3356068746665
 20
7.845819775849587
 30
0.0
 11
63.3356068746665
 21
7.845819775849587
 31
0.0
  0
LINE
  5
A0B
330
8F9
100
AcDbEntity
  8
0
 62
     0
100
AcDbLine
 10
61.88501320430652
 20
10.76128560072415
 30
0.0
 11
61.88501320430652
 21
10.76128560072415
 31
0.0
  0
LINE
  5
A0C
330
8F9
100
AcDbEntity
  8
0
 62
     0
100
AcDbLine
 10
63.43882519163385
 20
9.337479238174154
 30
0.0
 11
63.43882519163385
 21
9.337479238174154
 31
0.0
  0
LINE
  5
A0D
330
8F9
100
AcDbEntity
  8
0
 62
     0
100
AcDbLine
 10
61.98823152127387
 20
12.25294506304872
 30
0.0
 11
61.98823152127387
 21
12.25294506304872
 31
0.0
  0
LINE
  5
A0E
330
8F9
100
AcDbEntity
  8
0
 62
     0
100
AcDbLine
 10
63.34297862766248
 20
11.01154805655494
 30
0.0
 11
63.34297862766248
 21
11.01154805655494
 31
0.0
  0
LINE
  5
A0F
330
8F9
100
AcDbEntity
  8
0
 62
     0
100
AcDbLine
 10
61.89238495730251
 20
13.92701388142952
 30
0.0
 11
61.89238495730251
 21
13.92701388142952
 31
0.0
  0
LINE
  5
A10
330
8F9
100
AcDbEntity
  8
0
 62
     0
100
AcDbLine
 10
62.49142279346074
 20
13.37809683774179
 30
0.0
 11
62.49142279346074
 21
13.37809683774179
 31
0.0
  0
LINE
  5
A11
330
8F9
100
AcDbEntity
  8
0
 62
     0
100
AcDbLine
 10
63.44619694462984
 20
12.50320751887951
 30
0.0
 11
63.44619694462984
 21
12.50320751887951
 31
0.0
  0
LINE
  5
A12
330
8F9
100
AcDbEntity
  8
0
 62
     0
100
AcDbLine
 10
61.99560327426987
 20
15.41867334375409
 30
0.0
 11
61.99560327426987
 21
15.41867334375409
 31
0.0
  0
LINE
  5
A13
330
8F9
100
AcDbEntity
  8
0
 62
     0
100
AcDbLine
 10
63.35035038065847
 20
14.17727633726031
 30
0.0
 11
63.35035038065847
 21
14.17727633726031
 31
0.0
  0
LINE
  5
A14
330
8F9
100
AcDbEntity
  8
0
 62
     0
100
AcDbLine
 10
62.49879454645673
 20
16.54382511844716
 30
0.0
 11
62.49879454645673
 21
16.54382511844716
 31
0.0
  0
LINE
  5
A15
330
8F9
100
AcDbEntity
  8
0
 62
     0
100
AcDbLine
 10
63.45356869762584
 20
15.66893579958488
 30
0.0
 11
63.45356869762584
 21
15.66893579958488
 31
0.0
  0
LINE
  5
A16
330
8F9
100
AcDbEntity
  8
0
 62
     0
100
AcDbLine
 10
45.01058121918113
 20
16.706403929183
 30
0.0
 11
45.01058121918113
 21
16.706403929183
 31
0.0
  0
LINE
  5
A17
330
8F9
100
AcDbEntity
  8
0
 62
     0
100
AcDbLine
 10
45.96535537035024
 20
15.83151461032072
 30
0.0
 11
45.96535537035024
 21
15.83151461032072
 31
0.0
  0
LINE
  5
A18
330
8F9
100
AcDbEntity
  8
0
 62
     0
100
AcDbLine
 10
44.50738994699427
 20
15.58125215448992
 30
0.0
 11
44.50738994699427
 21
15.58125215448992
 31
0.0
  0
LINE
  5
A19
330
8F9
100
AcDbEntity
  8
0
 62
     0
100
AcDbLine
 10
45.86213705338287
 20
14.33985514799615
 30
0.0
 11
45.86213705338287
 21
14.33985514799615
 31
0.0
  0
LINE
  5
A1A
330
8F9
100
AcDbEntity
  8
0
 62
     0
100
AcDbLine
 10
46.4611748895411
 20
13.79093810430842
 30
0.0
 11
46.4611748895411
 21
13.79093810430842
 31
0.0
  0
LINE
  5
A1B
330
8F9
100
AcDbEntity
  8
0
 62
     0
100
AcDbLine
 10
44.40417163002691
 20
14.08959269216535
 30
0.0
 11
44.40417163002691
 21
14.08959269216535
 31
0.0
  0
LINE
  5
A1C
330
8F9
100
AcDbEntity
  8
0
 62
     0
100
AcDbLine
 10
45.00320946618514
 20
13.54067564847763
 30
0.0
 11
45.00320946618514
 21
13.54067564847763
 31
0.0
  0
LINE
  5
A1D
330
8F9
100
AcDbEntity
  8
0
 62
     0
100
AcDbLine
 10
45.95798361735424
 20
12.66578632961535
 30
0.0
 11
45.95798361735424
 21
12.66578632961535
 31
0.0
  0
LINE
  5
A1E
330
8F9
100
AcDbEntity
  8
0
 62
     0
100
AcDbLine
 10
44.50001819399829
 20
12.41552387378456
 30
0.0
 11
44.50001819399829
 21
12.41552387378456
 31
0.0
  0
LINE
  5
A1F
330
8F9
100
AcDbEntity
  8
0
 62
     0
100
AcDbLine
 10
45.85476530038689
 20
11.17412686729078
 30
0.0
 11
45.85476530038689
 21
11.17412686729078
 31
0.0
  0
LINE
  5
A20
330
8F9
100
AcDbEntity
  8
0
 62
     0
100
AcDbLine
 10
46.45380313654511
 20
10.62520982360306
 30
0.0
 11
46.45380313654511
 21
10.62520982360306
 31
0.0
  0
LINE
  5
A21
330
8F9
100
AcDbEntity
  8
0
 62
     0
100
AcDbLine
 10
44.39679987703093
 20
10.92386441145998
 30
0.0
 11
44.39679987703093
 21
10.92386441145998
 31
0.0
  0
LINE
  5
A22
330
8F9
100
AcDbEntity
  8
0
 62
     0
100
AcDbLine
 10
44.4926464410023
 20
9.249795593079191
 30
0.0
 11
44.4926464410023
 21
9.249795593079191
 31
0.0
  0
LINE
  5
A23
330
8F9
100
AcDbEntity
  8
0
 62
     0
100
AcDbLine
 10
45.8473935473909
 20
8.008398586585416
 30
0.0
 11
45.8473935473909
 21
8.008398586585416
 31
0.0
  0
LINE
  5
A24
330
8F9
100
AcDbEntity
  8
0
 62
     0
100
AcDbLine
 10
46.44643138354912
 20
7.459481542897692
 30
0.0
 11
46.44643138354912
 21
7.459481542897692
 31
0.0
  0
LINE
  5
A25
330
8F9
100
AcDbEntity
  8
0
 62
     0
100
AcDbLine
 10
44.38942812403493
 20
7.758136130754621
 30
0.0
 11
44.38942812403493
 21
7.758136130754621
 31
0.0
  0
LINE
  5
A26
330
8F9
100
AcDbEntity
  8
0
 62
     0
100
AcDbLine
 10
44.98846596019316
 20
7.209219087066897
 30
0.0
 11
44.98846596019316
 21
7.209219087066897
 31
0.0
  0
LINE
  5
A27
330
8F9
100
AcDbEntity
  8
0
 62
     0
100
AcDbLine
 10
45.94324011136227
 20
6.334329768204617
 30
0.0
 11
45.94324011136227
 21
6.334329768204617
 31
0.0
  0
LINE
  5
A28
330
8F9
100
AcDbEntity
  8
0
 62
     0
100
AcDbLine
 10
44.4852746880063
 20
6.084067312373819
 30
0.0
 11
44.4852746880063
 21
6.084067312373819
 31
0.0
  0
LINE
  5
A29
330
8F9
100
AcDbEntity
  8
0
 62
     0
100
AcDbLine
 10
45.8400217943949
 20
4.842670305880043
 30
0.0
 11
45.8400217943949
 21
4.842670305880043
 31
0.0
  0
LINE
  5
A2A
330
8F9
100
AcDbEntity
  8
0
 62
     0
100
AcDbLine
 10
46.43905963055313
 20
4.29375326219232
 30
0.0
 11
46.43905963055313
 21
4.29375326219232
 31
0.0
  0
LINE
  5
A2B
330
8F9
100
AcDbEntity
  8
0
 62
     0
100
AcDbLine
 10
44.38205637103894
 20
4.592407850049252
 30
0.0
 11
44.38205637103894
 21
4.592407850049252
 31
0.0
  0
ENDBLK
  5
A2D
330
8F9
100
AcDbEntity
  8
0
100
AcDbBlockEnd
  0
ENDSEC
  0
SECTION
  2
ENTITIES
  0
INSERT
  5
BEA
330
1F
100
AcDbEntity
  8
OBJECT2
100
AcDbBlockReference
  2
*X3
 10
4.954460589668061
 20
6.756751770080922
 30
0.0
 41
0.3149293222098004
 42
0.3149293222098004
 43
0.3149293222098004
1001
ACAD
1000
HATCH
1002
{
1070
    16
1000
AR-CONC
1040
0.25
1040
0.0
1002
}
  0
LINE
  5
BEB
330
1F
100
AcDbEntity
  8
OBJECT1
100
AcDbLine
 10
18.89962538814209
 20
9.735645911803487
 30
0.0
 11
18.89962538814209
 21
8.073353700496827
 31
0.0
  0
LINE
  5
BEC
330
1F
100
AcDbEntity
  8
OBJECT1
100
AcDbLine
 10
19.60042079011038
 20
8.073353700496827
 30
0.0
 11
19.60042079011038
 21
9.735645911803487
 31
0.0
  0
LINE
  5
BED
330
1F
100
AcDbEntity
  8
OBJECT1
100
AcDbLine
 10
24.9803216912168
 20
9.735645911803487
 30
0.0
 11
24.9803216912168
 21
8.073353700496827
 31
0.0
  0
LINE
  5
BEE
330
1F
100
AcDbEntity
  8
OBJECT1
100
AcDbLine
 10
24.27952628924851
 20
8.073353700496827
 30
0.0
 11
24.27952628924851
 21
9.735645911803487
 31
0.0
  0
LINE
  5
BF3
330
1F
100
AcDbEntity
  8
OBJECT1
100
AcDbLine
 10
18.89962538814209
 20
8.073353700496827
 30
0.0
 11
24.9803216912168
 21
8.073353700496827
 31
0.0
  0
LINE
  5
C10
330
1F
100
AcDbEntity
  8
OBJECT1
100
AcDbLine
 10
26.72213155771569
 20
9.735645911803487
 30
0.0
 11
23.53977051104304
 21
9.735459631109403
 31
0.0
  0
LINE
  5
C11
330
1F
100
AcDbEntity
  8
OBJECT1
100
AcDbLine
 10
26.72213155771569
 20
10.06047944626746
 30
0.0
 11
23.53977051104304
 21
10.06029316557338
 31
0.0
  0
LINE
  5
C12
330
1F
100
AcDbEntity
  8
OBJECT1
100
AcDbLine
 10
24.9803216912168
 20
12.18096281627074
 30
0.0
 11
18.89962538814209
 21
12.18096281627074
 31
0.0
  0
LINE
  5
C13
330
1F
100
AcDbEntity
  8
OBJECT1
100
AcDbLine
 10
19.60042079011038
 20
11.77325521546327
 30
0.0
 11
24.27952628924851
 21
11.77325521546327
 31
0.0
  0
LINE
  5
C15
330
1F
100
AcDbEntity
  8
OBJECT1
100
AcDbLine
 10
19.60042079011038
 20
10.06047944626746
 30
0.0
 11
19.60042079011038
 21
11.77325521546327
 31
0.0
  0
INSERT
  5
C16
330
1F
100
AcDbEntity
  8
OBJECT2
100
AcDbBlockReference
  2
*X2
 10
4.954460589668061
 20
6.756751770080922
 30
0.0
 41
0.3149293222098004
 42
0.3149293222098004
 43
0.3149293222098004
1001
ACAD
1000
HATCH
1002
{
1070
    16
1000
EARTH
1040
2.5
1040
0.0
1002
}
  0
LINE
  5
C17
330
1F
100
AcDbEntity
  8
OBJECT1
100
AcDbLine
 10
18.89962538814209
 20
12.18096281627074
 30
0.0
 11
18.89962538814209
 21
10.06047944626746
 31
0.0
  0
LINE
  5
C18
330
1F
100
AcDbEntity
  8
OBJECT1
100
AcDbLine
 10
20.55845509004479
 20
10.06047944626746
 30
0.0
 11
17.42884029235238
 21
10.06047944626746
 31
0.0
  0
LINE
  5
C19
330
1F
100
AcDbEntity
  8
OBJECT1
100
AcDbLine
 10
20.55845509004479
 20
9.735645911803487
 30
0.0
 11
17.42884029235238
 21
9.735645911803487
 31
0.0
  0
ARC
  5
C1A
330
1F
100
AcDbEntity
  8
OBJECT1
100
AcDbCircle
 10
17.43875133351886
 20
9.979271062651474
 30
0.0
 40
0.0818109424620327
100
AcDbArc
 50
96.95822685954778
 51
263.0417731404522
  0
ARC
  5
C1B
330
1F
100
AcDbEntity
  8
OBJECT2
100
AcDbCircle
 10
17.4189292511859
 20
9.979271062651474
 30
0.0
 40
0.0818109424620327
100
AcDbArc
 50
276.9582268595477
 51
83.04177314045222
  0
ARC
  5
C1C
330
1F
100
AcDbEntity
  8
OBJECT1
100
AcDbCircle
 10
17.43875133351886
 20
9.816854295419481
 30
0.0
 40
0.0818109424620327
100
AcDbArc
 50
96.95822685954778
 51
263.0417731404522
  0
LINE
  5
C1D
330
1F
100
AcDbEntity
  8
OBJECT2
100
AcDbLine
 10
20.44900171904009
 20
9.783757664357485
 30
0.0
 11
20.44900171904009
 21
10.01145408374974
 31
0.0
  0
LINE
  5
C1E
330
1F
100
AcDbEntity
  8
OBJECT2
100
AcDbLine
 10
20.4873849899017
 20
9.735189264286288
 30
0.0
 11
20.4873849899017
 21
10.06002248382094
 31
0.0
  0
LINE
  5
C23
330
1F
100
AcDbEntity
  8
OBJECT1
  6
CONTINUOUS
100
AcDbLine
 10
21.18198466989962
 20
10.43561998672908
 30
0.0
 11
21.18198466989962
 21
10.52606041186983
 31
0.0
  0
LINE
  5
C24
330
1F
100
AcDbEntity
  8
OBJECT2
  6
CONTINUOUS
100
AcDbLine
 10
21.00133488759214
 20
10.48085301306892
 30
0.0
 11
21.00138614267001
 21
10.43637662931298
 31
0.0
  0
LINE
  5
C25
330
1F
100
AcDbEntity
  8
OBJECT2
  6
CONTINUOUS
100
AcDbLine
 10
21.1273152476259
 20
10.48085301306892
 30
0.0
 11
21.1273152476259
 21
10.43636360548173
 31
0.0
  0
LINE
  5
C26
330
1F
100
AcDbEntity
  8
OBJECT1
  6
CONTINUOUS
100
AcDbLine
 10
20.94669109285734
 20
10.52608603940876
 30
0.0
 11
20.94671672039627
 21
10.43561998672908
 31
0.0
  0
LINE
  5
C29
330
1F
100
AcDbEntity
  8
OBJECT2
100
AcDbLine
 10
22.01218287073768
 20
9.784214626804011
 30
0.0
 11
22.01218287073768
 21
10.01191073126694
 31
0.0
  0
LINE
  5
C2A
330
1F
100
AcDbEntity
  8
OBJECT2
100
AcDbLine
 10
21.93541601408514
 20
9.784214626804011
 30
0.0
 11
21.93541601408514
 21
10.01191073126694
 31
0.0
  0
LINE
  5
C2B
330
1F
100
AcDbEntity
  8
OBJECT2
100
AcDbLine
 10
21.97379928494676
 20
9.735645911803487
 30
0.0
 11
21.97379928494676
 21
10.06047913133814
 31
0.0
  0
LINE
  5
C2C
330
1F
100
AcDbEntity
  8
OBJECT2
100
AcDbLine
 10
22.04486938508984
 20
9.735645911803487
 30
0.0
 11
22.04486938508984
 21
10.06047913133814
 31
0.0
  0
LINE
  5
C2D
330
1F
100
AcDbEntity
  8
OBJECT2
100
AcDbLine
 10
21.53856786212185
 20
9.784214626804011
 30
0.0
 11
21.53856786212185
 21
10.01191073126694
 31
0.0
  0
LINE
  5
C2E
330
1F
100
AcDbEntity
  8
OBJECT2
100
AcDbLine
 10
21.6153347187744
 20
9.784214626804011
 30
0.0
 11
21.6153347187744
 21
10.01191073126694
 31
0.0
  0
LINE
  5
C2F
330
1F
100
AcDbEntity
  8
OBJECT2
100
AcDbLine
 10
21.50588134776969
 20
9.735645911803487
 30
0.0
 11
21.50588134776969
 21
10.06047913133814
 31
0.0
  0
LINE
  5
C30
330
1F
100
AcDbEntity
  8
OBJECT2
100
AcDbLine
 10
21.57695144791278
 20
9.735645911803487
 30
0.0
 11
21.57695144791278
 21
10.06047913133814
 31
0.0
  0
LINE
  5
C31
330
1F
100
AcDbEntity
  8
OBJECT2
  6
CONTINUOUS
100
AcDbLine
 10
21.24707924475095
 20
10.16013186213883
 30
0.0
 11
21.24707924475095
 21
9.617591821450149
 31
0.0
  0
LINE
  5
C32
330
1F
100
AcDbEntity
  8
OBJECT2
100
AcDbLine
 10
20.52576857569263
 20
9.783757664357485
 30
0.0
 11
20.52576857569263
 21
10.01145408374974
 31
0.0
  0
LINE
  5
C33
330
1F
100
AcDbEntity
  8
OBJECT2
100
AcDbLine
 10
20.55845509004479
 20
10.06047913133814
 30
0.0
 11
20.55845509004479
 21
9.735189264286288
 31
0.0
  0
LINE
  5
C34
330
1F
100
AcDbEntity
  8
OBJECT2
  6
CONTINUOUS
100
AcDbLine
 10
20.72318092795609
 20
9.608757882742963
 30
0.0
 11
20.72318092795609
 21
10.1864021901628
 31
0.0
  0
LINE
  5
C35
330
1F
100
AcDbEntity
  8
OBJECT2
  6
CONTINUOUS
100
AcDbLine
 10
20.96134688997679
 20
9.608745279035296
 30
0.0
 11
20.96137251751572
 21
10.13810520248794
 31
0.0
  0
LINE
  5
C36
330
1F
100
AcDbEntity
  8
OBJECT1
  6
CONTINUOUS
100
AcDbLine
 10
21.3456139343375
 20
9.608732255204033
 30
0.0
 11
21.47718445884731
 21
9.608732255204033
 31
0.0
  0
LINE
  5
C37
330
1F
100
AcDbEntity
  8
OBJECT2
  6
CONTINUOUS
100
AcDbLine
 10
21.34312680269025
 20
9.753214017852846
 30
0.0
 11
21.47962075554026
 21
9.753214017852846
 31
0.0
  0
LINE
  5
C38
330
1F
100
AcDbEntity
  8
OBJECT1
  6
CONTINUOUS
100
AcDbLine
 10
21.47715883130837
 20
9.608745279035296
 30
0.0
 11
21.3456139343375
 21
9.608732255204033
 31
0.0
  0
LINE
  5
C39
330
1F
100
AcDbEntity
  8
OBJECT1
  6
CONTINUOUS
100
AcDbLine
 10
21.33602377317
 20
9.63497737581267
 30
0.0
 11
21.3456139343375
 21
9.608732255204033
 31
0.0
  0
LINE
  5
C3A
330
1F
100
AcDbEntity
  8
OBJECT1
  6
CONTINUOUS
100
AcDbLine
 10
20.55845509004479
 20
9.687762123665876
 30
0.0
 11
20.58512285498401
 21
9.618040513443265
 31
0.0
  0
LINE
  5
C3B
330
1F
100
AcDbEntity
  8
OBJECT1
  6
CONTINUOUS
100
AcDbLine
 10
20.72318092795609
 20
9.608757882742963
 30
0.0
 11
20.96134688997679
 21
9.608745279035296
 31
0.0
  0
LINE
  5
C3C
330
1F
100
AcDbEntity
  8
OBJECT1
  6
CONTINUOUS
100
AcDbLine
 10
20.58512285498401
 20
9.618040513443265
 30
0.0
 11
20.7219247584248
 21
9.618040513443265
 31
0.0
  0
LINE
  5
C3D
330
1F
100
AcDbEntity
  8
OBJECT1
  6
CONTINUOUS
100
AcDbLine
 10
20.96237241165769
 20
9.617579217742481
 30
0.0
 11
21.24707924475095
 21
9.617591821450149
 31
0.0
  0
LINE
  5
C3E
330
1F
100
AcDbEntity
  8
OBJECT2
  6
CONTINUOUS
100
AcDbLine
 10
20.58499471728936
 20
9.757803868063344
 30
0.0
 11
20.72318092795609
 21
9.757765636816744
 31
0.0
  0
LINE
  5
C3F
330
1F
100
AcDbEntity
  8
OBJECT2
  6
CONTINUOUS
100
AcDbLine
 10
20.55876262051197
 20
9.853616413537398
 30
0.0
 11
20.58499471728936
 21
9.757803868063344
 31
0.0
  0
LINE
  5
C40
330
1F
100
AcDbEntity
  8
OBJECT1
  6
CONTINUOUS
100
AcDbLine
 10
20.55845509004479
 20
9.687762123665876
 30
0.0
 11
20.55845509004479
 21
9.73578731506917
 31
0.0
  0
LINE
  5
C41
330
1F
100
AcDbEntity
  8
OBJECT2
  6
CONTINUOUS
100
AcDbLine
 10
20.55845509004479
 20
9.687762123665876
 30
0.0
 11
20.58499471728936
 21
9.757803868063344
 31
0.0
  0
LINE
  5
C42
330
1F
100
AcDbEntity
  8
OBJECT1
  6
CONTINUOUS
100
AcDbLine
 10
21.33602377317
 20
9.63497737581267
 30
0.0
 11
21.24713049982883
 21
9.63497737581267
 31
0.0
  0
LINE
  5
C43
330
1F
100
AcDbEntity
  8
OBJECT2
  6
CONTINUOUS
100
AcDbLine
 10
21.34312680269025
 20
9.753214017852846
 30
0.0
 11
21.31684345083501
 21
9.687723472295683
 31
0.0
  0
LINE
  5
C44
330
1F
100
AcDbEntity
  8
OBJECT2
  6
CONTINUOUS
100
AcDbLine
 10
21.31684345083501
 20
9.849052190865844
 30
0.0
 11
21.34312680269025
 21
9.753214017852846
 31
0.0
  0
LINE
  5
C45
330
1F
100
AcDbEntity
  8
OBJECT1
  6
CONTINUOUS
100
AcDbLine
 10
21.47718445884731
 20
9.608732255204033
 30
0.0
 11
21.5059041073955
 21
9.687723472295683
 31
0.0
  0
LINE
  5
C46
330
1F
100
AcDbEntity
  8
OBJECT1
100
AcDbLine
 10
22.04486938508984
 20
9.735645911803487
 30
0.0
 11
21.50588134776969
 21
9.735645911803487
 31
0.0
  0
LINE
  5
C47
330
1F
100
AcDbEntity
  8
OBJECT2
  6
CONTINUOUS
100
AcDbLine
 10
21.47962075554026
 20
9.753214017852846
 30
0.0
 11
21.5059041073955
 21
9.687723472295683
 31
0.0
  0
LINE
  5
C48
330
1F
100
AcDbEntity
  8
OBJECT1
  6
CONTINUOUS
100
AcDbLine
 10
21.5059041073955
 20
9.687723472295683
 30
0.0
 11
21.50590117272489
 21
9.73578731506917
 31
0.0
  0
LINE
  5
C49
330
1F
100
AcDbEntity
  8
OBJECT2
  6
CONTINUOUS
100
AcDbLine
 10
21.5059041073955
 20
9.849052190865844
 30
0.0
 11
21.47962075554026
 21
9.753214017852846
 31
0.0
  0
LINE
  5
C4C
330
1F
100
AcDbEntity
  8
OBJECT1
  6
CONTINUOUS
100
AcDbLine
 10
21.55409464042337
 20
10.43673535144629
 30
0.0
 11
21.2827989925401
 21
10.43672274773862
 31
0.0
  0
LINE
  5
C4D
330
1F
100
AcDbEntity
  8
OBJECT1
  6
CONTINUOUS
100
AcDbLine
 10
21.5554533201104
 20
10.37978381783679
 30
0.0
 11
21.2827989925401
 21
10.37977121412911
 31
0.0
  0
LINE
  5
C4E
330
1F
100
AcDbEntity
  8
OBJECT1
  6
CONTINUOUS
100
AcDbLine
 10
21.47715883130837
 20
10.18638958645514
 30
0.0
 11
21.3456139343375
 21
10.18637656262387
 31
0.0
  0
LINE
  5
C4F
330
1F
100
AcDbEntity
  8
OBJECT2
  6
CONTINUOUS
100
AcDbLine
 10
21.34310117515132
 20
10.04189522009863
 30
0.0
 11
21.47964638307919
 21
10.04188219626738
 31
0.0
  0
LINE
  5
C50
330
1F
100
AcDbEntity
  8
OBJECT1
  6
CONTINUOUS
100
AcDbLine
 10
21.24707924475095
 20
10.16013186213883
 30
0.0
 11
21.24707924475095
 21
10.18638958645514
 31
0.0
  0
LINE
  5
C51
330
1F
100
AcDbEntity
  8
OBJECT1
  6
CONTINUOUS
100
AcDbLine
 10
21.33602377317
 20
10.16015748967776
 30
0.0
 11
21.3456139343375
 21
10.18637656262387
 31
0.0
  0
ARC
  5
C52
330
1F
100
AcDbEntity
  8
OBJECT2
  6
CONTINUOUS
100
AcDbCircle
 10
21.06435195129557
 20
10.63980796994915
 30
0.0
 40
0.4800096859400302
100
AcDbArc
 50
250.8395390000003
 51
289.1604609999997
  0
LINE
  5
C53
330
1F
100
AcDbEntity
  8
OBJECT1
  6
CONTINUOUS
100
AcDbLine
 10
20.72195038596374
 20
10.17705570067696
 30
0.0
 11
20.58512285498401
 21
10.17709435204716
 31
0.0
  0
LINE
  5
C54
330
1F
100
AcDbEntity
  8
OBJECT2
  6
CONTINUOUS
100
AcDbLine
 10
20.58504597236721
 20
10.03734360113476
 30
0.0
 11
20.72318092795609
 21
10.03733099742708
 31
0.0
  0
LINE
  5
C55
330
1F
100
AcDbEntity
  8
OBJECT1
  6
CONTINUOUS
100
AcDbLine
 10
20.55845509004479
 20
10.06047913133814
 30
0.0
 11
20.55845509004479
 21
10.10744962444136
 31
0.0
  0
LINE
  5
C56
330
1F
100
AcDbEntity
  8
OBJECT2
  6
CONTINUOUS
100
AcDbLine
 10
20.55845509004479
 20
10.10744962444136
 30
0.0
 11
20.58504597236721
 21
10.03734360113476
 31
0.0
  0
LINE
  5
C57
330
1F
100
AcDbEntity
  8
OBJECT2
  6
CONTINUOUS
100
AcDbLine
 10
20.55878824805091
 20
9.941531055660707
 30
0.0
 11
20.58504597236721
 21
10.03734360113476
 31
0.0
  0
LINE
  5
C58
330
1F
100
AcDbEntity
  8
OBJECT1
  6
CONTINUOUS
100
AcDbLine
 10
20.58512285498401
 20
10.17709435204716
 30
0.0
 11
20.55845509004479
 21
10.10744962444136
 31
0.0
  0
LINE
  5
C59
330
1F
100
AcDbEntity
  8
OBJECT1
  6
CONTINUOUS
100
AcDbLine
 10
21.24707924475095
 20
10.16013186213883
 30
0.0
 11
21.33602377317
 21
10.16015748967776
 31
0.0
  0
LINE
  5
C5A
330
1F
100
AcDbEntity
  8
OBJECT2
  6
CONTINUOUS
100
AcDbLine
 10
21.34310117515132
 20
10.04188219626738
 30
0.0
 11
21.31686907837394
 21
10.10744962444136
 31
0.0
  0
LINE
  5
C5B
330
1F
100
AcDbEntity
  8
OBJECT2
  6
CONTINUOUS
100
AcDbLine
 10
21.31681782329607
 20
9.946120905871191
 30
0.0
 11
21.34310117515132
 21
10.04188219626738
 31
0.0
  0
LINE
  5
C5C
330
1F
100
AcDbEntity
  8
OBJECT1
  6
CONTINUOUS
100
AcDbLine
 10
20.85429002724562
 20
10.42833765767751
 30
0.0
 11
20.97348741561483
 21
10.42835058826757
 31
0.0
  0
LINE
  5
C5D
330
1F
100
AcDbEntity
  8
OBJECT1
  6
CONTINUOUS
100
AcDbLine
 10
20.95929542649139
 20
10.31245985293695
 30
0.0
 11
20.90677997785878
 21
10.31243422539801
 31
0.0
  0
LINE
  5
C5E
330
1F
100
AcDbEntity
  8
OBJECT1
  6
CONTINUOUS
100
AcDbLine
 10
20.91521647965071
 20
10.33347401473819
 30
0.0
 11
20.95932105403034
 21
10.33343536336799
 31
0.0
  0
LINE
  5
C5F
330
1F
100
AcDbEntity
  8
OBJECT1
  6
CONTINUOUS
100
AcDbLine
 10
20.91524210718965
 20
10.35661610251802
 30
0.0
 11
20.95037200145974
 21
10.36493707032295
 31
0.0
  0
LINE
  5
C60
330
1F
100
AcDbEntity
  8
OBJECT1
  6
CONTINUOUS
100
AcDbLine
 10
20.85429014152642
 20
10.38818160711315
 30
0.0
 11
21.00129770243136
 21
10.38818160711323
 31
0.0
  0
ARC
  5
C61
330
1F
100
AcDbEntity
  8
OBJECT1
  6
CONTINUOUS
100
AcDbCircle
 10
20.84586331781572
 20
10.38819763295491
 30
0.0
 40
0.0084268389493841
100
AcDbArc
 50
270.1089779999997
 51
359.891037
  0
LINE
  5
C62
330
1F
100
AcDbEntity
  8
OBJECT2
  6
CONTINUOUS
100
AcDbLine
 10
20.85429002724562
 20
10.42833765767751
 30
0.0
 11
20.85429014152642
 21
10.3881816071131
 31
0.0
  0
ARC
  5
C63
330
1F
100
AcDbEntity
  8
OBJECT1
  6
CONTINUOUS
100
AcDbCircle
 10
20.84595112364582
 20
10.42838413474294
 30
0.0
 40
0.0083390331192704
100
AcDbArc
 50
359.6806639999999
 51
90.49277499999965
  0
LINE
  5
C64
330
1F
100
AcDbEntity
  8
OBJECT1
  6
CONTINUOUS
100
AcDbLine
 10
20.91524210718965
 20
10.35661610251802
 30
0.0
 11
20.91521647965071
 21
10.33347401473819
 31
0.0
  0
LINE
  5
C65
330
1F
100
AcDbEntity
  8
OBJECT1
  6
CONTINUOUS
100
AcDbLine
 10
20.5732249549418
 20
10.37978381783679
 30
0.0
 11
20.84587928251209
 21
10.37977121412911
 31
0.0
  0
LINE
  5
C66
330
1F
100
AcDbEntity
  8
OBJECT1
  6
CONTINUOUS
100
AcDbLine
 10
20.57458363462883
 20
10.43673535144629
 30
0.0
 11
20.84587928251209
 21
10.43672274773862
 31
0.0
  0
LINE
  5
C67
330
1F
100
AcDbEntity
  8
OBJECT1
  6
CONTINUOUS
100
AcDbLine
 10
20.90680560539771
 20
10.18638958645514
 30
0.0
 11
20.72318092795609
 21
10.1864021901628
 31
0.0
  0
LINE
  5
C68
330
1F
100
AcDbEntity
  8
OBJECT1
  6
CONTINUOUS
100
AcDbLine
 10
20.90677997785878
 20
10.31243422539801
 30
0.0
 11
20.90680560539771
 21
10.18638958645514
 31
0.0
  0
LINE
  5
C69
330
1F
100
AcDbEntity
  8
OBJECT1
  6
CONTINUOUS
100
AcDbLine
 10
20.56481408068881
 20
10.42833750102455
 30
0.0
 11
20.56483970822773
 21
10.38819469208978
 31
0.0
  0
ARC
  5
C6A
330
1F
100
AcDbEntity
  8
OBJECT1
  6
CONTINUOUS
100
AcDbCircle
 10
20.57324470075049
 20
10.38818965060671
 30
0.0
 40
0.0084058327699311
100
AcDbArc
 50
179.9672239999999
 51
269.8648069999998
  0
ARC
  5
C6B
330
1F
100
AcDbEntity
  8
OBJECT1
  6
CONTINUOUS
100
AcDbCircle
 10
20.57317538035829
 20
10.42836228831631
 30
0.0
 40
0.0083604594223125
100
AcDbArc
 50
89.48515299999993
 51
180.1702269999999
  0
ARC
  5
C6C
330
1F
100
AcDbEntity
  8
OBJECT1
  6
CONTINUOUS
100
AcDbCircle
 10
21.28272715140637
 20
10.42838413474294
 30
0.0
 40
0.0083390331192704
100
AcDbArc
 50
89.50722499999953
 51
180.3193359999999
  0
LINE
  5
C6D
330
1F
100
AcDbEntity
  8
OBJECT2
  6
CONTINUOUS
100
AcDbLine
 10
21.27438824780658
 20
10.42833765767751
 30
0.0
 11
21.27438813352578
 21
10.3881816071131
 31
0.0
  0
ARC
  5
C6E
330
1F
100
AcDbEntity
  8
OBJECT1
  6
CONTINUOUS
100
AcDbCircle
 10
21.28281495723648
 20
10.38819763295491
 30
0.0
 40
0.0084268389493841
100
AcDbArc
 50
180.1089629999999
 51
269.8910220000001
  0
LINE
  5
C6F
330
1F
100
AcDbEntity
  8
OBJECT1
  6
CONTINUOUS
100
AcDbLine
 10
21.21346221552507
 20
10.35661610251802
 30
0.0
 11
21.21346221552507
 21
10.33347401473819
 31
0.0
  0
LINE
  5
C70
330
1F
100
AcDbEntity
  8
OBJECT2
  6
CONTINUOUS
100
AcDbLine
 10
21.12735536520551
 20
10.3881816071133
 30
0.0
 11
21.00129770243136
 21
10.3881816071133
 31
0.0
  0
LINE
  5
C71
330
1F
100
AcDbEntity
  8
OBJECT2
  6
CONTINUOUS
100
AcDbLine
 10
21.00129770243136
 20
10.36493707032295
 30
0.0
 11
21.12735536520551
 21
10.36491144278402
 31
0.0
  0
LINE
  5
C72
330
1F
100
AcDbEntity
  8
OBJECT2
  6
CONTINUOUS
100
AcDbLine
 10
21.14309949670555
 20
10.35664173005696
 30
0.0
 11
21.06437757883451
 21
10.36491144278402
 31
0.0
  0
LINE
  5
C73
330
1F
100
AcDbEntity
  8
OBJECT2
  6
CONTINUOUS
100
AcDbLine
 10
21.1273152476259
 20
10.43636360548173
 30
0.0
 11
21.06436350891742
 21
10.42835058826757
 31
0.0
  0
LINE
  5
C74
330
1F
100
AcDbEntity
  8
OBJECT1
  6
CONTINUOUS
100
AcDbLine
 10
21.00129770243136
 20
10.36493707032295
 30
0.0
 11
21.00129770243136
 21
10.38818160711323
 31
0.0
  0
LINE
  5
C75
330
1F
100
AcDbEntity
  8
OBJECT2
  6
CONTINUOUS
100
AcDbLine
 10
21.06436350891742
 20
10.42835058826757
 30
0.0
 11
21.00138614267001
 21
10.43637662931298
 31
0.0
  0
LINE
  5
C76
330
1F
100
AcDbEntity
  8
OBJECT1
  6
CONTINUOUS
100
AcDbLine
 10
21.1552400223436
 20
10.42835058826757
 30
0.0
 11
21.18198466989962
 21
10.43561998672908
 31
0.0
  0
LINE
  5
C77
330
1F
100
AcDbEntity
  8
OBJECT1
  6
CONTINUOUS
100
AcDbLine
 10
21.12735536520551
 20
10.36491144278402
 30
0.0
 11
21.12735536520551
 21
10.3881816071133
 31
0.0
  0
LINE
  5
C78
330
1F
100
AcDbEntity
  8
OBJECT1
  6
CONTINUOUS
100
AcDbLine
 10
21.12735536520551
 20
10.36491144278402
 30
0.0
 11
21.17830627359246
 21
10.36494967403062
 31
0.0
  0
LINE
  5
C79
330
1F
100
AcDbEntity
  8
OBJECT1
  6
CONTINUOUS
100
AcDbLine
 10
21.16935722102186
 20
10.33343536336799
 30
0.0
 11
21.1693828485608
 21
10.31245985293695
 31
0.0
  0
LINE
  5
C7A
330
1F
100
AcDbEntity
  8
OBJECT2
  6
CONTINUOUS
100
AcDbLine
 10
21.1552400223436
 20
10.42835058826757
 30
0.0
 11
21.1273152476259
 21
10.43636360548173
 31
0.0
  0
LINE
  5
C7B
330
1F
100
AcDbEntity
  8
OBJECT2
  6
CONTINUOUS
100
AcDbLine
 10
21.14309949670555
 20
10.35664173005696
 30
0.0
 11
21.17830627359246
 21
10.36494967403062
 31
0.0
  0
LINE
  5
C7C
330
1F
100
AcDbEntity
  8
OBJECT2
  6
CONTINUOUS
100
AcDbLine
 10
21.14309949670555
 20
10.35664173005696
 30
0.0
 11
21.14309949670555
 21
10.33343536336799
 31
0.0
  0
LINE
  5
C7D
330
1F
100
AcDbEntity
  8
OBJECT1
  6
CONTINUOUS
100
AcDbLine
 10
21.15524002020473
 20
10.42837030487759
 30
0.0
 11
21.27438811833616
 21
10.42838323012063
 31
0.0
  0
LINE
  5
C7E
330
1F
100
AcDbEntity
  8
OBJECT1
  6
CONTINUOUS
100
AcDbLine
 10
21.12735536520551
 20
10.3881816071133
 30
0.0
 11
21.27438813352578
 21
10.3881816071134
 31
0.0
  0
LINE
  5
C7F
330
1F
100
AcDbEntity
  8
OBJECT1
  6
CONTINUOUS
100
AcDbLine
 10
21.21346221552507
 20
10.35661610251802
 30
0.0
 11
21.17830627359246
 21
10.36494967403062
 31
0.0
  0
LINE
  5
C80
330
1F
100
AcDbEntity
  8
OBJECT1
  6
CONTINUOUS
100
AcDbLine
 10
21.21346221552507
 20
10.33347401473819
 30
0.0
 11
21.16935722102186
 21
10.33343536336799
 31
0.0
  0
LINE
  5
C81
330
1F
100
AcDbEntity
  8
OBJECT1
  6
CONTINUOUS
100
AcDbLine
 10
21.27677273977861
 20
10.3124485991879
 30
0.0
 11
21.1693828485608
 21
10.31245985293695
 31
0.0
  0
LINE
  5
C82
330
1F
100
AcDbEntity
  8
OBJECT1
  6
CONTINUOUS
100
AcDbLine
 10
21.22189829719341
 20
10.2289943196218
 30
0.0
 11
21.27677273977861
 21
10.26700878245439
 31
0.0
  0
LINE
  5
C83
330
1F
100
AcDbEntity
  8
OBJECT1
  6
CONTINUOUS
100
AcDbLine
 10
21.22189829719341
 20
10.18638958645514
 30
0.0
 11
21.22189829719341
 21
10.2289943196218
 31
0.0
  0
LINE
  5
C84
330
1F
100
AcDbEntity
  8
OBJECT1
  6
CONTINUOUS
100
AcDbLine
 10
21.24707924475095
 20
10.18638958645514
 30
0.0
 11
21.22189829719341
 21
10.18638958645514
 31
0.0
  0
LINE
  5
C85
330
1F
100
AcDbEntity
  8
OBJECT2
  6
CONTINUOUS
100
AcDbLine
 10
21.22184704211555
 20
10.22901994716074
 30
0.0
 11
21.22189829719341
 21
10.28353560420087
 31
0.0
  0
LINE
  5
C86
330
1F
100
AcDbEntity
  8
OBJECT2
  6
CONTINUOUS
100
AcDbLine
 10
21.22189829719341
 20
10.18638958645514
 30
0.0
 11
21.22189829719341
 21
10.18638958645514
 31
0.0
  0
LINE
  5
C87
330
1F
100
AcDbEntity
  8
OBJECT2
  6
CONTINUOUS
100
AcDbLine
 10
21.22189829719341
 20
10.18638958645514
 30
0.0
 11
21.22189829719341
 21
10.18638958645514
 31
0.0
  0
LINE
  5
C88
330
1F
100
AcDbEntity
  8
OBJECT1
  6
CONTINUOUS
100
AcDbLine
 10
21.27677273977861
 20
10.26700878245439
 30
0.0
 11
21.27677273977861
 21
10.3124485991879
 31
0.0
  0
LINE
  5
C89
330
1F
100
AcDbEntity
  8
OBJECT1
  6
CONTINUOUS
100
AcDbLine
 10
20.95932105403034
 20
10.33343536336799
 30
0.0
 11
20.95929542649139
 21
10.31245985293695
 31
0.0
  0
LINE
  5
C8A
330
1F
100
AcDbEntity
  8
OBJECT1
  6
CONTINUOUS
100
AcDbLine
 10
20.97348741561483
 20
10.42835058826757
 30
0.0
 11
20.94671672039627
 21
10.43561998672908
 31
0.0
  0
LINE
  5
C8B
330
1F
100
AcDbEntity
  8
OBJECT2
  6
CONTINUOUS
100
AcDbLine
 10
20.9855531508077
 20
10.35666735759589
 30
0.0
 11
20.95037200145974
 21
10.36493707032295
 31
0.0
  0
LINE
  5
C8C
330
1F
100
AcDbEntity
  8
OBJECT2
  6
CONTINUOUS
100
AcDbLine
 10
20.9855531508077
 20
10.35666735759589
 30
0.0
 11
20.98557877834664
 21
10.33343536336799
 31
0.0
  0
LINE
  5
C8D
330
1F
100
AcDbEntity
  8
OBJECT2
  6
CONTINUOUS
100
AcDbLine
 10
20.97348741561483
 20
10.42835058826757
 30
0.0
 11
21.15531259015426
 21
10.42837031275001
 31
0.0
  0
LINE
  5
C8E
330
1F
100
AcDbEntity
  8
OBJECT2
  6
CONTINUOUS
100
AcDbLine
 10
21.16935722102186
 20
10.33343536336799
 30
0.0
 11
20.95932105403034
 21
10.33343536336799
 31
0.0
  0
LINE
  5
C8F
330
1F
100
AcDbEntity
  8
OBJECT2
  6
CONTINUOUS
100
AcDbLine
 10
20.95929542649139
 20
10.31245985293695
 30
0.0
 11
21.1693828485608
 21
10.31245985293695
 31
0.0
  0
LINE
  5
C90
330
1F
100
AcDbEntity
  8
OBJECT1
  6
CONTINUOUS
100
AcDbLine
 10
21.00129770243136
 20
10.36493707032295
 30
0.0
 11
20.95037200145974
 21
10.36493707032295
 31
0.0
  0
LINE
  5
C91
330
1F
100
AcDbEntity
  8
OBJECT2
  6
CONTINUOUS
100
AcDbLine
 10
20.9855531508077
 20
10.35666735759589
 30
0.0
 11
21.06437757883451
 21
10.36491144278402
 31
0.0
  0
LINE
  5
C92
330
1F
100
AcDbEntity
  8
OBJECT2
  6
CONTINUOUS
100
AcDbLine
 10
21.00138614267001
 20
10.43637662931298
 30
0.0
 11
20.97348741561483
 21
10.42835058826757
 31
0.0
  0
LINE
  5
C93
330
1F
100
AcDbEntity
  8
OBJECT1
  6
CONTINUOUS
100
AcDbLine
 10
21.47715883130837
 20
10.18638958645514
 30
0.0
 11
21.50587847985657
 21
10.10744962444136
 31
0.0
  0
LINE
  5
C94
330
1F
100
AcDbEntity
  8
OBJECT1
100
AcDbLine
 10
22.04486938508984
 20
10.06047944626746
 30
0.0
 11
21.50588134775047
 21
10.06047944626746
 31
0.0
  0
LINE
  5
C95
330
1F
100
AcDbEntity
  8
OBJECT2
  6
CONTINUOUS
100
AcDbLine
 10
21.47964638307919
 20
10.04188219626738
 30
0.0
 11
21.50587847985657
 21
10.10744962444136
 31
0.0
  0
LINE
  5
C96
330
1F
100
AcDbEntity
  8
OBJECT2
  6
CONTINUOUS
100
AcDbLine
 10
21.50592973493445
 20
9.946120905871191
 30
0.0
 11
21.47964638307919
 21
10.04188219626738
 31
0.0
  0
LINE
  5
C97
330
1F
100
AcDbEntity
  8
OBJECT1
  6
CONTINUOUS
100
AcDbLine
 10
21.50588134776969
 20
10.06047913133814
 30
0.0
 11
21.50587847985657
 21
10.10744962444136
 31
0.0
  0
LINE
  5
C9A
330
1F
100
AcDbEntity
  8
OBJECT1
  6
CONTINUOUS
100
AcDbLine
 10
21.56386419436339
 20
10.42833750102455
 30
0.0
 11
21.56383856682446
 21
10.38819469208978
 31
0.0
  0
ARC
  5
C9B
330
1F
100
AcDbEntity
  8
OBJECT1
  6
CONTINUOUS
100
AcDbCircle
 10
21.55543357430171
 20
10.38818965060671
 30
0.0
 40
0.0084058327699311
100
AcDbArc
 50
270.1351930000002
 51
0.0327760000000129
  0
ARC
  5
C9C
330
1F
100
AcDbEntity
  8
OBJECT1
  6
CONTINUOUS
100
AcDbCircle
 10
21.5555028946939
 20
10.42836228831631
 30
0.0
 40
0.0083604594223125
100
AcDbArc
 50
359.8297729999999
 51
90.51484700000006
  0
LINE
  5
C9D
330
1F
100
AcDbEntity
  8
OBJECT2
100
AcDbLine
 10
23.57245734032451
 20
10.01191057380228
 30
0.0
 11
23.57245734032451
 21
9.78421446933935
 31
0.0
  0
LINE
  5
C9E
330
1F
100
AcDbEntity
  8
OBJECT2
100
AcDbLine
 10
23.64922419697705
 20
10.01191057380228
 30
0.0
 11
23.64922419697705
 21
9.78421446933935
 31
0.0
  0
LINE
  5
C9F
330
1F
100
AcDbEntity
  8
OBJECT2
100
AcDbLine
 10
23.53977051104304
 20
10.0604792888028
 30
0.0
 11
23.53977051104304
 21
9.735645754338836
 31
0.0
  0
LINE
  5
CA0
330
1F
100
AcDbEntity
  8
OBJECT2
100
AcDbLine
 10
23.61084061118612
 20
10.0604792888028
 30
0.0
 11
23.61084061118612
 21
9.735645754338836
 31
0.0
  0
LINE
  5
D0F
330
1F
100
AcDbEntity
  8
OBJECT2
  6
CONTINUOUS
100
AcDbLine
 10
21.06436350891742
 20
10.53336846170154
 30
0.0
 11
21.1273152476259
 21
10.52531679311719
 31
0.0
  0
LINE
  5
D10
330
1F
100
AcDbEntity
  8
OBJECT2
  6
CONTINUOUS
100
AcDbLine
 10
21.00136051513107
 20
10.52530376928593
 30
0.0
 11
21.06436350891742
 21
10.53336846170154
 31
0.0
  0
LINE
  5
D11
330
1F
100
AcDbEntity
  8
OBJECT2
  6
CONTINUOUS
100
AcDbLine
 10
21.00133488759214
 20
10.48085301306892
 30
0.0
 11
21.00136051513107
 21
10.52530376928593
 31
0.0
  0
LINE
  5
D12
330
1F
100
AcDbEntity
  8
OBJECT2
  6
CONTINUOUS
100
AcDbLine
 10
21.15534253249933
 20
10.53335585799387
 30
0.0
 11
21.1273152476259
 21
10.52531679311719
 31
0.0
  0
LINE
  5
D13
330
1F
100
AcDbEntity
  8
OBJECT1
  6
CONTINUOUS
100
AcDbLine
 10
21.18198466989962
 20
10.52606041186983
 30
0.0
 11
21.15534253249933
 21
10.53335585799387
 31
0.0
  0
LINE
  5
D14
330
1F
100
AcDbEntity
  8
OBJECT2
  6
CONTINUOUS
100
AcDbLine
 10
21.1273152476259
 20
10.48085301306892
 30
0.0
 11
21.1273152476259
 21
10.52531679311719
 31
0.0
  0
LINE
  5
D15
330
1F
100
AcDbEntity
  8
OBJECT1
  6
CONTINUOUS
100
AcDbLine
 10
20.94669109285734
 20
10.52608603940876
 30
0.0
 11
20.9733844853355
 21
10.53333023045494
 31
0.0
  0
LINE
  5
D16
330
1F
100
AcDbEntity
  8
OBJECT1
  6
CONTINUOUS
100
AcDbLine
 10
21.1552400223436
 20
10.53336846170154
 30
0.0
 11
20.9733844853355
 21
10.53333023045494
 31
0.0
  0
LINE
  5
D17
330
1F
100
AcDbEntity
  8
OBJECT2
  6
CONTINUOUS
100
AcDbLine
 10
20.9733844853355
 20
10.53333023045494
 30
0.0
 11
21.00136051513107
 21
10.52530376928593
 31
0.0
  0
ARC
  5
D58
330
1F
100
AcDbEntity
  8
OBJECT2
100
AcDbCircle
 10
18.51020478334862
 20
12.21448696313687
 30
0.0
 40
0.3908609418460807
100
AcDbArc
 50
355.0796951004409
 51
66.01100297814138
  0
ARC
  5
D59
330
1F
100
AcDbEntity
  8
OBJECT2
100
AcDbCircle
 10
18.20413164106923
 20
12.14890320484345
 30
0.0
 40
0.2097739628539931
100
AcDbArc
 50
86.45478000105255
 51
171.2090746183715
  0
ARC
  5
D5A
330
1F
100
AcDbEntity
  8
OBJECT2
100
AcDbCircle
 10
18.66290349040572
 20
12.16636839072421
 30
0.0
 40
0.666241382477916
100
AcDbArc
 50
147.1841746253621
 51
178.7448004574561
  0
ARC
  5
D5B
330
1F
100
AcDbEntity
  8
OBJECT2
100
AcDbCircle
 10
18.25574327974052
 20
12.18965368772649
 30
0.0
 40
0.3707149323306664
100
AcDbArc
 50
114.33490782917
 51
169.5993313657427
  0
ARC
  5
D5C
330
1F
100
AcDbEntity
  8
OBJECT2
100
AcDbCircle
 10
17.43219756669973
 20
12.3229171505013
 30
0.0
 40
0.4636917241003776
100
AcDbArc
 50
351.7747553097796
 51
34.20969277331893
  0
ARC
  5
D5D
330
1F
100
AcDbEntity
  8
OBJECT2
100
AcDbCircle
 10
16.60834988781672
 20
12.48125327198839
 30
0.0
 40
1.211645618782288
100
AcDbArc
 50
347.0691615938406
 51
4.846234667863083
  0
ARC
  5
D5E
330
1F
100
AcDbEntity
  8
OBJECT2
100
AcDbCircle
 10
17.39477565474758
 20
12.24380583024903
 30
0.0
 40
0.2040829388897735
100
AcDbArc
 50
353.5111851103283
 51
68.16079043167334
  0
ARC
  5
D5F
330
1F
100
AcDbEntity
  8
OBJECT2
100
AcDbCircle
 10
16.85913255783953
 20
12.31305538809881
 30
0.0
 40
0.8278487727154974
100
AcDbArc
 50
353.10411448
 51
14.09774513797343
  0
ARC
  5
D60
330
1F
100
AcDbEntity
  8
OBJECT2
100
AcDbCircle
 10
17.43240989022687
 20
12.23992155974054
 30
0.0
 40
0.358101776769451
100
AcDbArc
 50
355.2258859347425
 51
50.11382420268284
  0
ARC
  5
D61
330
1F
100
AcDbEntity
  8
OBJECT2
100
AcDbCircle
 10
17.45745358171795
 20
12.21006658752121
 30
0.0
 40
0.2235679317828575
100
AcDbArc
 50
0.9207694437823771
 51
86.6044761371406
  0
ARC
  5
D62
330
1F
100
AcDbEntity
  8
OBJECT2
100
AcDbCircle
 10
17.4013560971474
 20
12.13918154890942
 30
0.0
 40
0.2124728889414903
100
AcDbArc
 50
22.57333003010396
 51
110.9433271923135
  0
ARC
  5
D63
330
1F
100
AcDbEntity
  8
OBJECT2
100
AcDbCircle
 10
17.42643328892119
 20
12.09447352767416
 30
0.0
 40
0.1624338237671438
100
AcDbArc
 50
44.86257011074346
 51
127.3232719025904
  0
ARC
  5
D64
330
1F
100
AcDbEntity
  8
OBJECT2
100
AcDbCircle
 10
17.33129305807241
 20
11.81472770263821
 30
0.0
 40
0.408931316048698
100
AcDbArc
 50
63.5844138895684
 51
90.46871244709167
  0
ARC
  5
D65
330
1F
100
AcDbEntity
  8
OBJECT2
100
AcDbCircle
 10
17.28791603896737
 20
12.02857883437963
 30
0.0
 40
0.3113044872660216
100
AcDbArc
 50
35.43254208632025
 51
83.08263043591514
  0
ARC
  5
D66
330
1F
100
AcDbEntity
  8
OBJECT2
100
AcDbCircle
 10
18.14262091793992
 20
12.22862028685096
 30
0.0
 40
0.6283475172455172
100
AcDbArc
 50
1.872836715457762
 51
33.08091279288337
  0
ARC
  5
D67
330
1F
100
AcDbEntity
  8
OBJECT2
100
AcDbCircle
 10
18.42676811933565
 20
12.00822581035488
 30
0.0
 40
0.4198690731621613
100
AcDbArc
 50
35.01711252289283
 51
93.56612626301719
  0
ARC
  5
D68
330
1F
100
AcDbEntity
  8
OBJECT2
100
AcDbCircle
 10
18.35226397168046
 20
12.08969486880796
 30
0.0
 40
0.341037239330167
100
AcDbArc
 50
18.39168483556862
 51
81.84305771154759
  0
ARC
  5
D69
330
1F
100
AcDbEntity
  8
OBJECT2
100
AcDbCircle
 10
18.20873733287496
 20
11.71673244328141
 30
0.0
 40
0.5849032178293204
100
AcDbArc
 50
52.53146195269998
 51
80.88566672241176
  0
ARC
  5
D6A
330
1F
100
AcDbEntity
  8
OBJECT2
100
AcDbCircle
 10
18.40926204814846
 20
11.93919032132563
 30
0.0
 40
0.3710856254739703
100
AcDbArc
 50
44.07042786521986
 51
106.8996241576293
  0
ARC
  5
D6B
330
1F
100
AcDbEntity
  8
OBJECT2
100
AcDbCircle
 10
18.24769308897742
 20
11.97932404568625
 30
0.0
 40
0.2676390789766566
100
AcDbArc
 50
69.03463460073822
 51
131.1144055157062
  0
ARC
  5
D6C
330
1F
100
AcDbEntity
  8
OBJECT2
100
AcDbCircle
 10
18.4551370649719
 20
11.43178573445979
 30
0.0
 40
0.8052412266613602
100
AcDbArc
 50
97.97225468129205
 51
111.5065032218025
  0
ARC
  5
D6D
330
1F
100
AcDbEntity
  8
OBJECT2
100
AcDbCircle
 10
18.84141374166401
 20
11.6980563903895
 30
0.0
 40
0.9086545640633545
100
AcDbArc
 50
133.3987203877797
 51
147.8963763322297
  0
LINE
  5
D6E
330
1F
100
AcDbEntity
  8
OBJECT2
100
AcDbLine
 10
19.26013588546718
 20
12.18096281627074
 30
0.0
 11
19.26013588546718
 21
11.77325521546327
 31
0.0
  0
LINE
  5
D6F
330
1F
100
AcDbEntity
  8
OBJECT2
100
AcDbLine
 10
19.60042079011038
 20
11.77325521546327
 30
0.0
 11
19.26013588546718
 21
11.77325521546327
 31
0.0
  0
LINE
  5
D70
330
1F
100
AcDbEntity
  8
OBJECT1
100
AcDbLine
 10
24.27952628924851
 20
10.06047944626746
 30
0.0
 11
24.27952628924851
 21
11.77325521546327
 31
0.0
  0
LINE
  5
D71
330
1F
100
AcDbEntity
  8
OBJECT1
100
AcDbLine
 10
24.9803216912168
 20
12.18096281627074
 30
0.0
 11
24.9803216912168
 21
10.06047944626746
 31
0.0
  0
INSERT
  5
D72
330
1F
100
AcDbEntity
  8
OBJECT2
100
AcDbBlockReference
  2
*X2
 10
38.92548648969084
 20
6.756751770080922
 30
0.0
 41
-0.3149293222098004
 42
0.3149293222098004
 43
0.3149293222098004
1001
ACAD
1000
HATCH
1002
{
1070
    16
1000
EARTH
1040
2.5
1040
0.0
1002
}
  0
ARC
  5
D73
330
1F
100
AcDbEntity
  8
OBJECT1
100
AcDbCircle
 10
26.7122205165492
 20
9.979271062651474
 30
0.0
 40
0.0818109424620327
100
AcDbArc
 50
276.9582268595477
 51
83.04177314045222
  0
ARC
  5
D74
330
1F
100
AcDbEntity
  8
OBJECT2
100
AcDbCircle
 10
26.73204259888216
 20
9.979271062651474
 30
0.0
 40
0.0818109424620327
100
AcDbArc
 50
96.95822685954778
 51
263.0417731404522
  0
ARC
  5
D75
330
1F
100
AcDbEntity
  8
OBJECT1
100
AcDbCircle
 10
26.7122205165492
 20
9.816854295419481
 30
0.0
 40
0.0818109424620327
100
AcDbArc
 50
276.9582268595477
 51
83.04177314045222
  0
ARC
  5
D77
330
1F
100
AcDbEntity
  8
OBJECT2
100
AcDbCircle
 10
25.42481001438699
 20
11.43178573445979
 30
0.0
 40
0.8052412266613602
100
AcDbArc
 50
68.49349677819741
 51
82.02774531870792
  0
ARC
  5
D78
330
1F
100
AcDbEntity
  8
OBJECT2
100
AcDbCircle
 10
25.63225399038147
 20
11.97932404568625
 30
0.0
 40
0.2676390789766566
100
AcDbArc
 50
48.88559448429371
 51
110.9653653992617
  0
ARC
  5
D79
330
1F
100
AcDbEntity
  8
OBJECT2
100
AcDbCircle
 10
25.67120974648393
 20
11.71673244328141
 30
0.0
 40
0.5849032178293204
100
AcDbArc
 50
99.11433327758825
 51
127.4685380473
  0
ARC
  5
D7A
330
1F
100
AcDbEntity
  8
OBJECT2
100
AcDbCircle
 10
25.47068503121042
 20
11.93919032132563
 30
0.0
 40
0.3710856254739703
100
AcDbArc
 50
73.10037584237065
 51
135.92957213478
  0
LINE
  5
D7B
330
1F
100
AcDbEntity
  8
OBJECT2
100
AcDbLine
 10
24.6198111938917
 20
12.18096281627074
 30
0.0
 11
24.6198111938917
 21
11.77325521546327
 31
0.0
  0
LINE
  5
D7C
330
1F
100
AcDbEntity
  8
OBJECT2
100
AcDbLine
 10
24.27952628924851
 20
11.77325521546327
 30
0.0
 11
24.6198111938917
 21
11.77325521546327
 31
0.0
  0
ARC
  5
D7D
330
1F
100
AcDbEntity
  8
OBJECT2
100
AcDbCircle
 10
25.52768310767844
 20
12.08969486880796
 30
0.0
 40
0.341037239330167
100
AcDbArc
 50
98.15694228845243
 51
161.6083151644313
  0
ARC
  5
D7E
330
1F
100
AcDbEntity
  8
OBJECT2
100
AcDbCircle
 10
25.45317896002325
 20
12.00822581035488
 30
0.0
 40
0.4198690731621613
100
AcDbArc
 50
86.4338737369828
 51
144.9828874771071
  0
ARC
  5
D7F
330
1F
100
AcDbEntity
  8
OBJECT2
100
AcDbCircle
 10
25.73732616141898
 20
12.22862028685096
 30
0.0
 40
0.6283475172455172
100
AcDbArc
 50
146.9190872071166
 51
178.1271632845422
  0
ARC
  5
D80
330
1F
100
AcDbEntity
  8
OBJECT2
100
AcDbCircle
 10
25.36974229601026
 20
12.21448696313687
 30
0.0
 40
0.3908609418460807
100
AcDbArc
 50
113.9889970218586
 51
184.9203048995589
  0
ARC
  5
D81
330
1F
100
AcDbEntity
  8
OBJECT2
100
AcDbCircle
 10
26.54865402128648
 20
11.81472770263821
 30
0.0
 40
0.408931316048698
100
AcDbArc
 50
89.53128755290832
 51
116.4155861104315
  0
ARC
  5
D82
330
1F
100
AcDbEntity
  8
OBJECT2
100
AcDbCircle
 10
26.4535137904377
 20
12.09447352767416
 30
0.0
 40
0.1624338237671438
100
AcDbArc
 50
52.67672809740953
 51
135.1374298892565
  0
ARC
  5
D83
330
1F
100
AcDbEntity
  8
OBJECT2
100
AcDbCircle
 10
26.4851714246113
 20
12.24380583024903
 30
0.0
 40
0.2040829388897735
100
AcDbArc
 50
111.8392095683266
 51
186.4888148896714
  0
ARC
  5
D84
330
1F
100
AcDbEntity
  8
OBJECT2
100
AcDbCircle
 10
26.4785909822115
 20
12.13918154890942
 30
0.0
 40
0.2124728889414903
100
AcDbArc
 50
69.05667280768641
 51
157.4266699698966
  0
ARC
  5
D85
330
1F
100
AcDbEntity
  8
OBJECT2
100
AcDbCircle
 10
26.59203104039152
 20
12.02857883437963
 30
0.0
 40
0.3113044872660216
100
AcDbArc
 50
96.91736956408485
 51
144.5674579136797
  0
ARC
  5
D86
330
1F
100
AcDbEntity
  8
OBJECT2
100
AcDbCircle
 10
26.42249349764095
 20
12.21006658752121
 30
0.0
 40
0.2235679317828575
100
AcDbArc
 50
93.39552386285941
 51
179.0792305562175
  0
ARC
  5
D87
330
1F
100
AcDbEntity
  8
OBJECT2
100
AcDbCircle
 10
27.27159719154217
 20
12.48125327198839
 30
0.0
 40
1.211645618782288
100
AcDbArc
 50
175.1537653321368
 51
192.9308384061592
  0
ARC
  5
D88
330
1F
100
AcDbEntity
  8
OBJECT2
100
AcDbCircle
 10
26.44774951265916
 20
12.3229171505013
 30
0.0
 40
0.4636917241003776
100
AcDbArc
 50
145.790307226681
 51
188.2252446902202
  0
ARC
  5
D89
330
1F
100
AcDbEntity
  8
OBJECT2
100
AcDbCircle
 10
25.62420379961837
 20
12.18965368772649
 30
0.0
 40
0.3707149323306664
100
AcDbArc
 50
10.40066863425717
 51
65.66509217082992
  0
ARC
  5
D8A
330
1F
100
AcDbEntity
  8
OBJECT2
100
AcDbCircle
 10
25.21704358895318
 20
12.16636839072421
 30
0.0
 40
0.666241382477916
100
AcDbArc
 50
1.255199542543861
 51
32.8158253746381
  0
ARC
  5
D8B
330
1F
100
AcDbEntity
  8
OBJECT2
100
AcDbCircle
 10
26.44753718913203
 20
12.23992155974054
 30
0.0
 40
0.358101776769451
100
AcDbArc
 50
129.8861757973171
 51
184.7741140652573
  0
ARC
  5
D8C
330
1F
100
AcDbEntity
  8
OBJECT2
100
AcDbCircle
 10
27.02081452151937
 20
12.31305538809881
 30
0.0
 40
0.8278487727154974
100
AcDbArc
 50
165.9022548620266
 51
186.8958855199999
  0
ARC
  5
D8D
330
1F
100
AcDbEntity
  8
OBJECT2
100
AcDbCircle
 10
25.03853333769488
 20
11.6980563903895
 30
0.0
 40
0.9086545640633545
100
AcDbArc
 50
32.10362366777024
 51
46.60127961222027
  0
ARC
  5
D8E
330
1F
100
AcDbEntity
  8
OBJECT2
100
AcDbCircle
 10
25.67581543828966
 20
12.14890320484345
 30
0.0
 40
0.2097739628539931
100
AcDbArc
 50
8.790925381628365
 51
93.54521999894746
  0
LINE
  5
137A
330
1F
100
AcDbEntity
  8
OBJECT1
100
AcDbLine
 10
8.130501720746568
 20
11.21217682410669
 30
0.0
 11
8.130501720746568
 21
10.08816826065173
 31
0.0
  0
LINE
  5
137B
330
1F
100
AcDbEntity
  8
OBJECT1
100
AcDbLine
 10
7.805668501211918
 20
11.21217682410669
 30
0.0
 11
7.805668501211918
 21
10.08816826065173
 31
0.0
  0
INSERT
  5
137C
330
1F
100
AcDbEntity
  8
0
100
AcDbBlockReference
  2
DIRECTION
 10
7.504006562733454
 20
7.501289604212146
 30
0.0
 41
0.7085909749720509
 42
0.7085909749720509
 43
0.7085909749720509
  0
TEXT
  5
137D
330
1F
100
AcDbEntity
  8
TEXT
100
AcDbText
 10
2.978301216113833
 20
4.601403609119834
 30
0.0
 40
0.2657216156145191
  1
TEMPORARY OUTDOOR INSTALLATION
  7
ROMANS
 72
     1
 11
6.578196437177199
 21
4.734264416927093
 31
0.0
100
AcDbText
 73
     2
  0
TEXT
  5
137E
330
1F
100
AcDbEntity
  8
TEXT
100
AcDbText
 10
3.345250113867216
 20
5.122200477040406
 30
0.0
 40
0.2657216156145191
  1
DOUBLE UNION SPACER NIPPLE
  7
ROMANS
 72
     1
 11
6.578196437177199
 21
5.255061284847665
 31
0.0
100
AcDbText
 73
     2
  0
TEXT
  5
137F
330
1F
100
AcDbEntity
  8
TEXT
100
AcDbText
 10
1.909088048522079
 20
5.711562595012027
 30
0.0
 40
0.5314432312290382
  1
WILKINS MODEL DUSPC
  7
ROMANS
 72
     1
 11
6.578196437177199
 21
5.977284210626546
 31
0.0
100
AcDbText
 73
     2
  0
TEXT
  5
1380
330
1F
100
AcDbEntity
  8
TEXT
100
AcDbText
 10
8.758592974829969
 20
9.33915956659081
 30
0.0
 40
0.2361969916573503
  1
VALVE
  7
ROMANS
100
AcDbText
  0
TEXT
  5
1381
330
1F
100
AcDbEntity
  8
TEXT
100
AcDbText
 10
8.349241781074949
 20
9.690712601005325
 30
0.0
 40
0.2361969916573503
  1
SHUT-OFF
  7
ROMANS
100
AcDbText
  0
LINE
  5
1382
330
1F
100
AcDbEntity
  8
OBJECT1
100
AcDbLine
 10
6.328414727844259
 20
8.518480841639568
 30
0.0
 11
6.199854909790428
 21
8.518480841639568
 31
0.0
  0
LINE
  5
1383
330
1F
100
AcDbEntity
  8
OBJECT1
100
AcDbLine
 10
6.304562925768053
 20
8.130804420645912
 30
0.0
 11
6.199854909790428
 21
8.130804420645912
 31
0.0
  0
TEXT
  5
1384
330
1F
100
AcDbEntity
  8
TEXT
100
AcDbText
 10
4.462278869215978
 20
9.116800552219286
 30
0.0
 40
0.2361969916573503
  1
WATER METER
  7
ROMANS
100
AcDbText
  0
LINE
  5
1385
330
1F
100
AcDbEntity
  8
OBJECT1
100
AcDbLine
 10
6.08175641396175
 20
8.972359500242912
 30
0.0
 11
6.08175641396175
 21
8.636579337468234
 31
0.0
  0
LINE
  5
1386
330
1F
100
AcDbEntity
  8
OBJECT2
100
AcDbLine
 10
5.49743528981639
 20
8.972359500242912
 30
0.0
 11
5.325925410799575
 21
8.801698985608098
 31
0.0
  0
LINE
  5
1387
330
1F
100
AcDbEntity
  8
OBJECT1
100
AcDbLine
 10
5.325925410799575
 20
8.636579337468234
 30
0.0
 11
5.325925410799575
 21
8.968923621337602
 31
0.0
  0
LINE
  5
1388
330
1F
100
AcDbEntity
  8
OBJECT1
100
AcDbLine
 10
4.935750340563513
 20
8.16229672300825
 30
0.0
 11
3.999813777464144
 21
8.16229672300825
 31
0.0
  0
LINE
  5
1389
330
1F
100
AcDbEntity
  8
OBJECT1
100
AcDbLine
 10
4.935750340563513
 20
8.486988539277231
 30
0.0
 11
3.999813777464144
 21
8.486988539277231
 31
0.0
  0
ARC
  5
138A
330
1F
100
AcDbEntity
  8
OBJECT2
100
AcDbCircle
 10
3.991073030478009
 20
8.243469677075491
 30
0.0
 40
0.0816422018926413
100
AcDbArc
 50
276.145958771996
 51
83.854041228004
  0
ARC
  5
138B
330
1F
100
AcDbEntity
  8
OBJECT1
100
AcDbCircle
 10
4.008554524450273
 20
8.243469677075491
 30
0.0
 40
0.0816422018926413
100
AcDbArc
 50
96.14595877199601
 51
263.854041228004
  0
ARC
  5
138C
330
1F
100
AcDbEntity
  8
OBJECT1
100
AcDbCircle
 10
4.008554524450273
 20
8.405815585209989
 30
0.0
 40
0.0816422018926413
100
AcDbArc
 50
96.14595877199601
 51
263.854041228004
  0
LWPOLYLINE
  5
138D
330
1F
100
AcDbEntity
  8
OBJECT2
100
AcDbPolyline
 90
        4
 70
     0
 43
0.0
 10
5.334825313445231
 20
8.505287507544231
 10
5.371718968612791
 20
8.424447984896884
 10
5.371718968612791
 20
8.280734082787624
 10
5.325601033597704
 20
8.18192941695481
  0
LINE
  5
138E
330
1F
100
AcDbEntity
  8
OBJECT2
100
AcDbLine
 10
4.935750340563513
 20
8.16229672300825
 30
0.0
 11
4.935750340563513
 21
8.487586590060113
 31
0.0
  0
LINE
  5
138F
330
1F
100
AcDbEntity
  8
OBJECT2
100
AcDbLine
 10
4.90306351128204
 20
8.439018189988914
 30
0.0
 11
4.90306351128204
 21
8.211322085525974
 31
0.0
  0
LINE
  5
1390
330
1F
100
AcDbEntity
  8
OBJECT2
100
AcDbLine
 10
4.826296654629496
 20
8.439018189988914
 30
0.0
 11
4.826296654629496
 21
8.211322085525974
 31
0.0
  0
LINE
  5
1391
330
1F
100
AcDbEntity
  8
OBJECT2
100
AcDbLine
 10
4.864680240420439
 20
8.487586590060113
 30
0.0
 11
4.864680240420439
 21
8.162753370525447
 31
0.0
  0
LINE
  5
1392
330
1F
100
AcDbEntity
  8
OBJECT2
100
AcDbLine
 10
5.061722384376761
 20
8.124032495430434
 30
0.0
 11
5.061722384376761
 21
8.525253081784363
 31
0.0
  0
LWPOLYLINE
  5
1393
330
1F
100
AcDbEntity
  8
OBJECT2
100
AcDbPolyline
 90
        4
 70
     0
 43
0.0
 10
6.072856511316095
 20
8.505287507544231
 10
6.035962856148548
 20
8.424447984896884
 10
6.035962856148548
 20
8.280734082787624
 10
6.082080791163624
 20
8.18192941695481
  0
LINE
  5
1394
330
1F
100
AcDbEntity
  8
OBJECT1
100
AcDbLine
 10
5.404657741352025
 20
7.930429694601965
 30
0.0
 11
6.0030240834093
 21
7.930429694601965
 31
0.0
  0
LINE
  5
1395
330
1F
100
AcDbEntity
  8
OBJECT2
100
AcDbLine
 10
5.325925410799575
 20
8.012705924817243
 30
0.0
 11
6.08175641396175
 21
8.012705924817243
 31
0.0
  0
ARC
  5
1396
330
1F
100
AcDbEntity
  8
OBJECT1
100
AcDbCircle
 10
5.207827544829553
 20
8.01270623974656
 30
0.0
 40
0.1180981808993529
100
AcDbArc
 50
359.9998469999998
 51
90.00028999999985
  0
LINE
  5
1397
330
1F
100
AcDbEntity
  8
OBJECT1
100
AcDbLine
 10
5.325925410799575
 20
8.009162025154408
 30
0.0
 11
5.325925410799575
 21
8.012705924817243
 31
0.0
  0
ARC
  5
1398
330
1F
100
AcDbEntity
  8
OBJECT1
100
AcDbCircle
 10
5.404657741352025
 20
8.009161710225093
 30
0.0
 40
0.0787320156231279
100
AcDbArc
 50
179.9998629999999
 51
270.0
  0
LINE
  5
1399
330
1F
100
AcDbEntity
  8
OBJECT1
100
AcDbLine
 10
5.103118898993272
 20
8.130804420645912
 30
0.0
 11
5.207826914970903
 21
8.130804420645912
 31
0.0
  0
ARC
  5
139A
330
1F
100
AcDbEntity
  8
OBJECT1
100
AcDbCircle
 10
5.041880262430927
 20
8.124033755147721
 30
0.0
 40
0.0198421219458285
100
AcDbArc
 50
270.0051879999997
 51
340.7655639999999
  0
ARC
  5
139B
330
1F
100
AcDbEntity
  8
OBJECT1
100
AcDbCircle
 10
5.079350553187458
 20
8.11096324348805
 30
0.0
 40
0.0198414920871841
100
AcDbArc
 50
90.00520300000017
 51
160.7707820000001
  0
LINE
  5
139C
330
1F
100
AcDbEntity
  8
OBJECT1
100
AcDbLine
 10
4.935750340563513
 20
8.16229672300825
 30
0.0
 11
4.935750340563513
 21
8.124032495430434
 31
0.0
  0
ARC
  5
139D
330
1F
100
AcDbEntity
  8
OBJECT1
100
AcDbCircle
 10
4.955589943074764
 20
8.124031550642474
 30
0.0
 40
0.019839917440573
100
AcDbArc
 50
179.9981539999998
 51
270.0017399999999
  0
LINE
  5
139E
330
1F
100
AcDbEntity
  8
OBJECT1
100
AcDbLine
 10
5.041881837077538
 20
8.104191948131216
 30
0.0
 11
4.955590572933409
 21
8.104191948131216
 31
0.0
  0
LINE
  5
139F
330
1F
100
AcDbEntity
  8
OBJECT1
100
AcDbLine
 10
5.079227415822463
 20
8.130804420645912
 30
0.0
 11
5.103118898993272
 21
8.130804420645912
 31
0.0
  0
ARC
  5
13A0
330
1F
100
AcDbEntity
  8
OBJECT1
100
AcDbCircle
 10
6.199854909790428
 20
8.012705924817243
 30
0.0
 40
0.1180984958286751
100
AcDbArc
 50
90.0
 51
180.0000610000001
  0
LINE
  5
13A1
330
1F
100
AcDbEntity
  8
OBJECT1
100
AcDbLine
 10
6.08175641396175
 20
8.009162025154408
 30
0.0
 11
6.08175641396175
 21
8.012705924817243
 31
0.0
  0
LINE
  5
13A2
330
1F
100
AcDbEntity
  8
OBJECT1
100
AcDbLine
 10
6.08175641396175
 20
8.009162025154408
 30
0.0
 11
6.08175641396175
 21
8.012705924817243
 31
0.0
  0
ARC
  5
13A3
330
1F
100
AcDbEntity
  8
OBJECT1
100
AcDbCircle
 10
6.0030240834093
 20
8.009161710225093
 30
0.0
 40
0.0787323305524501
100
AcDbArc
 50
270.0
 51
0.0000270000000304
  0
ARC
  5
13A4
330
1F
100
AcDbEntity
  8
OBJECT1
100
AcDbCircle
 10
5.207825340324294
 20
8.636581227044178
 30
0.0
 40
0.1181003854046084
100
AcDbArc
 50
270.0008539999999
 51
359.9990539999999
  0
LINE
  5
13A5
330
1F
100
AcDbEntity
  8
OBJECT1
100
AcDbLine
 10
5.079227415822463
 20
8.518480841639568
 30
0.0
 11
5.207826914970903
 21
8.518480841639568
 31
0.0
  0
ARC
  5
13A6
330
1F
100
AcDbEntity
  8
OBJECT1
100
AcDbCircle
 10
5.041880262430927
 20
8.525251507137758
 30
0.0
 40
0.0198421219458285
100
AcDbArc
 50
19.2351609999999
 51
89.99479699999984
  0
ARC
  5
13A7
330
1F
100
AcDbEntity
  8
OBJECT1
100
AcDbCircle
 10
5.079350553187458
 20
8.53832201879743
 30
0.0
 40
0.0198414920871841
100
AcDbArc
 50
199.2290189999998
 51
269.9948120000001
  0
ARC
  5
13A8
330
1F
100
AcDbEntity
  8
OBJECT1
100
AcDbCircle
 10
4.955590572933409
 20
8.52525339671369
 30
0.0
 40
0.0198402323698952
100
AcDbArc
 50
90.0
 51
180.0010830000002
  0
LINE
  5
13A9
330
1F
100
AcDbEntity
  8
OBJECT1
100
AcDbLine
 10
4.935750340563513
 20
8.486988539277231
 30
0.0
 11
4.935750340563513
 21
8.525253081784363
 31
0.0
  0
LINE
  5
13AA
330
1F
100
AcDbEntity
  8
OBJECT1
100
AcDbLine
 10
5.041881837077538
 20
8.545093314154263
 30
0.0
 11
4.955590572933409
 21
8.545093314154263
 31
0.0
  0
ARC
  5
13AB
330
1F
100
AcDbEntity
  8
OBJECT1
100
AcDbCircle
 10
6.199856484437033
 20
8.636580912114851
 30
0.0
 40
0.1181003854046084
100
AcDbArc
 50
180.0008089999999
 51
269.9991149999999
  0
LINE
  5
13AC
330
1F
100
AcDbEntity
  8
OBJECT1
100
AcDbLine
 10
6.109750481412978
 20
9.008289786613824
 30
0.0
 11
5.365291576075804
 21
9.008289786613824
 31
0.0
  0
ARC
  5
13AD
330
1F
100
AcDbEntity
  8
OBJECT1
100
AcDbCircle
 10
5.365293465651738
 20
8.968921731761669
 30
0.0
 40
0.0393680548521583
100
AcDbArc
 50
90.00261699999979
 51
179.9971619999999
  0
LINE
  5
13AE
330
1F
100
AcDbEntity
  8
OBJECT2
100
AcDbLine
 10
6.08175641396175
 20
8.972359500242912
 30
0.0
 11
5.49743528981639
 21
8.972359500242912
 31
0.0
  0
LINE
  5
13AF
330
1F
100
AcDbEntity
  8
OBJECT1
100
AcDbLine
 10
6.109750481412978
 20
9.008289786613824
 30
0.0
 11
6.109750481412978
 21
8.972359500242912
 31
0.0
  0
LINE
  5
13B0
330
1F
100
AcDbEntity
  8
OBJECT1
100
AcDbLine
 10
6.109750481412978
 20
8.972359500242912
 30
0.0
 11
6.08175641396175
 21
8.972359500242912
 31
0.0
  0
LINE
  5
13B1
330
1F
100
AcDbEntity
  8
OBJECT1
100
AcDbLine
 10
8.13109324466982
 20
9.307598769831354
 30
0.0
 11
8.130776654044861
 21
8.770423984478089
 31
0.0
  0
LINE
  5
13B2
330
1F
100
AcDbEntity
  8
OBJECT1
100
AcDbLine
 10
7.805486786993007
 20
8.770423984478089
 30
0.0
 11
7.806260025135163
 21
9.307603808700505
 31
0.0
  0
ARC
  5
13B3
330
1F
100
AcDbEntity
  8
OBJECT1
100
AcDbCircle
 10
7.628180633800917
 20
8.525251507137758
 30
0.0
 40
0.0198418070165063
100
AcDbArc
 50
19.23552899999998
 51
89.99653599999986
  0
ARC
  5
13B4
330
1F
100
AcDbEntity
  8
OBJECT1
100
AcDbCircle
 10
7.665649349910832
 20
8.538321074009457
 30
0.0
 40
0.0198402323698952
100
AcDbArc
 50
199.2281189999999
 51
269.99826
  0
ARC
  5
13B5
330
1F
100
AcDbEntity
  8
OBJECT1
100
AcDbCircle
 10
7.628180633800917
 20
8.124034070077049
 30
0.0
 40
0.0198418070165063
100
AcDbArc
 50
270.003479
 51
340.7642819999996
  0
ARC
  5
13B6
330
1F
100
AcDbEntity
  8
OBJECT1
100
AcDbCircle
 10
7.665649349910832
 20
8.110964188276021
 30
0.0
 40
0.0198402323698952
100
AcDbArc
 50
90.00173200000004
 51
160.7718810000001
  0
LINE
  5
13B7
330
1F
100
AcDbEntity
  8
OBJECT2
100
AcDbLine
 10
7.648022125888106
 20
8.124032495430434
 30
0.0
 11
7.648022125888106
 21
8.525253081784363
 31
0.0
  0
LINE
  5
13B8
330
1F
100
AcDbEntity
  8
OBJECT2
100
AcDbLine
 10
7.522050082074862
 20
8.16229672300825
 30
0.0
 11
7.522050082074862
 21
8.487586590060113
 31
0.0
  0
LINE
  5
13B9
330
1F
100
AcDbEntity
  8
OBJECT2
100
AcDbLine
 10
7.489363567722708
 20
8.439018189988914
 30
0.0
 11
7.489363567722708
 21
8.211322085525974
 31
0.0
  0
LINE
  5
13BA
330
1F
100
AcDbEntity
  8
OBJECT2
100
AcDbLine
 10
7.450979981931773
 20
8.487586590060113
 30
0.0
 11
7.450979981931773
 21
8.162753370525447
 31
0.0
  0
LINE
  5
13BB
330
1F
100
AcDbEntity
  8
OBJECT2
100
AcDbLine
 10
7.412596396140845
 20
8.439018189988914
 30
0.0
 11
7.412596396140845
 21
8.211322085525974
 31
0.0
  0
LINE
  5
13BC
330
1F
100
AcDbEntity
  8
OBJECT2
100
AcDbLine
 10
6.471931799127133
 20
8.16229672300825
 30
0.0
 11
6.471931799127133
 21
8.487586590060113
 31
0.0
  0
LINE
  5
13BD
330
1F
100
AcDbEntity
  8
OBJECT2
100
AcDbLine
 10
6.504618313479289
 20
8.439018189988914
 30
0.0
 11
6.504618313479289
 21
8.211322085525974
 31
0.0
  0
LINE
  5
13BE
330
1F
100
AcDbEntity
  8
OBJECT2
100
AcDbLine
 10
6.581385170131834
 20
8.439018189988914
 30
0.0
 11
6.581385170131834
 21
8.211322085525974
 31
0.0
  0
LINE
  5
13BF
330
1F
100
AcDbEntity
  8
OBJECT2
100
AcDbLine
 10
6.543001584340899
 20
8.487586590060113
 30
0.0
 11
6.543001584340899
 21
8.162753370525447
 31
0.0
  0
LINE
  5
13C0
330
1F
100
AcDbEntity
  8
OBJECT2
100
AcDbLine
 10
6.345959440384577
 20
8.124032495430434
 30
0.0
 11
6.345959440384577
 21
8.525253081784363
 31
0.0
  0
LINE
  5
13C1
330
1F
100
AcDbEntity
  8
OBJECT1
100
AcDbLine
 10
6.471931799127133
 20
8.16229672300825
 30
0.0
 11
7.522050082074862
 21
8.16229672300825
 31
0.0
  0
LINE
  5
13C2
330
1F
100
AcDbEntity
  8
OBJECT1
100
AcDbLine
 10
6.471931799127133
 20
8.16229672300825
 30
0.0
 11
6.471931799127133
 21
8.124032495430434
 31
0.0
  0
LINE
  5
13C3
330
1F
100
AcDbEntity
  8
OBJECT1
100
AcDbLine
 10
6.365799987683791
 20
8.104191948131216
 30
0.0
 11
6.452091251827919
 21
8.104191948131216
 31
0.0
  0
ARC
  5
13C4
330
1F
100
AcDbEntity
  8
OBJECT1
100
AcDbCircle
 10
6.452091881686561
 20
8.12403186557179
 30
0.0
 40
0.019839917440573
100
AcDbArc
 50
269.99826
 51
0.0013010000000398
  0
LINE
  5
13C5
330
1F
100
AcDbEntity
  8
OBJECT1
100
AcDbLine
 10
6.328454408938865
 20
8.130804420645912
 30
0.0
 11
6.304562925768053
 21
8.130804420645912
 31
0.0
  0
ARC
  5
13C6
330
1F
100
AcDbEntity
  8
OBJECT1
100
AcDbCircle
 10
6.328332531291165
 20
8.110963873346694
 30
0.0
 40
0.0198402323698952
100
AcDbArc
 50
19.22903599999997
 51
89.99826799999992
  0
ARC
  5
13C7
330
1F
100
AcDbEntity
  8
OBJECT1
100
AcDbCircle
 10
6.365801247401076
 20
8.124034070077049
 30
0.0
 40
0.0198418070165063
100
AcDbArc
 50
199.2362520000001
 51
269.9965209999999
  0
LINE
  5
13C8
330
1F
100
AcDbEntity
  8
OBJECT1
100
AcDbLine
 10
7.522050082074862
 20
8.16229672300825
 30
0.0
 11
7.522050082074862
 21
8.124032495430434
 31
0.0
  0
ARC
  5
13C9
330
1F
100
AcDbEntity
  8
OBJECT1
100
AcDbCircle
 10
7.541890629374076
 20
8.12403186557179
 30
0.0
 40
0.0198405472992174
100
AcDbArc
 50
179.9987029999998
 51
270.0
  0
LINE
  5
13CA
330
1F
100
AcDbEntity
  8
OBJECT1
100
AcDbLine
 10
7.628181893518206
 20
8.104191948131216
 30
0.0
 11
7.541890629374076
 21
8.104191948131216
 31
0.0
  0
LINE
  5
13CB
330
1F
100
AcDbEntity
  8
OBJECT1
100
AcDbLine
 10
6.471931799127133
 20
8.486988539277231
 30
0.0
 11
7.522050082074862
 21
8.486988539277231
 31
0.0
  0
ARC
  5
13CC
330
1F
100
AcDbEntity
  8
OBJECT1
100
AcDbCircle
 10
6.452091881686561
 20
8.525253711643006
 30
0.0
 40
0.0198396025112508
100
AcDbArc
 50
359.9978329999998
 51
90.00173200000004
  0
LINE
  5
13CD
330
1F
100
AcDbEntity
  8
OBJECT1
100
AcDbLine
 10
6.471931799127133
 20
8.486988539277231
 30
0.0
 11
6.471931799127133
 21
8.525253081784363
 31
0.0
  0
LINE
  5
13CE
330
1F
100
AcDbEntity
  8
OBJECT1
100
AcDbLine
 10
6.365799987683791
 20
8.545093314154263
 30
0.0
 11
6.452091251827919
 21
8.545093314154263
 31
0.0
  0
ARC
  5
13CF
330
1F
100
AcDbEntity
  8
OBJECT1
100
AcDbCircle
 10
6.328332531291165
 20
8.538321388938786
 30
0.0
 40
0.0198402323698952
100
AcDbArc
 50
270.0017399999999
 51
340.7710569999998
  0
ARC
  5
13D0
330
1F
100
AcDbEntity
  8
OBJECT1
100
AcDbCircle
 10
6.365801247401076
 20
8.525251192208429
 30
0.0
 40
0.0198421219458285
100
AcDbArc
 50
90.00346400000015
 51
160.764069
  0
ARC
  5
13D1
330
1F
100
AcDbEntity
  8
OBJECT1
100
AcDbCircle
 10
7.541889999515433
 20
8.525253711643006
 30
0.0
 40
0.0198396025112508
100
AcDbArc
 50
89.99826799999992
 51
180.002609
  0
LINE
  5
13D2
330
1F
100
AcDbEntity
  8
OBJECT1
100
AcDbLine
 10
7.522050082074862
 20
8.486988539277231
 30
0.0
 11
7.522050082074862
 21
8.525253081784363
 31
0.0
  0
LINE
  5
13D3
330
1F
100
AcDbEntity
  8
OBJECT1
100
AcDbLine
 10
7.628181893518206
 20
8.545093314154263
 30
0.0
 11
7.541890629374076
 21
8.545093314154263
 31
0.0
  0
ARC
  5
13D4
330
1F
100
AcDbEntity
  8
OBJECT1
100
AcDbCircle
 10
7.689419900221897
 20
8.603197144243324
 30
0.0
 40
0.4723927235974118
100
AcDbArc
 50
269.9998469999998
 51
0.0001460000001194
  0
LINE
  5
13D5
330
1F
100
AcDbEntity
  8
OBJECT1
100
AcDbLine
 10
7.665527157333809
 20
8.130804420645912
 30
0.0
 11
7.689418640504612
 21
8.130804420645912
 31
0.0
  0
ARC
  5
13D6
330
1F
100
AcDbEntity
  8
OBJECT1
100
AcDbCircle
 10
7.695262154078211
 20
8.597213172192013
 30
0.0
 40
0.0787323305524501
100
AcDbArc
 50
270.0
 51
0.0001089999998967
  0
LINE
  5
13D7
330
1F
100
AcDbEntity
  8
OBJECT1
100
AcDbLine
 10
7.665527157333809
 20
8.518480841639568
 30
0.0
 11
7.695262154078211
 21
8.518480841639568
 31
0.0
  0
LINE
  5
13D8
330
1F
100
AcDbEntity
  8
OBJECT2
100
AcDbLine
 10
8.130776654044861
 20
8.770423984478089
 30
0.0
 11
7.805486786993007
 21
8.770423984478089
 31
0.0
  0
LINE
  5
13D9
330
1F
100
AcDbEntity
  8
OBJECT2
100
AcDbLine
 10
7.854055501993526
 20
8.803110813759563
 30
0.0
 11
8.081751606456467
 21
8.803110813759563
 31
0.0
  0
LINE
  5
13DA
330
1F
100
AcDbEntity
  8
OBJECT2
100
AcDbLine
 10
7.805486786993007
 20
8.841494084621169
 30
0.0
 11
8.130320321456988
 21
8.841494084621169
 31
0.0
  0
LINE
  5
13DB
330
1F
100
AcDbEntity
  8
OBJECT2
100
AcDbLine
 10
8.168514004866612
 20
8.64445320038213
 30
0.0
 11
7.767293418512684
 21
8.64445320038213
 31
0.0
  0
LINE
  5
13DC
330
1F
100
AcDbEntity
  8
OBJECT1
100
AcDbLine
 10
7.805486786993007
 20
8.770423984478089
 30
0.0
 11
7.767293418512684
 21
8.770423984478089
 31
0.0
  0
ARC
  5
13DD
330
1F
100
AcDbEntity
  8
OBJECT1
100
AcDbCircle
 10
7.767292788654041
 20
8.750584067037515
 30
0.0
 40
0.019839917440573
100
AcDbArc
 50
89.99826799999992
 51
180.001511
  0
ARC
  5
13DE
330
1F
100
AcDbEntity
  8
OBJECT1
100
AcDbCircle
 10
7.754155197048733
 20
8.626852115493154
 30
0.0
 40
0.0198392875819286
100
AcDbArc
 50
359.9993589999997
 51
70.66732799999991
  0
LINE
  5
13DF
330
1F
100
AcDbEntity
  8
OBJECT1
100
AcDbLine
 10
7.773994484630662
 20
8.626991314253565
 30
0.0
 11
7.773994484630662
 21
8.597213172192013
 31
0.0
  0
ARC
  5
13E0
330
1F
100
AcDbEntity
  8
OBJECT1
100
AcDbCircle
 10
7.767290899078112
 20
8.664291543176098
 30
0.0
 40
0.0198380278646398
100
AcDbArc
 50
179.9941409999999
 51
250.8829040000001
  0
LINE
  5
13E1
330
1F
100
AcDbEntity
  8
OBJECT1
100
AcDbLine
 10
7.747452871213472
 20
8.750583752108187
 30
0.0
 11
7.747452871213472
 21
8.664293432752032
 31
0.0
  0
ARC
  5
13E2
330
1F
100
AcDbEntity
  8
OBJECT1
100
AcDbCircle
 10
8.168514949654586
 20
8.750584381966831
 30
0.0
 40
0.0198392875819286
100
AcDbArc
 50
359.9978329999998
 51
90.00346400000015
  0
LINE
  5
13E3
330
1F
100
AcDbEntity
  8
OBJECT1
100
AcDbLine
 10
8.130776654044861
 20
8.770423984478089
 30
0.0
 11
8.168514004866612
 21
8.770423984478089
 31
0.0
  0
ARC
  5
13E4
330
1F
100
AcDbEntity
  8
OBJECT1
100
AcDbCircle
 10
8.168516209371869
 20
8.664291858105414
 30
0.0
 40
0.0198380278646398
100
AcDbArc
 50
289.116821
 51
0.0049880000000699
  0
LINE
  5
13E5
330
1F
100
AcDbEntity
  8
OBJECT1
100
AcDbLine
 10
8.161812623819313
 20
8.626991314253565
 30
0.0
 11
8.161812623819313
 21
8.603198403960611
 31
0.0
  0
ARC
  5
13E6
330
1F
100
AcDbEntity
  8
OBJECT1
100
AcDbCircle
 10
8.181651911401242
 20
8.626852115493154
 30
0.0
 40
0.0198392875819286
100
AcDbArc
 50
109.332672
 51
180.0006560000001
  0
LINE
  5
13E7
330
1F
100
AcDbEntity
  8
OBJECT1
100
AcDbLine
 10
8.188354237236513
 20
8.664293432752032
 30
0.0
 11
8.188354237236513
 21
8.750583752108187
 31
0.0
  0
LINE
  5
13E8
330
1F
100
AcDbEntity
  8
OBJECT1
100
AcDbLine
 10
8.184841596250393
 20
9.961698727179385
 30
0.0
 11
8.184860210495415
 21
10.06752346783365
 31
0.0
  0
LINE
  5
13E9
330
1F
100
AcDbEntity
  8
OBJECT2
100
AcDbLine
 10
8.076724086180671
 20
10.06760321034013
 30
0.0
 11
8.076734427427911
 21
9.960706197250011
 31
0.0
  0
LINE
  5
13EA
330
1F
100
AcDbEntity
  8
OBJECT2
100
AcDbLine
 10
7.860491364096162
 20
10.06760275072915
 30
0.0
 11
7.860481712265404
 21
9.960706427055505
 31
0.0
  0
LINE
  5
13EB
330
1F
100
AcDbEntity
  8
OBJECT1
100
AcDbLine
 10
7.752374773248416
 20
9.961698727179385
 30
0.0
 11
7.752375462664899
 21
10.06752392744465
 31
0.0
  0
LINE
  5
13EC
330
1F
100
AcDbEntity
  8
OBJECT1
100
AcDbLine
 10
7.595580782623065
 20
10.09656421793891
 30
0.0
 11
7.595601005506544
 21
9.865811005899038
 31
0.0
  0
LINE
  5
13ED
330
1F
100
AcDbEntity
  8
OBJECT1
100
AcDbLine
 10
7.551534652969705
 20
9.865810776093546
 30
0.0
 11
7.551535112580701
 21
10.0965644477444
 31
0.0
  0
LINE
  5
13EE
330
1F
100
AcDbEntity
  8
OBJECT1
100
AcDbLine
 10
7.647680445820029
 20
9.818700419980761
 30
0.0
 11
7.745184389140952
 21
9.818699730564274
 31
0.0
  0
LINE
  5
13EF
330
1F
100
AcDbEntity
  8
OBJECT2
100
AcDbLine
 10
7.680162073589665
 20
9.566424544577781
 30
0.0
 11
7.647679986209031
 21
9.566425463799761
 31
0.0
  0
ARC
  5
13F0
330
1F
100
AcDbEntity
  8
OBJECT1
100
AcDbCircle
 10
7.654156134840571
 20
9.536213624896149
 30
0.0
 40
0.0064859061875943
100
AcDbArc
 50
179.8102650000003
 51
270.0929259999997
  0
LINE
  5
13F1
330
1F
100
AcDbEntity
  8
OBJECT2
100
AcDbLine
 10
7.586783368694785
 20
9.543494552368315
 30
0.0
 11
7.680171725420425
 21
9.543494552368315
 31
0.0
  0
LINE
  5
13F2
330
1F
100
AcDbEntity
  8
OBJECT1
100
AcDbLine
 10
7.595571360597807
 20
9.316907484132459
 30
0.0
 11
7.595581012428548
 21
9.527823885914557
 31
0.0
  0
LINE
  5
13F3
330
1F
100
AcDbEntity
  8
OBJECT1
100
AcDbLine
 10
7.551534652969705
 20
9.317918628306854
 30
0.0
 11
7.551515349308186
 21
9.527824345525541
 31
0.0
  0
ARC
  5
13F4
330
1F
100
AcDbEntity
  8
OBJECT1
100
AcDbCircle
 10
7.558021142848465
 20
9.31688680163797
 30
0.0
 40
0.0064865561756875
100
AcDbArc
 50
179.819965
 51
270.1761779999999
  0
LINE
  5
13F5
330
1F
100
AcDbEntity
  8
OBJECT1
100
AcDbLine
 10
7.558040906120982
 20
9.31040077137019
 30
0.0
 11
7.589064647835531
 21
9.310401230981174
 31
0.0
  0
ARC
  5
13F6
330
1F
100
AcDbEntity
  8
OBJECT1
100
AcDbCircle
 10
7.589119341543138
 20
9.316852790424839
 30
0.0
 40
0.00645210680675
100
AcDbArc
 50
269.5134280000003
 51
0.484604000000216
  0
LINE
  5
13F7
330
1F
100
AcDbEntity
  8
OBJECT2
100
AcDbLine
 10
7.607086224494779
 20
9.745564821457378
 30
0.0
 11
7.607066231416764
 21
9.64805030708371
 31
0.0
  0
LINE
  5
13F8
330
1F
100
AcDbEntity
  8
OBJECT2
100
AcDbLine
 10
7.647660222936533
 20
9.778076323941263
 30
0.0
 11
7.647670104572775
 21
9.615558567872319
 31
0.0
  0
LINE
  5
13F9
330
1F
100
AcDbEntity
  8
OBJECT2
100
AcDbLine
 10
7.631415042747322
 20
9.615559027483318
 30
0.0
 11
7.631415272552805
 21
9.778056101057773
 31
0.0
  0
LINE
  5
13FA
330
1F
100
AcDbEntity
  8
OBJECT2
100
AcDbLine
 10
7.613463097152825
 20
9.635871075503064
 30
0.0
 11
7.607066461222261
 21
9.696827672251284
 31
0.0
  0
LINE
  5
13FB
330
1F
100
AcDbEntity
  8
OBJECT2
100
AcDbLine
 10
7.586397525270054
 20
9.648070529967203
 30
0.0
 11
7.586446014229331
 21
9.745563902235399
 31
0.0
  0
LINE
  5
13FC
330
1F
100
AcDbEntity
  8
OBJECT2
100
AcDbLine
 10
7.552992998635771
 20
9.648070070356205
 30
0.0
 11
7.55920211328307
 21
9.696827672251284
 31
0.0
  0
LINE
  5
13FD
330
1F
100
AcDbEntity
  8
OBJECT2
100
AcDbLine
 10
7.477972765254616
 20
9.696827672251284
 30
0.0
 11
7.484181420290916
 21
9.648070529967203
 31
0.0
  0
LINE
  5
13FE
330
1F
100
AcDbEntity
  8
OBJECT1
100
AcDbLine
 10
7.477953001982115
 20
9.626469043319596
 30
0.0
 11
7.477973224865593
 21
9.76718630118297
 31
0.0
  0
LINE
  5
13FF
330
1F
100
AcDbEntity
  8
OBJECT2
100
AcDbLine
 10
7.55920211328307
 20
9.767127011365474
 30
0.0
 11
7.55920165367209
 21
9.626528792748079
 31
0.0
  0
LINE
  5
1400
330
1F
100
AcDbEntity
  8
OBJECT1
100
AcDbLine
 10
7.613503083308806
 20
9.581440724984108
 30
0.0
 11
7.631394590058345
 21
9.581441414400584
 31
0.0
  0
LINE
  5
1401
330
1F
100
AcDbEntity
  8
OBJECT2
100
AcDbLine
 10
7.613463097152825
 20
9.635871075503064
 30
0.0
 11
7.631414583136344
 21
9.635871075503064
 31
0.0
  0
LINE
  5
1402
330
1F
100
AcDbEntity
  8
OBJECT2
100
AcDbLine
 10
7.613463097152825
 20
9.635871075503064
 30
0.0
 11
7.607066001611281
 21
9.608655900243586
 31
0.0
  0
LINE
  5
1403
330
1F
100
AcDbEntity
  8
OBJECT1
100
AcDbLine
 10
7.613503083308806
 20
9.581440724984108
 30
0.0
 11
7.607066001611281
 21
9.608655900243586
 31
0.0
  0
LINE
  5
1404
330
1F
100
AcDbEntity
  8
OBJECT1
100
AcDbLine
 10
7.607065771805782
 20
9.648070070356205
 30
0.0
 11
7.607066001611281
 21
9.608655900243586
 31
0.0
  0
LINE
  5
1405
330
1F
100
AcDbEntity
  8
OBJECT1
100
AcDbLine
 10
7.631415042747322
 20
9.615559027483318
 30
0.0
 11
7.647670104572775
 21
9.615558567872319
 31
0.0
  0
LINE
  5
1406
330
1F
100
AcDbEntity
  8
OBJECT1
100
AcDbLine
 10
7.631394590058345
 20
9.581441414400584
 30
0.0
 11
7.631415042747322
 21
9.615559027483318
 31
0.0
  0
LINE
  5
1407
330
1F
100
AcDbEntity
  8
OBJECT1
100
AcDbLine
 10
7.647679986209031
 20
9.566425463799761
 30
0.0
 11
7.647670104572775
 21
9.615558567872319
 31
0.0
  0
LINE
  5
1408
330
1F
100
AcDbEntity
  8
OBJECT1
100
AcDbLine
 10
7.647690557261768
 20
9.543475248706791
 30
0.0
 11
7.647670334378272
 21
9.536234996807099
 31
0.0
  0
LINE
  5
1409
330
1F
100
AcDbEntity
  8
OBJECT2
100
AcDbLine
 10
7.518537571476606
 20
9.648069840550714
 30
0.0
 11
7.552992998635771
 21
9.648070070356205
 31
0.0
  0
LINE
  5
140A
330
1F
100
AcDbEntity
  8
OBJECT2
100
AcDbLine
 10
7.518537571476606
 20
9.648069840550714
 30
0.0
 11
7.484181420290916
 21
9.648070529967203
 31
0.0
  0
LINE
  5
140B
330
1F
100
AcDbEntity
  8
OBJECT1
100
AcDbLine
 10
7.58644670364581
 20
9.534330139065833
 30
0.0
 11
7.586446244034828
 21
9.543494782173805
 31
0.0
  0
LINE
  5
140C
330
1F
100
AcDbEntity
  8
OBJECT1
100
AcDbLine
 10
7.586446244034828
 20
9.543494782173805
 30
0.0
 11
7.58644670364581
 21
9.534330139065833
 31
0.0
  0
LINE
  5
140D
330
1F
100
AcDbEntity
  8
OBJECT2
100
AcDbLine
 10
7.586753493980548
 20
9.566425463799749
 30
0.0
 11
7.586783368694785
 21
9.543494552368315
 31
0.0
  0
LINE
  5
140E
330
1F
100
AcDbEntity
  8
OBJECT1
100
AcDbLine
 10
7.55920165367209
 20
9.626528792748079
 30
0.0
 11
7.553558779762465
 21
9.605819870639885
 31
0.0
  0
LINE
  5
140F
330
1F
100
AcDbEntity
  8
OBJECT1
100
AcDbLine
 10
7.483566920399482
 20
9.605819411028901
 30
0.0
 11
7.477972765254616
 21
9.626449280047101
 31
0.0
  0
LINE
  5
1410
330
1F
100
AcDbEntity
  8
OBJECT1
100
AcDbLine
 10
7.553558779762465
 20
9.605819870639885
 30
0.0
 11
7.483566920399482
 21
9.605819411028901
 31
0.0
  0
ARC
  5
1411
330
1F
100
AcDbEntity
  8
OBJECT1
100
AcDbCircle
 10
7.55801700634959
 20
9.527829401246414
 30
0.0
 40
0.0065015059018301
100
AcDbArc
 50
89.96522500000036
 51
180.0424880000001
  0
LINE
  5
1412
330
1F
100
AcDbEntity
  8
OBJECT1
100
AcDbLine
 10
7.55920165367209
 20
9.626528792748079
 30
0.0
 11
7.559201883477591
 21
9.534330598676817
 31
0.0
  0
LINE
  5
1413
330
1F
100
AcDbEntity
  8
OBJECT2
100
AcDbLine
 10
7.559201883477591
 20
9.534330598676817
 30
0.0
 11
7.58644670364581
 21
9.534330139065833
 31
0.0
  0
LINE
  5
1414
330
1F
100
AcDbEntity
  8
OBJECT1
100
AcDbLine
 10
7.586397525270054
 20
9.648070529967203
 30
0.0
 11
7.586753493980548
 21
9.566425463799749
 31
0.0
  0
LINE
  5
1415
330
1F
100
AcDbEntity
  8
OBJECT2
100
AcDbLine
 10
7.477972765254616
 20
9.626449280047101
 30
0.0
 11
7.484181420290916
 21
9.648070529967203
 31
0.0
  0
LINE
  5
1416
330
1F
100
AcDbEntity
  8
OBJECT2
100
AcDbLine
 10
7.55920165367209
 20
9.626528792748079
 30
0.0
 11
7.552992998635771
 21
9.648070070356205
 31
0.0
  0
LINE
  5
1417
330
1F
100
AcDbEntity
  8
OBJECT1
100
AcDbLine
 10
7.586753493980548
 20
9.566425463799749
 30
0.0
 11
7.647679986209031
 21
9.566425463799761
 31
0.0
  0
LINE
  5
1418
330
1F
100
AcDbEntity
  8
OBJECT1
100
AcDbLine
 10
7.586446244034828
 20
9.543494782173805
 30
0.0
 11
7.647690557261768
 21
9.543475248706791
 31
0.0
  0
LINE
  5
1419
330
1F
100
AcDbEntity
  8
OBJECT2
100
AcDbLine
 10
7.586397525270054
 20
9.648070529967203
 30
0.0
 11
7.607066231416764
 21
9.64805030708371
 31
0.0
  0
ARC
  5
141A
330
1F
100
AcDbEntity
  8
OBJECT1
100
AcDbCircle
 10
7.589080964025615
 20
9.527830090662902
 30
0.0
 40
0.0065002059256438
100
AcDbArc
 50
359.945908
 51
89.78942900000017
  0
LINE
  5
141B
330
1F
100
AcDbEntity
  8
OBJECT1
100
AcDbLine
 10
7.613482630619829
 20
9.812194166829476
 30
0.0
 11
7.631404701500084
 21
9.812194166829488
 31
0.0
  0
LINE
  5
141C
330
1F
100
AcDbEntity
  8
OBJECT2
100
AcDbLine
 10
7.613463097152825
 20
9.757764046116022
 30
0.0
 11
7.631415042747322
 21
9.757764046116022
 31
0.0
  0
LINE
  5
141D
330
1F
100
AcDbEntity
  8
OBJECT1
100
AcDbLine
 10
7.613482630619829
 20
9.812194166829476
 30
0.0
 11
7.607086454300258
 21
9.784978531959012
 31
0.0
  0
LINE
  5
141E
330
1F
100
AcDbEntity
  8
OBJECT1
100
AcDbLine
 10
7.607086224494779
 20
9.745564821457378
 30
0.0
 11
7.607086454300258
 21
9.784978531959012
 31
0.0
  0
LINE
  5
141F
330
1F
100
AcDbEntity
  8
OBJECT2
100
AcDbLine
 10
7.613463097152825
 20
9.757764046116022
 30
0.0
 11
7.607086454300258
 21
9.784978531959012
 31
0.0
  0
LINE
  5
1420
330
1F
100
AcDbEntity
  8
OBJECT2
100
AcDbLine
 10
7.613463097152825
 20
9.757764046116022
 30
0.0
 11
7.607066461222261
 21
9.696827672251284
 31
0.0
  0
LINE
  5
1421
330
1F
100
AcDbEntity
  8
OBJECT1
100
AcDbLine
 10
7.631415272552805
 20
9.778056101057773
 30
0.0
 11
7.647660222936533
 21
9.778076323941263
 31
0.0
  0
LINE
  5
1422
330
1F
100
AcDbEntity
  8
OBJECT1
100
AcDbLine
 10
7.647660222936533
 20
9.778076323941263
 30
0.0
 11
7.647680445820029
 21
9.818700419980761
 31
0.0
  0
LINE
  5
1423
330
1F
100
AcDbEntity
  8
OBJECT1
100
AcDbLine
 10
7.631404701500084
 20
9.812194166829488
 30
0.0
 11
7.631415272552805
 21
9.778056101057773
 31
0.0
  0
ARC
  5
1424
330
1F
100
AcDbEntity
  8
OBJECT1
100
AcDbCircle
 10
7.558005056463878
 20
9.865794230097952
 30
0.0
 40
0.006470631467405
100
AcDbArc
 50
179.8525119999995
 51
270.1436159999994
  0
LINE
  5
1425
330
1F
100
AcDbEntity
  8
OBJECT2
100
AcDbLine
 10
7.559221416944588
 20
9.859324975631244
 30
0.0
 11
7.58643682200957
 21
9.859324056409276
 31
0.0
  0
LINE
  5
1426
330
1F
100
AcDbEntity
  8
OBJECT2
100
AcDbLine
 10
7.552992768830291
 20
9.745564361846383
 30
0.0
 11
7.55920211328307
 21
9.767127011365474
 31
0.0
  0
LINE
  5
1427
330
1F
100
AcDbEntity
  8
OBJECT2
100
AcDbLine
 10
7.518586749852364
 20
9.745564361846394
 30
0.0
 11
7.552992768830291
 21
9.745564361846383
 31
0.0
  0
LINE
  5
1428
330
1F
100
AcDbEntity
  8
OBJECT1
100
AcDbLine
 10
7.55920211328307
 20
9.767127011365474
 30
0.0
 11
7.553567971982227
 21
9.787814791368207
 31
0.0
  0
LINE
  5
1429
330
1F
100
AcDbEntity
  8
OBJECT2
100
AcDbLine
 10
7.477973224865593
 20
9.76718630118297
 30
0.0
 11
7.484180730874438
 21
9.745563902235399
 31
0.0
  0
LINE
  5
142A
330
1F
100
AcDbEntity
  8
OBJECT1
100
AcDbLine
 10
7.483576112619244
 20
9.787815710590187
 30
0.0
 11
7.477973224865593
 21
9.76718630118297
 31
0.0
  0
LINE
  5
142B
330
1F
100
AcDbEntity
  8
OBJECT1
100
AcDbLine
 10
7.483576112619244
 20
9.787815710590187
 30
0.0
 11
7.553567971982227
 21
9.787814791368207
 31
0.0
  0
LINE
  5
142C
330
1F
100
AcDbEntity
  8
OBJECT2
100
AcDbLine
 10
7.518586749852364
 20
9.745564361846394
 30
0.0
 11
7.484180730874438
 21
9.745563902235399
 31
0.0
  0
LINE
  5
142D
330
1F
100
AcDbEntity
  8
OBJECT2
100
AcDbLine
 10
7.484180730874438
 20
9.745563902235399
 30
0.0
 11
7.477972765254616
 21
9.696827672251284
 31
0.0
  0
LINE
  5
142E
330
1F
100
AcDbEntity
  8
OBJECT2
100
AcDbLine
 10
7.55920211328307
 20
9.696827672251284
 30
0.0
 11
7.552992768830291
 21
9.745564361846383
 31
0.0
  0
LINE
  5
142F
330
1F
100
AcDbEntity
  8
OBJECT1
100
AcDbLine
 10
7.58643682200957
 20
9.859324056409276
 30
0.0
 11
7.586446014229331
 21
9.745563902235399
 31
0.0
  0
LINE
  5
1430
330
1F
100
AcDbEntity
  8
OBJECT2
100
AcDbLine
 10
7.586446014229331
 20
9.745563902235399
 30
0.0
 11
7.58643682200957
 21
9.859324056409276
 31
0.0
  0
LINE
  5
1431
330
1F
100
AcDbEntity
  8
OBJECT1
100
AcDbLine
 10
7.55920211328307
 20
9.767127011365474
 30
0.0
 11
7.559221416944588
 21
9.859324975631244
 31
0.0
  0
ARC
  5
1432
330
1F
100
AcDbEntity
  8
OBJECT1
100
AcDbCircle
 10
7.589066026668504
 20
9.865859035247318
 30
0.0
 40
0.0065340053064881
100
AcDbArc
 50
270.0730289999997
 51
359.5811159999995
  0
LINE
  5
1433
330
1F
100
AcDbEntity
  8
OBJECT1
100
AcDbLine
 10
7.586446014229331
 20
9.745563902235399
 30
0.0
 11
7.607086224494779
 21
9.745564821457378
 31
0.0
  0
LINE
  5
1434
330
1F
100
AcDbEntity
  8
OBJECT2
100
AcDbLine
 10
7.586446014229331
 20
9.745563902235399
 30
0.0
 11
7.607086224494779
 21
9.745564821457378
 31
0.0
  0
LINE
  5
1435
330
1F
100
AcDbEntity
  8
OBJECT1
100
AcDbLine
 10
8.1920414023831
 20
9.32982048465603
 30
0.0
 11
8.192021639110603
 21
9.431559973040233
 31
0.0
  0
LINE
  5
1436
330
1F
100
AcDbEntity
  8
OBJECT1
100
AcDbLine
 10
8.192021639110603
 20
9.431559973040233
 30
0.0
 11
8.1920414023831
 21
9.32982048465603
 31
0.0
  0
LINE
  5
1437
330
1F
100
AcDbEntity
  8
OBJECT2
100
AcDbLine
 10
8.080265848456996
 20
9.433523890793505
 30
0.0
 11
8.080275500287758
 21
9.327856566902756
 31
0.0
  0
LINE
  5
1438
330
1F
100
AcDbEntity
  8
OBJECT2
100
AcDbLine
 10
7.856941099016538
 20
9.433523201377017
 30
0.0
 11
7.856961551705531
 21
9.32785702651374
 31
0.0
  0
LINE
  5
1439
330
1F
100
AcDbEntity
  8
OBJECT1
100
AcDbLine
 10
7.745194040971714
 20
9.329820254850538
 30
0.0
 11
7.745174967115692
 21
9.431559513429235
 31
0.0
  0
LINE
  5
143A
330
1F
100
AcDbEntity
  8
OBJECT2
100
AcDbLine
 10
7.854055501993526
 20
8.879877670412103
 30
0.0
 11
8.081751606456467
 21
8.879877670412103
 31
0.0
  0
LINE
  5
143B
330
1F
100
AcDbEntity
  8
OBJECT2
100
AcDbLine
 10
8.006167824523988
 20
9.307604268311479
 30
0.0
 11
8.080275500287758
 21
9.327856566902756
 31
0.0
  0
LINE
  5
143C
330
1F
100
AcDbEntity
  8
OBJECT2
100
AcDbLine
 10
7.806260025135163
 20
9.307603808700505
 30
0.0
 11
8.13109324466982
 21
9.307603808700505
 31
0.0
  0
LINE
  5
143D
330
1F
100
AcDbEntity
  8
OBJECT2
100
AcDbLine
 10
8.082476030553678
 20
9.274921703358856
 30
0.0
 11
7.85477992609074
 21
9.274921703358856
 31
0.0
  0
LINE
  5
143E
330
1F
100
AcDbEntity
  8
OBJECT2
100
AcDbLine
 10
8.082476030553678
 20
9.198154846706326
 30
0.0
 11
7.85477992609074
 21
9.198154846706326
 31
0.0
  0
LINE
  5
143F
330
1F
100
AcDbEntity
  8
OBJECT2
100
AcDbLine
 10
8.131044745554198
 20
9.23653843249726
 30
0.0
 11
7.806211526019549
 21
9.23653843249726
 31
0.0
  0
LINE
  5
1440
330
1F
100
AcDbEntity
  8
OBJECT1
100
AcDbLine
 10
7.745194040971714
 20
9.329820254850538
 30
0.0
 11
7.806260025135163
 21
9.307603808700505
 31
0.0
  0
LINE
  5
1441
330
1F
100
AcDbEntity
  8
OBJECT2
100
AcDbLine
 10
7.856961551705531
 20
9.32785702651374
 30
0.0
 11
7.806260025135163
 21
9.307603808700505
 31
0.0
  0
LINE
  5
1442
330
1F
100
AcDbEntity
  8
OBJECT2
100
AcDbLine
 10
7.931048774780302
 20
9.307604498116981
 30
0.0
 11
7.856961551705531
 21
9.32785702651374
 31
0.0
  0
LINE
  5
1443
330
1F
100
AcDbEntity
  8
OBJECT2
100
AcDbLine
 10
8.080275500287758
 20
9.327856566902756
 30
0.0
 11
8.130936810896631
 21
9.307604038505997
 31
0.0
  0
LINE
  5
1444
330
1F
100
AcDbEntity
  8
OBJECT1
100
AcDbLine
 10
8.1920414023831
 20
9.32982048465603
 30
0.0
 11
8.130936810896631
 21
9.307604038505997
 31
0.0
  0
ARC
  5
1445
330
1F
100
AcDbEntity
  8
OBJECT2
100
AcDbCircle
 10
7.394619554848906
 20
9.696828591473252
 30
0.0
 40
0.3711448261644345
100
AcDbArc
 50
340.8299259999997
 51
19.16960099999961
  0
LINE
  5
1446
330
1F
100
AcDbEntity
  8
OBJECT1
100
AcDbLine
 10
8.185207906208106
 20
9.775676235360025
 30
0.0
 11
8.185168839274108
 21
9.555456387951476
 31
0.0
  0
LINE
  5
1447
330
1F
100
AcDbEntity
  8
OBJECT2
100
AcDbLine
 10
8.006177706160229
 20
9.453775959579267
 30
0.0
 11
8.080265848456996
 21
9.433523890793505
 31
0.0
  0
LINE
  5
1448
330
1F
100
AcDbEntity
  8
OBJECT2
100
AcDbLine
 10
7.765476673888207
 20
9.555456158145961
 30
0.0
 11
8.185168839274108
 21
9.555456387951476
 31
0.0
  0
LINE
  5
1449
330
1F
100
AcDbEntity
  8
OBJECT2
100
AcDbLine
 10
7.745184159335472
 20
9.574954464910822
 30
0.0
 11
7.745184159335472
 21
9.574954464910822
 31
0.0
  0
LINE
  5
144A
330
1F
100
AcDbEntity
  8
OBJECT2
100
AcDbLine
 10
7.745184159335472
 20
9.574954464910822
 30
0.0
 11
7.745184159335472
 21
9.574954464910822
 31
0.0
  0
LINE
  5
144B
330
1F
100
AcDbEntity
  8
OBJECT1
100
AcDbLine
 10
7.745184618946449
 20
9.555455468729496
 30
0.0
 11
7.745184159335472
 21
9.574954464910822
 31
0.0
  0
LINE
  5
144C
330
1F
100
AcDbEntity
  8
OBJECT1
100
AcDbLine
 10
7.745184159335472
 20
9.574954464910822
 30
0.0
 11
7.712227063998355
 21
9.574955154327298
 31
0.0
  0
LINE
  5
144D
330
1F
100
AcDbEntity
  8
OBJECT1
100
AcDbLine
 10
7.765486555524448
 20
9.555435705456989
 30
0.0
 11
7.745184618946449
 21
9.555455468729496
 31
0.0
  0
LINE
  5
144E
330
1F
100
AcDbEntity
  8
OBJECT2
100
AcDbLine
 10
7.686667867129944
 20
9.559899447375981
 30
0.0
 11
7.686678897793662
 21
9.549961278974585
 31
0.0
  0
LINE
  5
144F
330
1F
100
AcDbEntity
  8
OBJECT1
100
AcDbLine
 10
7.765487244940928
 20
9.438938338041921
 30
0.0
 11
7.745174967115692
 21
9.431559513429235
 31
0.0
  0
LINE
  5
1450
330
1F
100
AcDbEntity
  8
OBJECT2
100
AcDbLine
 10
7.856941099016538
 20
9.433523201377017
 30
0.0
 11
7.806249913693422
 21
9.453756426112263
 31
0.0
  0
LINE
  5
1451
330
1F
100
AcDbEntity
  8
OBJECT2
100
AcDbLine
 10
7.931059575638538
 20
9.453776648995756
 30
0.0
 11
7.856941099016538
 21
9.433523201377017
 31
0.0
  0
LINE
  5
1452
330
1F
100
AcDbEntity
  8
OBJECT1
100
AcDbLine
 10
7.765487244940928
 20
9.438938338041921
 30
0.0
 11
7.765486555524448
 21
9.555435705456989
 31
0.0
  0
ARC
  5
1453
330
1F
100
AcDbEntity
  8
OBJECT1
100
AcDbCircle
 10
7.677370626251832
 20
9.536450784166138
 30
0.0
 40
0.0067433014724855
100
AcDbArc
 50
271.1378170000002
 51
324.1926269999996
  0
LINE
  5
1454
330
1F
100
AcDbEntity
  8
OBJECT1
100
AcDbLine
 10
7.677504373049448
 20
9.529708750577839
 30
0.0
 11
7.65416670589331
 21
9.529728054239349
 31
0.0
  0
LINE
  5
1455
330
1F
100
AcDbEntity
  8
OBJECT2
100
AcDbLine
 10
7.712197189284117
 20
9.574955154327298
 30
0.0
 11
7.670035005072048
 21
9.574954464910822
 31
0.0
  0
ARC
  5
1456
330
1F
100
AcDbEntity
  8
OBJECT2
100
AcDbCircle
 10
7.680191258887422
 20
9.549983110496533
 30
0.0
 40
0.0064888311340135
100
AcDbArc
 50
269.8277590000004
 51
359.808395
  0
LINE
  5
1457
330
1F
100
AcDbEntity
  8
OBJECT1
100
AcDbLine
 10
7.712227063998355
 20
9.574955154327298
 30
0.0
 11
7.68283976720788
 21
9.532505253636538
 31
0.0
  0
ARC
  5
1458
330
1F
100
AcDbEntity
  8
OBJECT2
100
AcDbCircle
 10
7.680200910718184
 20
9.559958047777001
 30
0.0
 40
0.0064673815269392
100
AcDbArc
 50
359.4796450000003
 51
90.34564200000017
  0
LINE
  5
1459
330
1F
100
AcDbEntity
  8
OBJECT1
100
AcDbLine
 10
8.171739925416083
 20
9.438939027458399
 30
0.0
 11
8.192021639110603
 21
9.431559973040233
 31
0.0
  0
LINE
  5
145A
330
1F
100
AcDbEntity
  8
OBJECT2
100
AcDbLine
 10
8.080265848456996
 20
9.433523890793505
 30
0.0
 11
8.130956574169129
 21
9.453775959579267
 31
0.0
  0
LINE
  5
145B
330
1F
100
AcDbEntity
  8
OBJECT1
100
AcDbLine
 10
8.171739925416083
 20
9.438939027458399
 30
0.0
 11
8.171739465805103
 21
9.555455468729496
 31
0.0
  0
LINE
  5
145C
330
1F
100
AcDbEntity
  8
OBJECT2
100
AcDbLine
 10
8.1920218689161
 20
9.960686433977517
 30
0.0
 11
7.745184618946449
 21
9.960706427055505
 31
0.0
  0
LINE
  5
145D
330
1F
100
AcDbEntity
  8
OBJECT2
100
AcDbLine
 10
8.192041632188599
 20
9.776449530847953
 30
0.0
 11
7.763145297149728
 21
9.776448841431466
 31
0.0
  0
LINE
  5
145E
330
1F
100
AcDbEntity
  8
OBJECT1
100
AcDbLine
 10
7.745184389140952
 20
9.818699730564274
 30
0.0
 11
7.745184618946449
 21
9.960706427055505
 31
0.0
  0
LINE
  5
145F
330
1F
100
AcDbEntity
  8
OBJECT1
100
AcDbLine
 10
8.1920218689161
 20
9.960686433977517
 30
0.0
 11
8.192041632188599
 21
9.776449530847953
 31
0.0
  0
ARC
  5
1460
330
1F
100
AcDbEntity
  8
OBJECT1
100
AcDbCircle
 10
7.557971275056246
 20
10.09661523475862
 30
0.0
 40
0.0064365070925142
100
AcDbArc
 50
89.55512999999982
 51
180.4526140000003
  0
LINE
  5
1461
330
1F
100
AcDbEntity
  8
OBJECT1
100
AcDbLine
 10
7.558021142848483
 20
10.1030504780122
 30
0.0
 11
7.589075218888268
 21
10.1030504780122
 31
0.0
  0
ARC
  5
1462
330
1F
100
AcDbEntity
  8
OBJECT1
100
AcDbCircle
 10
7.589111068545353
 20
10.09658007451802
 30
0.0
 40
0.0064696564852653
100
AcDbArc
 50
359.8602599999999
 51
90.31826800000001
  0
LINE
  5
1463
330
1F
100
AcDbEntity
  8
OBJECT2
100
AcDbLine
 10
8.002617099833365
 20
10.08787596162037
 30
0.0
 11
8.076724086180671
 21
10.06760321034013
 31
0.0
  0
LINE
  5
1464
330
1F
100
AcDbEntity
  8
OBJECT2
100
AcDbLine
 10
8.082159439928719
 20
10.19762667052558
 30
0.0
 11
7.854463335465776
 21
10.19762667052558
 31
0.0
  0
LINE
  5
1465
330
1F
100
AcDbEntity
  8
OBJECT2
100
AcDbLine
 10
8.082159439928719
 20
10.12085981387304
 30
0.0
 11
7.854463335465776
 21
10.12085981387304
 31
0.0
  0
LINE
  5
1466
330
1F
100
AcDbEntity
  8
OBJECT2
100
AcDbLine
 10
8.130728154929238
 20
10.15924308473465
 30
0.0
 11
7.80589493539459
 21
10.15924308473465
 31
0.0
  0
LINE
  5
1467
330
1F
100
AcDbEntity
  8
OBJECT2
100
AcDbLine
 10
8.130728154929238
 20
10.08817298459157
 30
0.0
 11
7.80589493539459
 21
10.08817298459157
 31
0.0
  0
LINE
  5
1468
330
1F
100
AcDbEntity
  8
OBJECT2
100
AcDbLine
 10
8.130657453296404
 20
10.08817332927332
 30
0.0
 11
7.805965637027433
 21
10.0881726399098
 31
0.0
  0
LINE
  5
1469
330
1F
100
AcDbEntity
  8
OBJECT1
100
AcDbLine
 10
7.805965636796091
 20
10.0881726399098
 30
0.0
 11
7.752375462664899
 21
10.06752392744465
 31
0.0
  0
LINE
  5
146A
330
1F
100
AcDbEntity
  8
OBJECT2
100
AcDbLine
 10
7.805965636796091
 20
10.0881726399098
 30
0.0
 11
7.860491364096162
 21
10.06760275072915
 31
0.0
  0
LINE
  5
146B
330
1F
100
AcDbEntity
  8
OBJECT2
100
AcDbLine
 10
7.934589158223671
 20
10.0878750423984
 30
0.0
 11
7.860491364096162
 21
10.06760275072915
 31
0.0
  0
LINE
  5
146C
330
1F
100
AcDbEntity
  8
OBJECT2
100
AcDbLine
 10
8.130657453296404
 20
10.08817332992986
 30
0.0
 11
8.076724086180671
 21
10.06760321034013
 31
0.0
  0
LINE
  5
146D
330
1F
100
AcDbEntity
  8
OBJECT1
100
AcDbLine
 10
8.130657453296404
 20
10.08817332992986
 30
0.0
 11
8.184860210495415
 21
10.06752346783365
 31
0.0
  0
TEXT
  5
146E
330
1F
100
AcDbEntity
  8
TEXT
100
AcDbText
 10
1.748194596976034
 20
15.31784802544985
 30
0.0
 40
0.2361969916573503
  1
HOSE BIBB WITH
  7
ROMANS
100
AcDbText
  0
LINE
  5
146F
330
1F
100
AcDbEntity
  8
OBJECT1
100
AcDbLine
 10
6.284996681908491
 20
14.29676068221389
 30
0.0
 11
6.198706362552329
 21
14.29676068221389
 31
0.0
  0
LINE
  5
1470
330
1F
100
AcDbEntity
  8
OBJECT1
100
AcDbLine
 10
6.198706362552329
 20
13.85585679675628
 30
0.0
 11
6.284996681908491
 21
13.85585679675628
 31
0.0
  0
TEXT
  5
1471
330
1F
100
AcDbEntity
  8
TEXT
100
AcDbText
 10
1.239965615447998
 20
14.47692709370997
 30
0.0
 40
0.2361969916573503
  1
VACCUMM BREAKER
  7
ROMANS
100
AcDbText
  0
TEXT
  5
1472
330
1F
100
AcDbEntity
  8
TEXT
100
AcDbText
 10
0.5334672113096631
 20
14.90146217850873
 30
0.0
 40
0.2361969916573503
  1
WILKINS MODEL BFP-8
  7
ROMANS
100
AcDbText
  0
LINE
  5
1473
330
1F
100
AcDbEntity
  8
OBJECT1
100
AcDbLine
 10
5.808880863863912
 20
14.41091878236307
 30
0.0
 11
5.808880863863912
 21
14.25660404433893
 31
0.0
  0
LINE
  5
1474
330
1F
100
AcDbEntity
  8
OBJECT1
100
AcDbLine
 10
5.423092759086229
 20
14.41091878236307
 30
0.0
 11
5.423092759086229
 21
14.25660404433893
 31
0.0
  0
LINE
  5
1475
330
1F
100
AcDbEntity
  8
OBJECT1
100
AcDbLine
 10
4.775494025368232
 20
13.62297279685523
 30
0.0
 11
4.806253000804998
 21
13.7074823873133
 31
0.0
  0
LINE
  5
1476
330
1F
100
AcDbEntity
  8
OBJECT2
100
AcDbLine
 10
4.804516787570548
 20
13.56720464359142
 30
0.0
 11
4.776833870289667
 21
13.55842976788668
 31
0.0
  0
LINE
  5
1477
330
1F
100
AcDbEntity
  8
OBJECT2
100
AcDbLine
 10
4.780280456791929
 20
13.50061567277406
 30
0.0
 11
4.76471444518307
 21
13.52513292050809
 31
0.0
  0
LINE
  5
1478
330
1F
100
AcDbEntity
  8
OBJECT2
100
AcDbLine
 10
4.780280456791929
 20
13.50061567277406
 30
0.0
 11
4.752596279793753
 21
13.49184079706932
 31
0.0
  0
LINE
  5
1479
330
1F
100
AcDbEntity
  8
OBJECT2
100
AcDbLine
 10
4.792398622181238
 20
13.53390779621282
 30
0.0
 11
4.76471444518307
 21
13.52513292050809
 31
0.0
  0
LINE
  5
147A
330
1F
100
AcDbEntity
  8
OBJECT2
100
AcDbLine
 10
4.76471444518307
 20
13.52513292050809
 30
0.0
 11
5.065092772989482
 21
13.40660202672002
 31
0.0
  0
LINE
  5
147B
330
1F
100
AcDbEntity
  8
OBJECT2
100
AcDbLine
 10
4.754441450692587
 20
13.46297217089032
 30
0.0
 11
5.025079113026793
 21
13.3644679476309
 31
0.0
  0
LINE
  5
147C
330
1F
100
AcDbEntity
  8
OBJECT2
100
AcDbLine
 10
4.752596279793753
 20
13.49184079706932
 30
0.0
 11
5.052974607600173
 21
13.37330990328125
 31
0.0
  0
LINE
  5
147D
330
1F
100
AcDbEntity
  8
OBJECT1
100
AcDbLine
 10
4.775494025368232
 20
13.62297279685523
 30
0.0
 11
5.133019069293702
 21
13.49284432286163
 31
0.0
  0
LINE
  5
147E
330
1F
100
AcDbEntity
  8
OBJECT2
100
AcDbLine
 10
4.792398622181238
 20
13.53390779621282
 30
0.0
 11
4.776833870289667
 21
13.55842976788668
 31
0.0
  0
LINE
  5
147F
330
1F
100
AcDbEntity
  8
OBJECT2
100
AcDbLine
 10
5.077210938378794
 20
13.43989887409862
 30
0.0
 11
4.776833870289667
 21
13.55842976788668
 31
0.0
  0
LINE
  5
1480
330
1F
100
AcDbEntity
  8
OBJECT2
100
AcDbLine
 10
4.768162291402617
 20
13.46732354933529
 30
0.0
 11
4.752596279793753
 21
13.49184079706932
 31
0.0
  0
LINE
  5
1481
330
1F
100
AcDbEntity
  8
OBJECT2
100
AcDbLine
 10
4.754441450692587
 20
13.46297217089032
 30
0.0
 11
4.768162291402617
 21
13.46732354933529
 31
0.0
  0
LINE
  5
1482
330
1F
100
AcDbEntity
  8
OBJECT1
100
AcDbLine
 10
4.826660910650106
 20
13.77367374835989
 30
0.0
 11
4.84795557995454
 21
13.83218037142859
 31
0.0
  0
LINE
  5
1483
330
1F
100
AcDbEntity
  8
OBJECT1
100
AcDbLine
 10
5.205827345512226
 20
13.7019257010813
 30
0.0
 11
4.84795557995454
 21
13.83218037142859
 31
0.0
  0
LINE
  5
1484
330
1F
100
AcDbEntity
  8
OBJECT1
100
AcDbLine
 10
5.231958072264903
 20
13.75455590985946
 30
0.0
 11
4.867927317368025
 21
13.88705226899937
 31
0.0
  0
LINE
  5
1485
330
1F
100
AcDbEntity
  8
OBJECT1
100
AcDbLine
 10
5.253252741569339
 20
13.81306253292815
 30
0.0
 11
4.889221986672451
 21
13.94555889206807
 31
0.0
  0
LINE
  5
1486
330
1F
100
AcDbEntity
  8
OBJECT2
100
AcDbLine
 10
5.089329103768102
 20
13.47319099753739
 30
0.0
 11
4.788951720749654
 21
13.59172189132545
 31
0.0
  0
LINE
  5
1487
330
1F
100
AcDbEntity
  8
OBJECT2
100
AcDbLine
 10
4.810361245932121
 20
13.61037672972655
 30
0.0
 11
5.098151848729816
 21
13.50544038999031
 31
0.0
  0
LINE
  5
1488
330
1F
100
AcDbEntity
  8
OBJECT1
100
AcDbLine
 10
5.133019069293702
 20
13.49284432286163
 30
0.0
 11
5.163778044730468
 21
13.57735391331972
 31
0.0
  0
LINE
  5
1489
330
1F
100
AcDbEntity
  8
OBJECT2
100
AcDbLine
 10
5.098151848729816
 20
13.50544038999031
 30
0.0
 11
5.089802442539388
 21
13.50847977287896
 31
0.0
  0
LINE
  5
148A
330
1F
100
AcDbEntity
  8
OBJECT2
100
AcDbLine
 10
5.025079113026793
 20
13.3644679476309
 30
0.0
 11
5.052974607600173
 21
13.37330990328125
 31
0.0
  0
LINE
  5
148B
330
1F
100
AcDbEntity
  8
OBJECT2
100
AcDbLine
 10
5.065092772989482
 20
13.40660202672002
 30
0.0
 11
5.049526761380619
 21
13.43112399839389
 31
0.0
  0
LINE
  5
148C
330
1F
100
AcDbEntity
  8
OBJECT2
100
AcDbLine
 10
5.065092772989482
 20
13.40660202672002
 30
0.0
 11
5.037408595991307
 21
13.39782715101528
 31
0.0
  0
LINE
  5
148D
330
1F
100
AcDbEntity
  8
OBJECT2
100
AcDbLine
 10
5.052974607600173
 20
13.37330990328125
 30
0.0
 11
5.037408595991307
 21
13.39782715101528
 31
0.0
  0
LINE
  5
148E
330
1F
100
AcDbEntity
  8
OBJECT2
100
AcDbLine
 10
5.077210938378794
 20
13.43989887409862
 30
0.0
 11
5.049526761380619
 21
13.43112399839389
 31
0.0
  0
LINE
  5
148F
330
1F
100
AcDbEntity
  8
OBJECT2
100
AcDbLine
 10
5.077210938378794
 20
13.43989887409862
 30
0.0
 11
5.061646186487221
 21
13.46441612183265
 31
0.0
  0
LINE
  5
1490
330
1F
100
AcDbEntity
  8
OBJECT2
100
AcDbLine
 10
5.089329103768102
 20
13.47319099753739
 30
0.0
 11
5.061646186487221
 21
13.46441612183265
 31
0.0
  0
LINE
  5
1491
330
1F
100
AcDbEntity
  8
OBJECT2
100
AcDbLine
 10
5.089329103768102
 20
13.47319099753739
 30
0.0
 11
5.073764351876533
 21
13.49770824527142
 31
0.0
  0
LINE
  5
1492
330
1F
100
AcDbEntity
  8
OBJECT2
100
AcDbLine
 10
5.098151848729816
 20
13.50544038999031
 30
0.0
 11
5.073764351876533
 21
13.49770824527142
 31
0.0
  0
LINE
  5
1493
330
1F
100
AcDbEntity
  8
OBJECT1
100
AcDbLine
 10
4.848541775918906
 20
13.73258120093239
 30
0.0
 11
5.138999773065645
 21
13.6268631356664
 31
0.0
  0
LINE
  5
1494
330
1F
100
AcDbEntity
  8
OBJECT1
100
AcDbLine
 10
4.859189091077835
 20
13.76183445890936
 30
0.0
 11
5.158163485119262
 21
13.65301667867051
 31
0.0
  0
LINE
  5
1495
330
1F
100
AcDbEntity
  8
OBJECT1
100
AcDbLine
 10
4.806253000804998
 20
13.7074823873133
 30
0.0
 11
5.163778044730468
 21
13.57735391331972
 31
0.0
  0
LINE
  5
1496
330
1F
100
AcDbEntity
  8
OBJECT1
100
AcDbLine
 10
4.859189091077835
 20
13.76183445890936
 30
0.0
 11
4.826660910650106
 21
13.77367374835989
 31
0.0
  0
LINE
  5
1497
330
1F
100
AcDbEntity
  8
OBJECT1
100
AcDbLine
 10
4.848541775918906
 20
13.73258120093239
 30
0.0
 11
4.859189091077835
 21
13.76183445890936
 31
0.0
  0
LINE
  5
1498
330
1F
100
AcDbEntity
  8
OBJECT1
100
AcDbLine
 10
4.806253000804998
 20
13.7074823873133
 30
0.0
 11
4.848541775918906
 21
13.73258120093239
 31
0.0
  0
LINE
  5
1499
330
1F
100
AcDbEntity
  8
OBJECT2
100
AcDbLine
 10
4.804516787570548
 20
13.56720464359142
 30
0.0
 11
4.788951720749654
 21
13.59172189132545
 31
0.0
  0
LINE
  5
149A
330
1F
100
AcDbEntity
  8
OBJECT2
100
AcDbLine
 10
4.816634638030535
 20
13.60049676703018
 30
0.0
 11
4.788951720749654
 21
13.59172189132545
 31
0.0
  0
LINE
  5
149B
330
1F
100
AcDbEntity
  8
OBJECT2
100
AcDbLine
 10
4.810362505649415
 20
13.61037672972655
 30
0.0
 11
4.816634638030535
 21
13.60049676703018
 31
0.0
  0
LINE
  5
149C
330
1F
100
AcDbEntity
  8
OBJECT1
100
AcDbLine
 10
5.147516169960333
 20
13.62376342069353
 30
0.0
 11
5.158163485119262
 21
13.65301667867051
 31
0.0
  0
LINE
  5
149D
330
1F
100
AcDbEntity
  8
OBJECT1
100
AcDbLine
 10
5.158163485119262
 20
13.65301667867051
 30
0.0
 11
5.190691665546992
 21
13.64117738921997
 31
0.0
  0
LINE
  5
149E
330
1F
100
AcDbEntity
  8
OBJECT1
100
AcDbLine
 10
5.190691665546992
 20
13.64117738921997
 30
0.0
 11
5.211986334851427
 21
13.69968401228866
 31
0.0
  0
LINE
  5
149F
330
1F
100
AcDbEntity
  8
OBJECT1
100
AcDbLine
 10
5.211986334851427
 20
13.69968401228866
 30
0.0
 11
5.205827345512226
 21
13.7019257010813
 31
0.0
  0
LINE
  5
14A0
330
1F
100
AcDbEntity
  8
OBJECT1
100
AcDbLine
 10
5.205827345512226
 20
13.7019257010813
 30
0.0
 11
5.2257990829257
 21
13.75679759865208
 31
0.0
  0
LINE
  5
14A1
330
1F
100
AcDbEntity
  8
OBJECT1
100
AcDbLine
 10
5.2257990829257
 20
13.75679759865208
 30
0.0
 11
5.231958072264891
 21
13.75455590985946
 31
0.0
  0
LINE
  5
14A2
330
1F
100
AcDbEntity
  8
OBJECT1
100
AcDbLine
 10
5.163778044730468
 20
13.57735391331972
 30
0.0
 11
5.147516169960333
 21
13.62376342069353
 31
0.0
  0
LINE
  5
14A3
330
1F
100
AcDbEntity
  8
OBJECT1
100
AcDbLine
 10
5.253252741569339
 20
13.81306253292815
 30
0.0
 11
5.231958072264903
 21
13.75455590985946
 31
0.0
  0
ARC
  5
14A4
330
1F
100
AcDbEntity
  8
OBJECT2
100
AcDbCircle
 10
5.615986968939729
 20
14.41091815250443
 30
0.0
 40
0.2439883430888207
100
AcDbArc
 50
228.8672789999998
 51
308.0879209999998
  0
ARC
  5
14A5
330
1F
100
AcDbEntity
  8
OBJECT1
100
AcDbCircle
 10
5.615985709222444
 20
14.22274599290814
 30
0.0
 40
0.362962027503917
100
AcDbArc
 50
226.0103450000001
 51
301.9907530000001
  0
ARC
  5
14A6
330
1F
100
AcDbEntity
  8
OBJECT1
100
AcDbCircle
 10
5.275092983831026
 20
13.92278211208976
 30
0.0
 40
0.3149268027752227
100
AcDbArc
 50
89.99967200000012
 51
160.000427
  0
LINE
  5
14A7
330
1F
100
AcDbEntity
  8
OBJECT1
100
AcDbLine
 10
4.931516910660658
 20
13.93025950403643
 30
0.0
 11
5.210957817581126
 21
13.82836192095979
 31
0.0
  0
ARC
  5
14A8
330
1F
100
AcDbEntity
  8
OBJECT1
100
AcDbCircle
 10
4.93377604864259
 20
13.94266045090764
 30
0.0
 40
0.0126050461214473
100
AcDbArc
 50
259.6753849999999
 51
339.96582
  0
LINE
  5
14A9
330
1F
100
AcDbEntity
  8
OBJECT1
100
AcDbLine
 10
4.874086306707225
 20
13.88481058020675
 30
0.0
 11
4.867927317368025
 21
13.88705226899937
 31
0.0
  0
LINE
  5
14AA
330
1F
100
AcDbEntity
  8
OBJECT1
100
AcDbLine
 10
4.854114569293756
 20
13.82993868263596
 30
0.0
 11
4.874086306707225
 21
13.88481058020675
 31
0.0
  0
LINE
  5
14AB
330
1F
100
AcDbEntity
  8
OBJECT1
100
AcDbLine
 10
4.84795557995454
 20
13.83218037142859
 30
0.0
 11
4.854114569293756
 21
13.82993868263596
 31
0.0
  0
LINE
  5
14AC
330
1F
100
AcDbEntity
  8
OBJECT1
100
AcDbLine
 10
4.889221986672451
 20
13.94555889206807
 30
0.0
 11
4.867927317368016
 21
13.88705226899938
 31
0.0
  0
LINE
  5
14AD
330
1F
100
AcDbEntity
  8
OBJECT1
100
AcDbLine
 10
4.979157993831659
 20
14.03049140450806
 30
0.0
 11
4.945618335945642
 21
13.93834214004149
 31
0.0
  0
ARC
  5
14AE
330
1F
100
AcDbEntity
  8
OBJECT1
100
AcDbCircle
 10
5.215264285844218
 20
13.84019945564397
 30
0.0
 40
0.0125965430297476
100
AcDbArc
 50
159.994949
 51
250.008728
  0
LINE
  5
14AF
330
1F
100
AcDbEntity
  8
OBJECT1
100
AcDbLine
 10
5.235409054868689
 20
13.93237611896156
 30
0.0
 11
5.203427667268961
 21
13.84450863355976
 31
0.0
  0
ARC
  5
14B0
330
1F
100
AcDbEntity
  8
OBJECT1
100
AcDbCircle
 10
5.30921589082178
 20
13.90496120653387
 30
0.0
 40
0.0787335902697389
100
AcDbArc
 50
46.01079199999995
 51
159.998962
  0
LINE
  5
14B1
330
1F
100
AcDbEntity
  8
OBJECT1
100
AcDbLine
 10
5.404196684824322
 20
14.2377092297943
 30
0.0
 11
5.275094873406956
 21
14.2377092297943
 31
0.0
  0
ARC
  5
14B2
330
1F
100
AcDbEntity
  8
OBJECT1
100
AcDbCircle
 10
5.404197944541607
 20
14.25660404433893
 30
0.0
 40
0.0188951294739436
100
AcDbArc
 50
269.9963679999999
 51
0.0
  0
LINE
  5
14B3
330
1F
100
AcDbEntity
  8
OBJECT2
100
AcDbLine
 10
6.178866130182434
 20
13.91389197225309
 30
0.0
 11
6.178866130182434
 21
14.23872550671707
 31
0.0
  0
LINE
  5
14B4
330
1F
100
AcDbEntity
  8
OBJECT2
100
AcDbLine
 10
6.088280489800645
 20
13.96246068725362
 30
0.0
 11
6.088280489800645
 21
14.19015679171656
 31
0.0
  0
LINE
  5
14B5
330
1F
100
AcDbEntity
  8
OBJECT2
100
AcDbLine
 10
6.149133023013961
 20
13.96246068725362
 30
0.0
 11
6.149133023013961
 21
14.19015679171656
 31
0.0
  0
LINE
  5
14B6
330
1F
100
AcDbEntity
  8
OBJECT2
100
AcDbLine
 10
6.118706756407298
 20
13.91389197225309
 30
0.0
 11
6.118706756407298
 21
14.23872550671707
 31
0.0
  0
LINE
  5
14B7
330
1F
100
AcDbEntity
  8
OBJECT2
100
AcDbLine
 10
6.060822746985143
 20
14.2377092297943
 30
0.0
 11
6.060822746985143
 21
13.9149060446706
 31
0.0
  0
LINE
  5
14B8
330
1F
100
AcDbEntity
  8
OBJECT2
100
AcDbLine
 10
6.056440190537273
 20
14.12081439383512
 30
0.0
 11
6.060822746985143
 21
14.08899519483632
 31
0.0
  0
LINE
  5
14B9
330
1F
100
AcDbEntity
  8
OBJECT2
100
AcDbLine
 10
5.954981930235518
 20
14.12081439383512
 30
0.0
 11
5.950599373787643
 21
14.08899519483632
 31
0.0
  0
LINE
  5
14BA
330
1F
100
AcDbEntity
  8
OBJECT1
100
AcDbLine
 10
5.808276514494595
 20
13.9149060446706
 30
0.0
 11
5.950599373787643
 21
13.9149060446706
 31
0.0
  0
ARC
  5
14BB
330
1F
100
AcDbEntity
  8
OBJECT1
100
AcDbCircle
 10
6.198703528188424
 20
13.87569419476226
 30
0.0
 40
0.0198373980059953
100
AcDbArc
 50
179.9878539999998
 51
270.0086670000001
  0
LINE
  5
14BC
330
1F
100
AcDbEntity
  8
OBJECT1
100
AcDbLine
 10
6.178866130182434
 20
13.91389197225309
 30
0.0
 11
6.178866130182434
 21
13.87569860377278
 31
0.0
  0
LINE
  5
14BD
330
1F
100
AcDbEntity
  8
OBJECT1
100
AcDbLine
 10
6.056440190537273
 20
13.88755348824872
 30
0.0
 11
6.060822746985143
 21
13.91389197225309
 31
0.0
  0
LINE
  5
14BE
330
1F
100
AcDbEntity
  8
OBJECT1
100
AcDbLine
 10
6.047726726050369
 20
13.8676660164805
 30
0.0
 11
6.056440190537273
 21
13.88755348824872
 31
0.0
  0
LINE
  5
14BF
330
1F
100
AcDbEntity
  8
OBJECT2
100
AcDbLine
 10
6.060822746985143
 20
13.9149060446706
 30
0.0
 11
6.056440190537273
 21
13.94694884348816
 31
0.0
  0
LINE
  5
14C0
330
1F
100
AcDbEntity
  8
OBJECT2
100
AcDbLine
 10
6.047726726050369
 20
13.98088940640137
 30
0.0
 11
6.052084088152463
 21
13.99786000278728
 31
0.0
  0
LINE
  5
14C1
330
1F
100
AcDbEntity
  8
OBJECT2
100
AcDbLine
 10
5.954981930235518
 20
13.94694884348816
 30
0.0
 11
5.963695394722416
 21
13.98088940640137
 31
0.0
  0
LINE
  5
14C2
330
1F
100
AcDbEntity
  8
OBJECT1
100
AcDbLine
 10
5.954981930235518
 20
13.88755348824872
 30
0.0
 11
5.950599373787643
 21
13.9149060446706
 31
0.0
  0
LINE
  5
14C3
330
1F
100
AcDbEntity
  8
OBJECT1
100
AcDbLine
 10
5.963695394722416
 20
13.8676660164805
 30
0.0
 11
5.954981930235518
 21
13.88755348824872
 31
0.0
  0
LINE
  5
14C4
330
1F
100
AcDbEntity
  8
OBJECT2
100
AcDbLine
 10
5.950599373787643
 20
13.9149060446706
 30
0.0
 11
5.954981930235518
 21
13.94694884348816
 31
0.0
  0
LINE
  5
14C5
330
1F
100
AcDbEntity
  8
OBJECT2
100
AcDbLine
 10
5.963695394722416
 20
13.98088940640137
 30
0.0
 11
5.95933803262033
 21
13.99786000278728
 31
0.0
  0
LINE
  5
14C6
330
1F
100
AcDbEntity
  8
OBJECT1
100
AcDbLine
 10
5.963695394722416
 20
13.8676660164805
 30
0.0
 11
6.047726726050369
 21
13.8676660164805
 31
0.0
  0
LINE
  5
14C7
330
1F
100
AcDbEntity
  8
OBJECT2
100
AcDbLine
 10
5.963695394722416
 20
13.98088940640137
 30
0.0
 11
6.047726726050369
 21
13.98088940640137
 31
0.0
  0
LINE
  5
14C8
330
1F
100
AcDbEntity
  8
OBJECT2
100
AcDbLine
 10
6.052084088152463
 20
13.99786000278728
 30
0.0
 11
6.056440190537273
 21
14.0318008806298
 31
0.0
  0
LINE
  5
14C9
330
1F
100
AcDbEntity
  8
OBJECT2
100
AcDbLine
 10
5.95933803262033
 20
13.99786000278728
 30
0.0
 11
5.954981930235518
 21
14.0318008806298
 31
0.0
  0
LINE
  5
14CA
330
1F
100
AcDbEntity
  8
OBJECT2
100
AcDbLine
 10
6.056440190537273
 20
14.0318008806298
 30
0.0
 11
6.060822746985143
 21
14.06362007962859
 31
0.0
  0
LINE
  5
14CB
330
1F
100
AcDbEntity
  8
OBJECT2
100
AcDbLine
 10
5.954981930235518
 20
14.0318008806298
 30
0.0
 11
5.950599373787643
 21
14.06362007962859
 31
0.0
  0
LINE
  5
14CC
330
1F
100
AcDbEntity
  8
OBJECT2
100
AcDbLine
 10
6.056440190537273
 20
13.94694884348816
 30
0.0
 11
6.047726726050369
 21
13.98088940640137
 31
0.0
  0
LINE
  5
14CD
330
1F
100
AcDbEntity
  8
OBJECT1
100
AcDbLine
 10
6.178866130182434
 20
13.91389197225309
 30
0.0
 11
6.060822746985143
 21
13.91389197225309
 31
0.0
  0
LINE
  5
14CE
330
1F
100
AcDbEntity
  8
OBJECT1
100
AcDbLine
 10
5.950599373787643
 20
14.2377092297943
 30
0.0
 11
5.827776938125822
 21
14.2377092297943
 31
0.0
  0
ARC
  5
14CF
330
1F
100
AcDbEntity
  8
OBJECT1
100
AcDbCircle
 10
5.827775048549897
 20
14.25660404433893
 30
0.0
 40
0.0188951294739436
100
AcDbArc
 50
180.0
 51
270.0054629999997
  0
ARC
  5
14D0
330
1F
100
AcDbEntity
  8
OBJECT1
100
AcDbCircle
 10
6.19871203128013
 20
14.27691478111619
 30
0.0
 40
0.019845901097695
100
AcDbArc
 50
90.01560200000001
 51
179.9878539999998
  0
LINE
  5
14D1
330
1F
100
AcDbEntity
  8
OBJECT1
100
AcDbLine
 10
6.178866130182434
 20
14.23872550671707
 30
0.0
 11
6.178866130182434
 21
14.27691919012671
 31
0.0
  0
LINE
  5
14D2
330
1F
100
AcDbEntity
  8
OBJECT2
100
AcDbLine
 10
6.052084088152463
 20
14.15475527167763
 30
0.0
 11
6.056440190537273
 21
14.12081439383512
 31
0.0
  0
LINE
  5
14D3
330
1F
100
AcDbEntity
  8
OBJECT1
100
AcDbLine
 10
6.056440190537273
 20
14.26506178621618
 30
0.0
 11
6.060822746985143
 21
14.23872550671707
 31
0.0
  0
LINE
  5
14D4
330
1F
100
AcDbEntity
  8
OBJECT1
100
AcDbLine
 10
6.047726726050369
 20
14.28494894305509
 30
0.0
 11
6.056440190537273
 21
14.26506178621618
 31
0.0
  0
LINE
  5
14D5
330
1F
100
AcDbEntity
  8
OBJECT2
100
AcDbLine
 10
6.047726726050369
 20
14.17172555313422
 30
0.0
 11
6.052084088152463
 21
14.15475527167763
 31
0.0
  0
LINE
  5
14D6
330
1F
100
AcDbEntity
  8
OBJECT2
100
AcDbLine
 10
6.056440190537273
 20
14.20566643097675
 30
0.0
 11
6.047726726050369
 21
14.17172555313422
 31
0.0
  0
LINE
  5
14D7
330
1F
100
AcDbEntity
  8
OBJECT2
100
AcDbLine
 10
6.060822746985143
 20
14.2377092297943
 30
0.0
 11
6.056440190537273
 21
14.20566643097675
 31
0.0
  0
LINE
  5
14D8
330
1F
100
AcDbEntity
  8
OBJECT2
100
AcDbLine
 10
5.95933803262033
 20
14.15475527167763
 30
0.0
 11
5.954981930235518
 21
14.12081439383512
 31
0.0
  0
LINE
  5
14D9
330
1F
100
AcDbEntity
  8
OBJECT1
100
AcDbLine
 10
5.954981930235518
 20
14.26506178621618
 30
0.0
 11
5.950599373787643
 21
14.2377092297943
 31
0.0
  0
LINE
  5
14DA
330
1F
100
AcDbEntity
  8
OBJECT1
100
AcDbLine
 10
5.963695394722416
 20
14.28494894305509
 30
0.0
 11
5.954981930235518
 21
14.26506178621618
 31
0.0
  0
LINE
  5
14DB
330
1F
100
AcDbEntity
  8
OBJECT2
100
AcDbLine
 10
5.963695394722416
 20
14.17172555313422
 30
0.0
 11
5.95933803262033
 21
14.15475527167763
 31
0.0
  0
LINE
  5
14DC
330
1F
100
AcDbEntity
  8
OBJECT2
100
AcDbLine
 10
5.954981930235518
 20
14.20566643097675
 30
0.0
 11
5.963695394722416
 21
14.17172555313422
 31
0.0
  0
LINE
  5
14DD
330
1F
100
AcDbEntity
  8
OBJECT2
100
AcDbLine
 10
5.950599373787643
 20
14.2377092297943
 30
0.0
 11
5.954981930235518
 21
14.20566643097675
 31
0.0
  0
LINE
  5
14DE
330
1F
100
AcDbEntity
  8
OBJECT1
100
AcDbLine
 10
6.047726726050369
 20
14.28494894305509
 30
0.0
 11
5.963695394722416
 21
14.28494894305509
 31
0.0
  0
LINE
  5
14DF
330
1F
100
AcDbEntity
  8
OBJECT2
100
AcDbLine
 10
5.963695394722416
 20
14.17172555313422
 30
0.0
 11
6.047726726050369
 21
14.17172555313422
 31
0.0
  0
LINE
  5
14E0
330
1F
100
AcDbEntity
  8
OBJECT1
100
AcDbLine
 10
6.178866130182434
 20
14.23872550671707
 30
0.0
 11
6.060822746985143
 21
14.23872550671707
 31
0.0
  0
ARC
  5
14E1
330
1F
100
AcDbEntity
  8
OBJECT1
100
AcDbCircle
 10
5.295683692775748
 20
14.89313919038938
 30
0.0
 40
0.0576131702050609
100
AcDbArc
 50
79.36313599999991
 51
280.6249080000002
  0
ARC
  5
14E2
330
1F
100
AcDbEntity
  8
OBJECT1
100
AcDbCircle
 10
5.936289930174396
 20
14.89313793067208
 30
0.0
 40
0.0576115955584498
100
AcDbArc
 50
259.3835450000002
 51
100.6284259999998
  0
LINE
  5
14E3
330
1F
100
AcDbEntity
  8
OBJECT1
100
AcDbLine
 10
5.506851676550475
 20
14.68843544588232
 30
0.0
 11
5.48860309697503
 21
14.68186885458492
 31
0.0
  0
ARC
  5
14E4
330
1F
100
AcDbEntity
  8
OBJECT1
100
AcDbCircle
 10
5.480395408979592
 20
14.82107580316404
 30
0.0
 40
0.0314923023623356
100
AcDbArc
 50
23.21136099999864
 51
95.31226299999998
  0
LINE
  5
14E5
330
1F
100
AcDbEntity
  8
OBJECT1
100
AcDbLine
 10
5.516505834922813
 20
14.48047753668888
 30
0.0
 11
5.458202654572787
 21
14.48047753668888
 31
0.0
  0
LINE
  5
14E6
330
1F
100
AcDbEntity
  8
OBJECT2
100
AcDbLine
 10
5.773770968377348
 20
14.41091878236307
 30
0.0
 11
5.458202654572787
 21
14.41091878236307
 31
0.0
  0
LINE
  5
14E7
330
1F
100
AcDbEntity
  8
OBJECT1
100
AcDbLine
 10
5.516505834922813
 20
14.5467156762413
 30
0.0
 11
5.477636943046356
 21
14.5467156762413
 31
0.0
  0
LINE
  5
14E8
330
1F
100
AcDbEntity
  8
OBJECT2
100
AcDbLine
 10
5.423092759086229
 20
14.39088014452019
 30
0.0
 11
5.808880863863912
 21
14.39088014452019
 31
0.0
  0
LINE
  5
14E9
330
1F
100
AcDbEntity
  8
OBJECT1
100
AcDbLine
 10
5.477636943046356
 20
14.66783686370455
 30
0.0
 11
5.477636943046356
 21
14.5467156762413
 31
0.0
  0
LINE
  5
14EA
330
1F
100
AcDbEntity
  8
OBJECT1
100
AcDbLine
 10
5.458202654572787
 20
14.41091878236307
 30
0.0
 11
5.458202654572787
 21
14.48047753668888
 31
0.0
  0
LINE
  5
14EB
330
1F
100
AcDbEntity
  8
OBJECT1
100
AcDbLine
 10
5.458202654572787
 20
14.41091878236307
 30
0.0
 11
5.423092759086229
 21
14.41091878236307
 31
0.0
  0
LINE
  5
14EC
330
1F
100
AcDbEntity
  8
OBJECT1
100
AcDbLine
 10
5.48860309697503
 20
14.68186885458492
 30
0.0
 11
5.477636943046356
 21
14.66783686370455
 31
0.0
  0
LINE
  5
14ED
330
1F
100
AcDbEntity
  8
OBJECT1
100
AcDbLine
 10
5.477477273879996
 20
14.85243300084714
 30
0.0
 11
5.295683692775748
 21
14.83552759483092
 31
0.0
  0
LINE
  5
14EE
330
1F
100
AcDbEntity
  8
OBJECT2
100
AcDbLine
 10
5.692947192196102
 20
14.66783686370455
 30
0.0
 11
5.692947192196102
 21
14.5467156762413
 31
0.0
  0
LINE
  5
14EF
330
1F
100
AcDbEntity
  8
OBJECT1
100
AcDbLine
 10
5.754336679903788
 20
14.66783686370455
 30
0.0
 11
5.754336679903788
 21
14.5467156762413
 31
0.0
  0
LINE
  5
14F0
330
1F
100
AcDbEntity
  8
OBJECT2
100
AcDbLine
 10
5.539026430754033
 20
14.66783686370455
 30
0.0
 11
5.539026430754033
 21
14.5467156762413
 31
0.0
  0
LINE
  5
14F1
330
1F
100
AcDbEntity
  8
OBJECT1
100
AcDbLine
 10
5.71546778802733
 20
14.48047753668888
 30
0.0
 11
5.71546778802733
 21
14.5467156762413
 31
0.0
  0
LINE
  5
14F2
330
1F
100
AcDbEntity
  8
OBJECT1
100
AcDbLine
 10
5.71546778802733
 20
14.4804750172543
 30
0.0
 11
5.773770968377348
 21
14.48047753668888
 31
0.0
  0
LINE
  5
14F3
330
1F
100
AcDbEntity
  8
OBJECT1
100
AcDbLine
 10
5.71546778802733
 20
14.5467156762413
 30
0.0
 11
5.754336679903788
 21
14.5467156762413
 31
0.0
  0
LINE
  5
14F4
330
1F
100
AcDbEntity
  8
OBJECT1
100
AcDbLine
 10
5.516505834922813
 20
14.48047753668888
 30
0.0
 11
5.516505834922813
 21
14.5467156762413
 31
0.0
  0
LINE
  5
14F5
330
1F
100
AcDbEntity
  8
OBJECT2
100
AcDbLine
 10
5.516505834922813
 20
14.48047753668888
 30
0.0
 11
5.71546778802733
 21
14.48047753668888
 31
0.0
  0
LINE
  5
14F6
330
1F
100
AcDbEntity
  8
OBJECT2
100
AcDbLine
 10
5.516505834922813
 20
14.5467156762413
 30
0.0
 11
5.71546778802733
 21
14.5467156762413
 31
0.0
  0
LINE
  5
14F7
330
1F
100
AcDbEntity
  8
OBJECT1
100
AcDbLine
 10
5.773770968377348
 20
14.41091878236307
 30
0.0
 11
5.773770968377348
 21
14.48047753668888
 31
0.0
  0
LINE
  5
14F8
330
1F
100
AcDbEntity
  8
OBJECT1
100
AcDbLine
 10
5.773770968377348
 20
14.41091878236307
 30
0.0
 11
5.808880863863912
 21
14.41091878236307
 31
0.0
  0
LINE
  5
14F9
330
1F
100
AcDbEntity
  8
OBJECT1
100
AcDbLine
 10
5.754497608787437
 20
14.85243300084714
 30
0.0
 11
5.936289930174396
 21
14.83552759483092
 31
0.0
  0
LINE
  5
14FA
330
1F
100
AcDbEntity
  8
OBJECT1
100
AcDbLine
 10
5.671099285397126
 20
14.68843544588232
 30
0.0
 11
5.671099285397126
 21
14.81440748969556
 31
0.0
  0
LINE
  5
14FB
330
1F
100
AcDbEntity
  8
OBJECT1
100
AcDbLine
 10
5.725121946399672
 20
14.68843544588232
 30
0.0
 11
5.671099285397126
 21
14.68843544588232
 31
0.0
  0
LINE
  5
14FC
330
1F
100
AcDbEntity
  8
OBJECT2
100
AcDbLine
 10
5.697269597143439
 20
14.6771905795035
 30
0.0
 11
5.692947192196102
 21
14.66783686370455
 31
0.0
  0
LINE
  5
14FD
330
1F
100
AcDbEntity
  8
OBJECT2
100
AcDbLine
 10
5.660772437992545
 20
14.68467518977514
 30
0.0
 11
5.634839897884496
 21
14.68843544588232
 31
0.0
  0
LINE
  5
14FE
330
1F
100
AcDbEntity
  8
OBJECT2
100
AcDbLine
 10
5.679980922142084
 20
14.67906220446539
 30
0.0
 11
5.660772437992545
 21
14.68467518977514
 31
0.0
  0
LINE
  5
14FF
330
1F
100
AcDbEntity
  8
OBJECT2
100
AcDbLine
 10
5.692947192196102
 20
14.66783686370455
 30
0.0
 11
5.679980922142084
 21
14.67906220446539
 31
0.0
  0
LINE
  5
1500
330
1F
100
AcDbEntity
  8
OBJECT1
100
AcDbLine
 10
5.743370525975123
 20
14.68186885458492
 30
0.0
 11
5.725121946399672
 21
14.68843544588232
 31
0.0
  0
LINE
  5
1501
330
1F
100
AcDbEntity
  8
OBJECT1
100
AcDbLine
 10
5.754336679903788
 20
14.66783686370455
 30
0.0
 11
5.743370525975123
 21
14.68186885458492
 31
0.0
  0
LINE
  5
1502
330
1F
100
AcDbEntity
  8
OBJECT2
100
AcDbLine
 10
5.705913462250132
 20
14.68467518977514
 30
0.0
 11
5.697269597143439
 21
14.6771905795035
 31
0.0
  0
LINE
  5
1503
330
1F
100
AcDbEntity
  8
OBJECT2
100
AcDbLine
 10
5.725121946399672
 20
14.68843544588232
 30
0.0
 11
5.705913462250132
 21
14.68467518977514
 31
0.0
  0
ARC
  5
1504
330
1F
100
AcDbEntity
  8
OBJECT1
100
AcDbCircle
 10
5.693690740325841
 20
14.84590231149248
 30
0.0
 40
0.0314948217969133
100
AcDbArc
 50
270.0021969999998
 51
337.0077510000009
  0
LINE
  5
1505
330
1F
100
AcDbEntity
  8
OBJECT1
100
AcDbLine
 10
5.671099285397126
 20
14.81440748969556
 30
0.0
 11
5.693692000043139
 21
14.81440748969556
 31
0.0
  0
ARC
  5
1506
330
1F
100
AcDbEntity
  8
OBJECT1
100
AcDbCircle
 10
5.751577584111904
 20
14.82107643302268
 30
0.0
 40
0.031491357574369
100
AcDbArc
 50
84.68654599999984
 51
156.7892150000013
  0
LINE
  5
1507
330
1F
100
AcDbEntity
  8
OBJECT1
100
AcDbLine
 10
5.560874337553018
 20
14.81440748969556
 30
0.0
 11
5.560874337553018
 21
14.68843544588232
 31
0.0
  0
LINE
  5
1508
330
1F
100
AcDbEntity
  8
OBJECT1
100
AcDbLine
 10
5.506851676550475
 20
14.68843544588232
 30
0.0
 11
5.560874337553018
 21
14.68843544588232
 31
0.0
  0
LINE
  5
1509
330
1F
100
AcDbEntity
  8
OBJECT2
100
AcDbLine
 10
5.571201184957603
 20
14.68467518977514
 30
0.0
 11
5.597134039994969
 21
14.68843544588232
 31
0.0
  0
LINE
  5
150A
330
1F
100
AcDbEntity
  8
OBJECT2
100
AcDbLine
 10
5.551992700808062
 20
14.67906220446539
 30
0.0
 11
5.571201184957603
 21
14.68467518977514
 31
0.0
  0
LINE
  5
150B
330
1F
100
AcDbEntity
  8
OBJECT2
100
AcDbLine
 10
5.539026430754033
 20
14.66783686370455
 30
0.0
 11
5.551992700808062
 21
14.67906220446539
 31
0.0
  0
LINE
  5
150C
330
1F
100
AcDbEntity
  8
OBJECT2
100
AcDbLine
 10
5.534704025806705
 20
14.6771905795035
 30
0.0
 11
5.539026430754033
 21
14.66783686370455
 31
0.0
  0
LINE
  5
150D
330
1F
100
AcDbEntity
  8
OBJECT2
100
AcDbLine
 10
5.526060160700014
 20
14.68467518977514
 30
0.0
 11
5.534704025806705
 21
14.6771905795035
 31
0.0
  0
LINE
  5
150E
330
1F
100
AcDbEntity
  8
OBJECT2
100
AcDbLine
 10
5.506851676550475
 20
14.68843544588232
 30
0.0
 11
5.526060160700014
 21
14.68467518977514
 31
0.0
  0
LINE
  5
150F
330
1F
100
AcDbEntity
  8
OBJECT1
100
AcDbLine
 10
5.560874337553018
 20
14.81440748969556
 30
0.0
 11
5.538281622907009
 21
14.81440748969556
 31
0.0
  0
ARC
  5
1510
330
1F
100
AcDbEntity
  8
OBJECT1
100
AcDbCircle
 10
5.538283512482946
 20
14.84590231149248
 30
0.0
 40
0.0314948217969133
100
AcDbArc
 50
202.991820999999
 51
269.9967349999997
  0
LINE
  5
1511
330
1F
100
AcDbEntity
  8
OBJECT2
100
AcDbLine
 10
5.671099285397126
 20
14.68843544588232
 30
0.0
 11
5.560874337553018
 21
14.68843544588232
 31
0.0
  0
LINE
  5
1512
330
1F
100
AcDbEntity
  8
OBJECT2
100
AcDbLine
 10
5.671099285397126
 20
14.81440748969556
 30
0.0
 11
5.560874337553018
 21
14.81440748969556
 31
0.0
  0
ARC
  5
1513
330
1F
100
AcDbEntity
  8
OBJECT1
100
AcDbCircle
 10
5.480390055181118
 20
14.96521076577708
 30
0.0
 40
0.0315008054540353
100
AcDbArc
 50
264.699036
 51
336.7774660000013
  0
LINE
  5
1514
330
1F
100
AcDbEntity
  8
OBJECT1
100
AcDbLine
 10
5.477641666986194
 20
14.93382994839481
 30
0.0
 11
5.295683692775748
 21
14.95075236059443
 31
0.0
  0
LINE
  5
1515
330
1F
100
AcDbEntity
  8
OBJECT1
100
AcDbLine
 10
5.754496349070148
 20
14.93384443514363
 30
0.0
 11
5.936289930174396
 21
14.95075236059443
 31
0.0
  0
ARC
  5
1516
330
1F
100
AcDbEntity
  8
OBJECT1
100
AcDbCircle
 10
5.693690740325841
 20
14.9403779588622
 30
0.0
 40
0.0314941919382689
100
AcDbArc
 50
22.99124699999896
 51
89.99781799999995
  0
LINE
  5
1517
330
1F
100
AcDbEntity
  8
OBJECT1
100
AcDbLine
 10
5.680815799775267
 20
14.97187215080047
 30
0.0
 11
5.693692000043139
 21
14.97187215080047
 31
0.0
  0
ARC
  5
1518
330
1F
100
AcDbEntity
  8
OBJECT1
100
AcDbCircle
 10
5.751583882698351
 20
14.96521076577708
 30
0.0
 40
0.0315008054540353
100
AcDbArc
 50
203.2225489999987
 51
275.3009639999999
  0
LINE
  5
1519
330
1F
100
AcDbEntity
  8
OBJECT1
100
AcDbLine
 10
5.551160342609456
 20
14.97187215080047
 30
0.0
 11
5.538281622907009
 21
14.97187215080047
 31
0.0
  0
ARC
  5
151A
330
1F
100
AcDbEntity
  8
OBJECT1
100
AcDbCircle
 10
5.538283512482946
 20
14.94037732900355
 30
0.0
 40
0.0314948217969133
100
AcDbArc
 50
90.00327300000002
 51
157.0081790000009
  0
ARC
  5
151B
330
1F
100
AcDbEntity
  8
OBJECT1
100
AcDbCircle
 10
5.615987913727703
 20
14.92575075156284
 30
0.0
 40
0.0795602797405397
100
AcDbArc
 50
35.42976400000014
 51
144.5721439999997
  0
LINE
  5
151C
330
1F
100
AcDbEntity
  8
OBJECT2
100
AcDbLine
 10
5.680815799775267
 20
14.97187215080047
 30
0.0
 11
5.551159082892162
 21
14.97186994629521
 31
0.0
  0
LINE
  5
151D
330
1F
100
AcDbEntity
  8
OBJECT1
100
AcDbLine
 10
7.805296254753066
 20
13.63045274790037
 30
0.0
 11
7.805296254753066
 21
12.70707795005988
 31
0.0
  0
LINE
  5
151E
330
1F
100
AcDbEntity
  8
OBJECT1
100
AcDbLine
 10
8.130129474287723
 20
13.63045274790037
 30
0.0
 11
8.130129474287723
 21
12.70707795005988
 31
0.0
  0
TEXT
  5
151F
330
1F
100
AcDbEntity
  8
TEXT
100
AcDbText
 10
9.9362695816204
 20
12.10448773446369
 30
0.0
 40
0.2361969916573503
  1
WILKINS MODEL DUSPC
  7
ROMANS
 72
     2
 11
14.06409319772742
 21
12.22258623029237
 31
0.0
100
AcDbText
 73
     2
  0
LINE
  5
1525
330
1F
100
AcDbEntity
  8
TEXT
100
AcDbLine
 10
8.314070866182184
 20
12.0411179593126
 30
0.0
 11
8.562302971387765
 21
12.21804050306376
 31
0.0
  0
LINE
  5
1579
330
1F
100
AcDbEntity
  8
OBJECT1
100
AcDbLine
 10
8.185842335453736
 20
11.54362064423922
 30
0.0
 11
8.185842335453735
 21
12.35583055506727
 31
0.0
  0
LINE
  5
157D
330
1F
100
AcDbEntity
  8
OBJECT1
100
AcDbLine
 10
8.176506115143162
 20
11.21843966317997
 30
0.0
 11
8.176506115143162
 21
11.35114016837501
 31
0.0
  0
LINE
  5
157E
330
1F
100
AcDbEntity
  8
OBJECT1
100
AcDbLine
 10
7.759664106815334
 20
11.21843966317997
 30
0.0
 11
7.759664106815334
 21
11.35114016837501
 31
0.0
  0
LINE
  5
157F
330
1F
100
AcDbEntity
  8
OBJECT2
100
AcDbLine
 10
8.081884506630434
 20
11.10271841423284
 30
0.0
 11
7.854188402167494
 21
11.10271841423284
 31
0.0
  0
LINE
  5
1580
330
1F
100
AcDbEntity
  8
OBJECT2
100
AcDbLine
 10
8.130453221630951
 20
11.14110200002376
 30
0.0
 11
7.805620002096304
 21
11.14110200002376
 31
0.0
  0
LINE
  5
1581
330
1F
100
AcDbEntity
  8
OBJECT2
100
AcDbLine
 10
8.081884506630434
 20
11.17948527088537
 30
0.0
 11
7.854188402167494
 21
11.17948527088537
 31
0.0
  0
LWPOLYLINE
  5
1582
330
1F
100
AcDbEntity
  8
OBJECT2
100
AcDbPolyline
 90
        2
 70
     0
 43
0.0
 10
8.130501720746567
 20
11.21217682410669
 10
7.805668501211917
 20
11.21217682410669
  0
LWPOLYLINE
  5
1583
330
1F
100
AcDbEntity
  8
OBJECT1
100
AcDbPolyline
 90
        2
 70
     0
 43
0.0
 10
7.765665994260563
 20
11.21217682410669
 10
7.759664106815337
 20
11.21843966317997
  0
LWPOLYLINE
  5
1584
330
1F
100
AcDbEntity
  8
OBJECT1
100
AcDbPolyline
 90
        2
 70
     0
 43
0.0
 10
7.805668501211917
 20
11.21217682410669
 10
7.765665994260563
 20
11.21217682410669
  0
LWPOLYLINE
  5
1585
330
1F
100
AcDbEntity
  8
OBJECT1
100
AcDbPolyline
 90
        2
 70
     0
 43
0.0
 10
8.17650611514316
 20
11.21843966317997
 10
8.17050422769793
 20
11.21217682410669
  0
LWPOLYLINE
  5
1586
330
1F
100
AcDbEntity
  8
OBJECT1
100
AcDbPolyline
 90
        2
 70
     0
 43
0.0
 10
8.17050422769793
 20
11.21217682410669
 10
8.130501720746567
 20
11.21217682410669
  0
LWPOLYLINE
  5
1587
330
1F
100
AcDbEntity
  8
OBJECT2
100
AcDbPolyline
 90
        2
 70
     0
 43
0.0
 10
7.751184735952838
 20
11.4912711926398
 10
8.205179793884886
 20
11.4912711926398
  0
LINE
  5
1588
330
1F
100
AcDbEntity
  8
OBJECT2
100
AcDbLine
 10
7.751772305100516
 20
11.49128581820332
 30
0.0
 11
8.185312103525291
 21
11.50309566778618
 31
0.0
  0
LINE
  5
1589
330
1F
100
AcDbEntity
  8
OBJECT2
100
AcDbLine
 10
8.205767363032563
 20
11.51490551736905
 30
0.0
 11
7.731317045593243
 21
11.50309566778618
 31
0.0
  0
LINE
  5
158A
330
1F
100
AcDbEntity
  8
OBJECT2
100
AcDbLine
 10
7.751772305100516
 20
11.51490551736905
 30
0.0
 11
8.185312103525291
 21
11.52671536695191
 31
0.0
  0
LWPOLYLINE
  5
158B
330
1F
100
AcDbEntity
  8
OBJECT2
100
AcDbPolyline
 90
        2
 70
     0
 43
0.0
 10
8.17650611514316
 20
11.35114016837501
 10
7.759664106815337
 20
11.35114016837501
  0
LWPOLYLINE
  5
158D
330
1F
100
AcDbEntity
  8
OBJECT2
100
AcDbPolyline
 90
        2
 70
     0
 43
0.0
 10
7.850655777171185
 20
11.48344264379819
 10
7.795594983651872
 20
11.4912711926398
  0
LWPOLYLINE
  5
158E
330
1F
100
AcDbEntity
  8
OBJECT1
100
AcDbPolyline
 90
        2
 70
     0
 43
0.0
 10
7.707373673061107
 20
11.4912711926398
 10
7.751184735952838
 20
11.4912711926398
  0
LWPOLYLINE
  5
158F
330
1F
100
AcDbEntity
  8
OBJECT1
100
AcDbPolyline
 90
        2
 70
     0
 43
0.0
 10
7.677625187462991
 20
11.48344264379819
 10
7.707373673061107
 20
11.4912711926398
  0
ARC
  5
1590
330
1F
100
AcDbEntity
  8
OBJECT1
100
AcDbCircle
 10
7.732346313839489
 20
11.54362064423922
 30
0.0
 40
0.018895759332588
100
AcDbArc
 50
315.0000000000002
 51
0.0
  0
LINE
  5
1591
330
1F
100
AcDbEntity
  8
OBJECT1
100
AcDbLine
 10
7.745707633399227
 20
11.53025932467948
 30
0.0
 11
7.738193533517513
 21
11.52274522479775
 31
0.0
  0
LINE
  5
1592
330
1F
100
AcDbEntity
  8
OBJECT1
100
AcDbLine
 10
7.731317045593243
 20
11.50309566778618
 30
0.0
 11
7.751772305100516
 21
11.51490551736905
 31
0.0
  0
LINE
  5
1593
330
1F
100
AcDbEntity
  8
OBJECT1
100
AcDbLine
 10
7.751772305100516
 20
11.49128581820332
 30
0.0
 11
7.731317045593243
 21
11.50309566778618
 31
0.0
  0
LINE
  5
1594
330
1F
100
AcDbEntity
  8
OBJECT1
100
AcDbLine
 10
7.751772305100516
 20
11.51490551736905
 30
0.0
 11
7.738193533517513
 21
11.52274522479775
 31
0.0
  0
LINE
  5
1595
330
1F
100
AcDbEntity
  8
OBJECT1
100
AcDbLine
 10
7.75124427553994
 20
11.54362064423922
 30
0.0
 11
7.751194601332276
 21
12.38421214451134
 31
0.0
  0
LWPOLYLINE
  5
1596
330
1F
100
AcDbEntity
  8
OBJECT2
100
AcDbPolyline
 90
        2
 70
     0
 43
0.0
 10
7.850655777171185
 20
11.35896871721662
 10
7.926592700934792
 20
11.35114016837501
  0
LWPOLYLINE
  5
1597
330
1F
100
AcDbEntity
  8
OBJECT2
100
AcDbPolyline
 90
        2
 70
     0
 43
0.0
 10
7.850655777171185
 20
11.35896871721662
 10
7.795594983651872
 20
11.35114016837501
  0
LWPOLYLINE
  5
1598
330
1F
100
AcDbEntity
  8
OBJECT1
100
AcDbPolyline
 90
        2
 70
     0
 43
0.0
 10
7.677625187462991
 20
11.35896871721662
 10
7.707373673061107
 20
11.35114016837501
  0
LWPOLYLINE
  5
1599
330
1F
100
AcDbEntity
  8
OBJECT1
100
AcDbPolyline
 90
        2
 70
     0
 43
0.0
 10
7.759664106815337
 20
11.35114016837501
 10
7.707373673061107
 20
11.35114016837501
  0
LWPOLYLINE
  5
159A
330
1F
100
AcDbEntity
  8
OBJECT1
100
AcDbPolyline
 90
        2
 70
     0
 43
0.0
 10
7.677625187462991
 20
11.48344264379819
 10
7.677625187462991
 20
11.35896871721662
  0
LWPOLYLINE
  5
159B
330
1F
100
AcDbEntity
  8
OBJECT2
100
AcDbPolyline
 90
        2
 70
     0
 43
0.0
 10
7.850655777171185
 20
11.48344264379819
 10
7.850655777171185
 20
11.35896871721662
  0
LWPOLYLINE
  5
159C
330
1F
100
AcDbEntity
  8
OBJECT2
100
AcDbPolyline
 90
        2
 70
     0
 43
0.0
 10
7.850655777171185
 20
11.48344264379819
 10
7.926592700934792
 20
11.4912711926398
  0
ARC
  5
159E
330
1F
100
AcDbEntity
  8
OBJECT1
100
AcDbCircle
 10
8.204738094786318
 20
11.54362064423922
 30
0.0
 40
0.018895759332588
100
AcDbArc
 50
179.9999999999996
 51
225.1156204213966
  0
LWPOLYLINE
  5
159F
330
1F
100
AcDbEntity
  8
OBJECT1
100
AcDbPolyline
 90
        2
 70
     0
 43
0.0
 10
8.205179793884886
 20
11.4912711926398
 10
8.226769671214009
 20
11.4912711926398
  0
LINE
  5
15A0
330
1F
100
AcDbEntity
  8
OBJECT1
100
AcDbLine
 10
8.191403764981721
 20
11.5302323893336
 30
0.0
 11
8.185312103525291
 21
11.52671536695191
 31
0.0
  0
LINE
  5
15A1
330
1F
100
AcDbEntity
  8
OBJECT1
100
AcDbLine
 10
8.205767363032563
 20
11.49128581820332
 30
0.0
 11
8.185312103525291
 21
11.50309566778618
 31
0.0
  0
LINE
  5
15A2
330
1F
100
AcDbEntity
  8
OBJECT1
100
AcDbLine
 10
8.185312103525291
 20
11.50309566778618
 30
0.0
 11
8.205767363032563
 21
11.51490551736905
 31
0.0
  0
LINE
  5
15A3
330
1F
100
AcDbEntity
  8
OBJECT1
100
AcDbLine
 10
8.205767363032563
 20
11.51490551736905
 30
0.0
 11
8.185312103525291
 21
11.52671536695191
 31
0.0
  0
LWPOLYLINE
  5
15A4
330
1F
100
AcDbEntity
  8
OBJECT1
100
AcDbPolyline
 90
        2
 70
     0
 43
0.0
 10
8.256518156812122
 20
11.48344264379819
 10
8.226769671214009
 20
11.4912711926398
  0
LWPOLYLINE
  5
15A5
330
1F
100
AcDbEntity
  8
OBJECT2
100
AcDbPolyline
 90
        2
 70
     0
 43
0.0
 10
8.085251290791385
 20
11.48344264379819
 10
8.009053415399732
 20
11.4912711926398
  0
LWPOLYLINE
  5
15A6
330
1F
100
AcDbEntity
  8
OBJECT2
100
AcDbPolyline
 90
        2
 70
     0
 43
0.0
 10
8.085251290791385
 20
11.48344264379819
 10
8.140312084310698
 20
11.4912711926398
  0
LWPOLYLINE
  5
15A7
330
1F
100
AcDbEntity
  8
OBJECT1
100
AcDbPolyline
 90
        2
 70
     0
 43
0.0
 10
8.226769671214009
 20
11.35114016837501
 10
8.17650611514316
 20
11.35114016837501
  0
LWPOLYLINE
  5
15A8
330
1F
100
AcDbEntity
  8
OBJECT1
100
AcDbPolyline
 90
        2
 70
     0
 43
0.0
 10
8.256518156812122
 20
11.35896871721662
 10
8.226769671214009
 20
11.35114016837501
  0
LWPOLYLINE
  5
15A9
330
1F
100
AcDbEntity
  8
OBJECT2
100
AcDbPolyline
 90
        2
 70
     0
 43
0.0
 10
8.085251290791385
 20
11.35896871721662
 10
8.009053415399732
 20
11.35114016837501
  0
LWPOLYLINE
  5
15AA
330
1F
100
AcDbEntity
  8
OBJECT2
100
AcDbPolyline
 90
        2
 70
     0
 43
0.0
 10
8.085251290791385
 20
11.35896871721662
 10
8.140312084310698
 20
11.35114016837501
  0
LWPOLYLINE
  5
15AB
330
1F
100
AcDbEntity
  8
OBJECT2
100
AcDbPolyline
 90
        2
 70
     0
 43
0.0
 10
8.085251290791385
 20
11.48344264379819
 10
8.085251290791385
 20
11.35896871721662
  0
LWPOLYLINE
  5
15AC
330
1F
100
AcDbEntity
  8
OBJECT1
100
AcDbPolyline
 90
        2
 70
     0
 43
0.0
 10
8.256518156812122
 20
11.48344264379819
 10
8.256518156812122
 20
11.35896871721662
  0
SOLID
  5
15AD
330
1F
100
AcDbEntity
  8
TEXT
100
AcDbTrace
 10
8.298838806238961
 20
12.06248938110068
 30
0.0
 11
8.329302926125411
 21
12.01974653752452
 31
0.0
 12
8.185842335453735
 22
11.94972559965324
 32
0.0
 13
8.185842335453735
 23
11.94972559965324
 33
0.0
  0
LWPOLYLINE
  5
15DF
330
1F
100
AcDbEntity
  8
OBJECT2
100
AcDbPolyline
 90
        2
 70
     0
 43
0.0
 10
7.850655777171185
 20
12.54048248208988
 10
7.850655777171185
 20
12.41600855550831
  0
LWPOLYLINE
  5
15E0
330
1F
100
AcDbEntity
  8
OBJECT1
100
AcDbPolyline
 90
        2
 70
     0
 43
0.0
 10
7.677625187462991
 20
12.54048248208988
 10
7.677625187462991
 20
12.41600855550831
  0
LWPOLYLINE
  5
15E1
330
1F
100
AcDbEntity
  8
OBJECT2
100
AcDbPolyline
 90
        2
 70
     0
 43
0.0
 10
8.085251290791385
 20
12.54048248208988
 10
8.085251290791385
 20
12.41600855550831
  0
LWPOLYLINE
  5
15E2
330
1F
100
AcDbEntity
  8
OBJECT1
100
AcDbPolyline
 90
        2
 70
     0
 43
0.0
 10
8.256518156812122
 20
12.54048248208988
 10
8.256518156812122
 20
12.41600855550831
  0
LWPOLYLINE
  5
15E3
330
1F
100
AcDbEntity
  8
OBJECT2
100
AcDbPolyline
 90
        2
 70
     0
 43
0.0
 10
8.205179793884886
 20
12.4081800066667
 10
7.751772305100514
 20
12.4081800066667
  0
LINE
  5
15E4
330
1F
100
AcDbEntity
  8
OBJECT2
100
AcDbLine
 10
7.751772305100516
 20
12.40816538110318
 30
0.0
 11
8.185312103525291
 21
12.39635553152032
 31
0.0
  0
LINE
  5
15E5
330
1F
100
AcDbEntity
  8
OBJECT2
100
AcDbLine
 10
8.205767363032563
 20
12.38454568193745
 30
0.0
 11
7.731317045593243
 21
12.39635553152032
 31
0.0
  0
LINE
  5
15E6
330
1F
100
AcDbEntity
  8
OBJECT2
100
AcDbLine
 10
7.751772305100516
 20
12.38454568193745
 30
0.0
 11
8.185312103525291
 21
12.37273583235458
 31
0.0
  0
LWPOLYLINE
  5
15E9
330
1F
100
AcDbEntity
  8
OBJECT2
100
AcDbPolyline
 90
        2
 70
     0
 43
0.0
 10
7.850655777171185
 20
12.41600855550831
 10
7.926592700934792
 20
12.4081800066667
  0
LWPOLYLINE
  5
15EA
330
1F
100
AcDbEntity
  8
OBJECT2
100
AcDbPolyline
 90
        2
 70
     0
 43
0.0
 10
7.850655777171185
 20
12.41600855550831
 10
7.795594983651872
 20
12.4081800066667
  0
LWPOLYLINE
  5
15EB
330
1F
100
AcDbEntity
  8
OBJECT1
100
AcDbPolyline
 90
        2
 70
     0
 43
0.0
 10
7.751772305100514
 20
12.4081800066667
 10
7.707373673061107
 20
12.4081800066667
  0
LWPOLYLINE
  5
15EE
330
1F
100
AcDbEntity
  8
OBJECT1
100
AcDbPolyline
 90
        2
 70
     0
 43
0.0
 10
7.677625187462991
 20
12.41600855550831
 10
7.707373673061107
 20
12.4081800066667
  0
LINE
  5
15F0
330
1F
100
AcDbEntity
  8
OBJECT1
100
AcDbLine
 10
7.731317045593243
 20
12.39635553152032
 30
0.0
 11
7.751772305100516
 21
12.38454568193745
 31
0.0
  0
LINE
  5
15F1
330
1F
100
AcDbEntity
  8
OBJECT1
100
AcDbLine
 10
7.751772305100516
 20
12.40816538110318
 30
0.0
 11
7.731317045593243
 21
12.39635553152032
 31
0.0
  0
LINE
  5
15F2
330
1F
100
AcDbEntity
  8
OBJECT2
100
AcDbLine
 10
7.751772305100516
 20
12.38454568193745
 30
0.0
 11
7.738193533517513
 21
12.37670597450874
 31
0.0
  0
LWPOLYLINE
  5
15FF
330
1F
100
AcDbEntity
  8
OBJECT2
100
AcDbPolyline
 90
        2
 70
     0
 43
0.0
 10
8.085251290791385
 20
12.41600855550831
 10
8.009053415399732
 20
12.4081800066667
  0
LWPOLYLINE
  5
1600
330
1F
100
AcDbEntity
  8
OBJECT2
100
AcDbPolyline
 90
        2
 70
     0
 43
0.0
 10
8.085251290791385
 20
12.41600855550831
 10
8.140312084310698
 20
12.4081800066667
  0
LWPOLYLINE
  5
1601
330
1F
100
AcDbEntity
  8
OBJECT1
100
AcDbPolyline
 90
        2
 70
     0
 43
0.0
 10
8.226769671214009
 20
12.4081800066667
 10
8.205179793884886
 20
12.4081800066667
  0
LWPOLYLINE
  5
1602
330
1F
100
AcDbEntity
  8
OBJECT1
100
AcDbPolyline
 90
        2
 70
     0
 43
0.0
 10
8.256518156812122
 20
12.41600855550831
 10
8.226769671214009
 20
12.4081800066667
  0
LINE
  5
1603
330
1F
100
AcDbEntity
  8
OBJECT1
100
AcDbLine
 10
8.185312103525291
 20
12.39635553152032
 30
0.0
 11
8.205767363032563
 21
12.38454568193745
 31
0.0
  0
LINE
  5
1604
330
1F
100
AcDbEntity
  8
OBJECT1
100
AcDbLine
 10
8.205767363032563
 20
12.40816538110318
 30
0.0
 11
8.185312103525291
 21
12.39635553152032
 31
0.0
  0
LINE
  5
1605
330
1F
100
AcDbEntity
  8
OBJECT1
100
AcDbLine
 10
8.205767363032563
 20
12.38454568193745
 30
0.0
 11
8.185312103525291
 21
12.37273583235458
 31
0.0
  0
LINE
  5
1606
330
1F
100
AcDbEntity
  8
OBJECT1
100
AcDbLine
 10
8.191403764981721
 20
12.3692188099729
 30
0.0
 11
8.185312103525291
 21
12.37273583235458
 31
0.0
  0
ARC
  5
1607
330
1F
100
AcDbEntity
  8
OBJECT1
100
AcDbCircle
 10
8.204738094786318
 20
12.35583055506727
 30
0.0
 40
0.018895759332588
100
AcDbArc
 50
134.8843795786034
 51
180.0
  0
LWPOLYLINE
  5
1608
330
1F
100
AcDbEntity
  8
OBJECT2
100
AcDbPolyline
 90
        2
 70
     0
 43
0.0
 10
8.130501720746567
 20
12.70707795005989
 10
7.805668501211917
 20
12.70707795005989
  0
LWPOLYLINE
  5
1609
330
1F
100
AcDbEntity
  8
OBJECT2
100
AcDbPolyline
 90
        2
 70
     0
 43
0.0
 10
7.759664106815337
 20
12.54831103093149
 10
8.17650611514316
 20
12.54831103093149
  0
LWPOLYLINE
  5
160A
330
1F
100
AcDbEntity
  8
OBJECT2
100
AcDbPolyline
 90
        2
 70
     0
 43
0.0
 10
7.850655777171185
 20
12.54048248208988
 10
7.926592700934792
 20
12.54831103093149
  0
LWPOLYLINE
  5
160B
330
1F
100
AcDbEntity
  8
OBJECT2
100
AcDbPolyline
 90
        2
 70
     0
 43
0.0
 10
7.850655777171185
 20
12.54048248208988
 10
7.795594983651872
 20
12.54831103093149
  0
LWPOLYLINE
  5
160C
330
1F
100
AcDbEntity
  8
OBJECT1
100
AcDbPolyline
 90
        2
 70
     0
 43
0.0
 10
7.707373673061107
 20
12.54831103093149
 10
7.759664106815337
 20
12.54831103093149
  0
LWPOLYLINE
  5
160D
330
1F
100
AcDbEntity
  8
OBJECT1
100
AcDbPolyline
 90
        2
 70
     0
 43
0.0
 10
7.677625187462991
 20
12.54048248208988
 10
7.707373673061107
 20
12.54831103093149
  0
LINE
  5
160E
330
1F
100
AcDbEntity
  8
OBJECT1
100
AcDbLine
 10
7.759664106815334
 20
12.7008151109866
 30
0.0
 11
7.759664106815334
 21
12.54831103093149
 31
0.0
  0
LWPOLYLINE
  5
160F
330
1F
100
AcDbEntity
  8
OBJECT1
100
AcDbPolyline
 90
        2
 70
     0
 43
0.0
 10
7.765665994260563
 20
12.70707795005989
 10
7.759664106815337
 20
12.7008151109866
  0
LWPOLYLINE
  5
1610
330
1F
100
AcDbEntity
  8
OBJECT1
100
AcDbPolyline
 90
        2
 70
     0
 43
0.0
 10
7.805668501211917
 20
12.70707795005989
 10
7.765665994260563
 20
12.70707795005989
  0
LWPOLYLINE
  5
1611
330
1F
100
AcDbEntity
  8
OBJECT2
100
AcDbPolyline
 90
        2
 70
     0
 43
0.0
 10
8.085251290791385
 20
12.54048248208988
 10
8.009053415399732
 20
12.54831103093149
  0
LWPOLYLINE
  5
1612
330
1F
100
AcDbEntity
  8
OBJECT2
100
AcDbPolyline
 90
        2
 70
     0
 43
0.0
 10
8.085251290791385
 20
12.54048248208988
 10
8.140312084310698
 20
12.54831103093149
  0
LWPOLYLINE
  5
1613
330
1F
100
AcDbEntity
  8
OBJECT1
100
AcDbPolyline
 90
        2
 70
     0
 43
0.0
 10
8.17050422769793
 20
12.70707795005989
 10
8.130501720746567
 20
12.70707795005989
  0
LWPOLYLINE
  5
1614
330
1F
100
AcDbEntity
  8
OBJECT1
100
AcDbPolyline
 90
        2
 70
     0
 43
0.0
 10
8.17650611514316
 20
12.54831103093149
 10
8.226769671214009
 20
12.54831103093149
  0
LINE
  5
1615
330
1F
100
AcDbEntity
  8
OBJECT1
100
AcDbLine
 10
8.176506115143162
 20
12.7008151109866
 30
0.0
 11
8.176506115143162
 21
12.54831103093149
 31
0.0
  0
LWPOLYLINE
  5
1616
330
1F
100
AcDbEntity
  8
OBJECT1
100
AcDbPolyline
 90
        2
 70
     0
 43
0.0
 10
8.17650611514316
 20
12.7008151109866
 10
8.17050422769793
 20
12.70707795005989
  0
LWPOLYLINE
  5
1617
330
1F
100
AcDbEntity
  8
OBJECT1
100
AcDbPolyline
 90
        2
 70
     0
 43
0.0
 10
8.256518156812122
 20
12.54048248208988
 10
8.226769671214009
 20
12.54831103093149
  0
LINE
  5
1618
330
1F
100
AcDbEntity
  8
TEXT
100
AcDbLine
 10
8.562302971387765
 20
12.21804050306376
 30
0.0
 11
9.850087775527345
 21
12.21804050306376
 31
0.0
  0
LINE
  5
1619
330
1F
100
AcDbEntity
  8
OBJECT2
100
AcDbLine
 10
7.805482377982489
 20
12.77814805020298
 30
0.0
 11
8.130315597517146
 21
12.77814805020298
 31
0.0
  0
LINE
  5
161A
330
1F
100
AcDbEntity
  8
OBJECT2
100
AcDbLine
 10
7.854050778053686
 20
12.81653132106458
 30
0.0
 11
8.081747197445947
 21
12.81653132106458
 31
0.0
  0
LINE
  5
161B
330
1F
100
AcDbEntity
  8
OBJECT2
100
AcDbLine
 10
7.854050778053686
 20
12.73976446441204
 30
0.0
 11
8.081747197445947
 21
12.73976446441204
 31
0.0
  0
LINE
  5
161C
330
1F
100
AcDbEntity
  8
OBJECT1
100
AcDbLine
 10
8.413751357647324
 20
13.91389197225309
 30
0.0
 11
9.597584536724138
 21
13.91389197225309
 31
0.0
  0
LINE
  5
161D
330
1F
100
AcDbEntity
  8
OBJECT1
100
AcDbLine
 10
8.413751357647324
 20
14.23872550671707
 30
0.0
 11
9.597584536724138
 21
14.23872550671707
 31
0.0
  0
ARC
  5
161E
330
1F
100
AcDbEntity
  8
OBJECT1
100
AcDbCircle
 10
7.628317628056084
 20
14.27691919012671
 30
0.0
 40
0.0198418070165063
100
AcDbArc
 50
19.1206000000001
 51
89.99653599999986
  0
ARC
  5
161F
330
1F
100
AcDbEntity
  8
OBJECT1
100
AcDbCircle
 10
7.665765873760051
 20
14.29006182060116
 30
0.0
 40
0.0198465309563394
100
AcDbArc
 50
199.3436430000001
 51
269.9844060000001
  0
ARC
  5
1620
330
1F
100
AcDbEntity
  8
OBJECT1
100
AcDbCircle
 10
7.628317628056084
 20
13.87570017841939
 30
0.0
 40
0.0198433816631173
100
AcDbArc
 50
270.003479
 51
340.8679199999999
  0
ARC
  5
1621
330
1F
100
AcDbEntity
  8
OBJECT1
100
AcDbCircle
 10
7.665753906445811
 20
13.86256447639002
 30
0.0
 40
0.01983235913684
100
AcDbArc
 50
89.98091099999989
 51
160.6694180000001
  0
LINE
  5
1622
330
1F
100
AcDbEntity
  8
OBJECT1
100
AcDbLine
 10
6.796325377327987
 20
14.23872550671707
 30
0.0
 11
7.522188336047312
 21
14.23872550671707
 31
0.0
  0
LINE
  5
1623
330
1F
100
AcDbEntity
  8
OBJECT1
100
AcDbLine
 10
6.796325377327987
 20
13.91389197225309
 30
0.0
 11
7.522188336047312
 21
13.91389197225309
 31
0.0
  0
LINE
  5
1624
330
1F
100
AcDbEntity
  8
OBJECT2
100
AcDbLine
 10
6.905779063262007
 20
13.96246068725362
 30
0.0
 11
6.905779063262007
 21
14.19015679171656
 31
0.0
  0
LINE
  5
1625
330
1F
100
AcDbEntity
  8
OBJECT2
100
AcDbLine
 10
6.304836914278382
 20
14.27691919012671
 30
0.0
 11
6.304836914278382
 21
13.87569860377278
 31
0.0
  0
LINE
  5
1626
330
1F
100
AcDbEntity
  8
OBJECT2
100
AcDbLine
 10
6.670354593232039
 20
14.27691919012671
 30
0.0
 11
6.670354593232039
 21
13.87569860377278
 31
0.0
  0
LINE
  5
1627
330
1F
100
AcDbEntity
  8
OBJECT2
100
AcDbLine
 10
6.829012206609462
 20
13.96246068725362
 30
0.0
 11
6.829012206609462
 21
14.19015679171656
 31
0.0
  0
LINE
  5
1628
330
1F
100
AcDbEntity
  8
OBJECT2
100
AcDbLine
 10
6.867395477471075
 20
13.91389197225309
 30
0.0
 11
6.867395477471075
 21
14.23872550671707
 31
0.0
  0
LINE
  5
1629
330
1F
100
AcDbEntity
  8
OBJECT2
100
AcDbLine
 10
6.796325377327987
 20
13.91389197225309
 30
0.0
 11
6.796325377327987
 21
14.23872550671707
 31
0.0
  0
LINE
  5
162A
330
1F
100
AcDbEntity
  8
OBJECT1
100
AcDbLine
 10
6.322438314096689
 20
13.88239715045618
 30
0.0
 11
6.652753193413731
 21
13.88239715045618
 31
0.0
  0
ARC
  5
162B
330
1F
100
AcDbEntity
  8
OBJECT1
100
AcDbCircle
 10
6.284995422191206
 20
13.87569954856074
 30
0.0
 40
0.0198430667337951
100
AcDbArc
 50
270.003479
 51
340.8695680000001
  0
ARC
  5
162C
330
1F
100
AcDbEntity
  8
OBJECT1
100
AcDbCircle
 10
6.322432330439566
 20
13.86256353160205
 30
0.0
 40
0.0198333039248066
100
AcDbArc
 50
89.98265100000004
 51
160.6667180000001
  0
LINE
  5
162D
330
1F
100
AcDbEntity
  8
OBJECT1
100
AcDbLine
 10
6.776485144958092
 20
13.85585679675628
 30
0.0
 11
6.690194825601931
 21
13.85585679675628
 31
0.0
  0
ARC
  5
162E
330
1F
100
AcDbEntity
  8
OBJECT1
100
AcDbCircle
 10
6.69019671517786
 20
13.87570017841939
 30
0.0
 40
0.0198436965924395
100
AcDbArc
 50
199.1314999999996
 51
269.9948120000001
  0
ARC
  5
162F
330
1F
100
AcDbEntity
  8
OBJECT1
100
AcDbCircle
 10
6.652758862141526
 20
13.86256384653137
 30
0.0
 40
0.0198336188541288
100
AcDbArc
 50
19.33107399999986
 51
90.01561700000003
  0
LINE
  5
1630
330
1F
100
AcDbEntity
  8
OBJECT1
100
AcDbLine
 10
6.796325377327987
 20
13.91389197225309
 30
0.0
 11
6.796325377327987
 21
13.87569860377278
 31
0.0
  0
ARC
  5
1631
330
1F
100
AcDbEntity
  8
OBJECT1
100
AcDbCircle
 10
6.776487349463343
 20
13.87569482462091
 30
0.0
 40
0.0198380278646398
100
AcDbArc
 50
269.9930729999998
 51
0.0104089999998682
  0
LINE
  5
1632
330
1F
100
AcDbEntity
  8
OBJECT1
100
AcDbLine
 10
6.322438314096689
 20
14.27021560457415
 30
0.0
 11
6.652753193413731
 21
14.27021560457415
 31
0.0
  0
ARC
  5
1633
330
1F
100
AcDbEntity
  8
OBJECT1
100
AcDbCircle
 10
6.284996052049846
 20
14.27691919012671
 30
0.0
 40
0.0198418070165063
100
AcDbArc
 50
19.12117000000003
 51
89.99826799999992
  0
ARC
  5
1634
330
1F
100
AcDbEntity
  8
OBJECT1
100
AcDbCircle
 10
6.322443667895162
 20
14.29006245045981
 30
0.0
 40
0.0198468458856616
100
AcDbArc
 50
199.3452909999998
 51
269.9844060000001
  0
LINE
  5
1635
330
1F
100
AcDbEntity
  8
OBJECT1
100
AcDbLine
 10
6.690194825601931
 20
14.29676068221389
 30
0.0
 11
6.776485144958092
 21
14.29676068221389
 31
0.0
  0
ARC
  5
1636
330
1F
100
AcDbEntity
  8
OBJECT1
100
AcDbCircle
 10
6.690195455460575
 20
14.27691919012671
 30
0.0
 40
0.0198418070165063
100
AcDbArc
 50
90.00173200000004
 51
160.8788299999999
  0
ARC
  5
1637
330
1F
100
AcDbEntity
  8
OBJECT1
100
AcDbCircle
 10
6.652749099332543
 20
14.29006119074252
 30
0.0
 40
0.0198452712390506
100
AcDbArc
 50
270.0121460000001
 51
340.6568299999999
  0
LINE
  5
1638
330
1F
100
AcDbEntity
  8
OBJECT1
100
AcDbLine
 10
6.796325377327987
 20
14.23872550671707
 30
0.0
 11
6.796325377327987
 21
14.27691919012671
 31
0.0
  0
ARC
  5
1639
330
1F
100
AcDbEntity
  8
OBJECT1
100
AcDbCircle
 10
6.77647947623029
 20
14.27691478111619
 30
0.0
 40
0.019845901097695
100
AcDbArc
 50
0.0121389999999104
 51
89.98439799999998
  0
LINE
  5
163A
330
1F
100
AcDbEntity
  8
OBJECT2
100
AcDbLine
 10
7.648159435072592
 20
14.27691919012671
 30
0.0
 11
7.648159435072592
 21
13.87569860377278
 31
0.0
  0
LINE
  5
163B
330
1F
100
AcDbEntity
  8
OBJECT2
100
AcDbLine
 10
7.489501821695156
 20
13.96246068725362
 30
0.0
 11
7.489501821695156
 21
14.19015679171656
 31
0.0
  0
LINE
  5
163C
330
1F
100
AcDbEntity
  8
OBJECT2
100
AcDbLine
 10
7.412734965042615
 20
13.96246068725362
 30
0.0
 11
7.412734965042615
 21
14.19015679171656
 31
0.0
  0
LINE
  5
163D
330
1F
100
AcDbEntity
  8
OBJECT2
100
AcDbLine
 10
7.451118235904225
 20
13.91389197225309
 30
0.0
 11
7.451118235904225
 21
14.23872550671707
 31
0.0
  0
LINE
  5
163E
330
1F
100
AcDbEntity
  8
OBJECT2
100
AcDbLine
 10
7.522188336047312
 20
13.91389197225309
 30
0.0
 11
7.522188336047312
 21
14.23872550671707
 31
0.0
  0
LINE
  5
163F
330
1F
100
AcDbEntity
  8
OBJECT1
100
AcDbLine
 10
7.522188336047312
 20
13.91389197225309
 30
0.0
 11
7.522188336047312
 21
13.87569860377278
 31
0.0
  0
LINE
  5
1640
330
1F
100
AcDbEntity
  8
OBJECT1
100
AcDbLine
 10
7.522188336047312
 20
13.91389197225309
 30
0.0
 11
7.522188336047312
 21
13.87569860377278
 31
0.0
  0
ARC
  5
1641
330
1F
100
AcDbEntity
  8
OBJECT1
100
AcDbCircle
 10
7.542025734053311
 20
13.87569419476226
 30
0.0
 40
0.0198373980059953
100
AcDbArc
 50
179.9878539999998
 51
270.0086670000001
  0
LINE
  5
1642
330
1F
100
AcDbEntity
  8
OBJECT1
100
AcDbLine
 10
7.542028883346524
 20
13.85585679675628
 30
0.0
 11
7.628318887773367
 21
13.85585679675628
 31
0.0
  0
LINE
  5
1643
330
1F
100
AcDbEntity
  8
OBJECT1
100
AcDbLine
 10
7.522188336047312
 20
14.23872550671707
 30
0.0
 11
7.522188336047312
 21
14.27691919012671
 31
0.0
  0
ARC
  5
1644
330
1F
100
AcDbEntity
  8
OBJECT1
100
AcDbCircle
 10
7.542034867003653
 20
14.27691478111619
 30
0.0
 40
0.019845901097695
100
AcDbArc
 50
90.01734199999999
 51
179.9878539999998
  0
LINE
  5
1645
330
1F
100
AcDbEntity
  8
OBJECT1
100
AcDbLine
 10
7.628318887773367
 20
14.29676068221389
 30
0.0
 11
7.542028883346524
 21
14.29676068221389
 31
0.0
  0
ARC
  5
1646
330
1F
100
AcDbEntity
  8
OBJECT1
100
AcDbCircle
 10
7.695405131990499
 20
13.80367080356086
 30
0.0
 40
0.0787263468953281
100
AcDbArc
 50
359.995636
 51
90.0043719999998
  0
ARC
  5
1647
330
1F
100
AcDbEntity
  8
OBJECT1
100
AcDbCircle
 10
8.240533931845494
 20
13.80367206327815
 30
0.0
 40
0.0787250871780393
100
AcDbArc
 50
89.99519300000017
 51
180.0052490000002
  0
LINE
  5
1648
330
1F
100
AcDbEntity
  8
OBJECT2
100
AcDbLine
 10
7.854050778053686
 20
13.52099937689568
 30
0.0
 11
8.081747197445947
 21
13.52099937689568
 31
0.0
  0
LINE
  5
1649
330
1F
100
AcDbEntity
  8
OBJECT2
100
AcDbLine
 10
7.805482377982499
 20
13.63045274790037
 30
0.0
 11
8.130315597517146
 21
13.63045274790037
 31
0.0
  0
LINE
  5
164A
330
1F
100
AcDbEntity
  8
OBJECT2
100
AcDbLine
 10
7.805482377982499
 20
13.55938264775729
 30
0.0
 11
8.130315597517146
 21
13.55938264775729
 31
0.0
  0
LINE
  5
164B
330
1F
100
AcDbEntity
  8
OBJECT2
100
AcDbLine
 10
7.854050778053686
 20
13.59776623354822
 30
0.0
 11
8.081747197445947
 21
13.59776623354822
 31
0.0
  0
LINE
  5
164C
330
1F
100
AcDbEntity
  8
OBJECT2
100
AcDbLine
 10
8.168580140024289
 20
13.75642731114819
 30
0.0
 11
7.76735955367036
 21
13.75642731114819
 31
0.0
  0
LINE
  5
164D
330
1F
100
AcDbEntity
  8
OBJECT1
100
AcDbLine
 10
7.774131478885834
 20
13.77393360231119
 30
0.0
 11
7.774131478885834
 21
13.80366481990374
 31
0.0
  0
ARC
  5
164E
330
1F
100
AcDbEntity
  8
OBJECT1
100
AcDbCircle
 10
7.76736144324629
 20
13.73658518920237
 30
0.0
 40
0.0198421219458285
100
AcDbArc
 50
109.2357789999997
 51
179.99826
  0
ARC
  5
164F
330
1F
100
AcDbEntity
  8
OBJECT1
100
AcDbCircle
 10
7.754297860031702
 20
13.77405138587771
 30
0.0
 40
0.0198342487127732
100
AcDbArc
 50
289.2147219999998
 51
0.0069409999999198
  0
ARC
  5
1650
330
1F
100
AcDbEntity
  8
OBJECT1
100
AcDbCircle
 10
7.767364907468834
 20
13.65029864899807
 30
0.0
 40
0.019845901097695
100
AcDbArc
 50
180.0121460000001
 51
269.9844060000001
  0
LINE
  5
1651
330
1F
100
AcDbEntity
  8
OBJECT1
100
AcDbLine
 10
7.747519006371138
 20
13.736585819061
 30
0.0
 11
7.747519006371138
 21
13.65029455491687
 31
0.0
  0
LINE
  5
1652
330
1F
100
AcDbEntity
  8
OBJECT1
100
AcDbLine
 10
7.805624096177492
 20
13.63045274790037
 30
0.0
 11
7.76735955367036
 21
13.63045274790037
 31
0.0
  0
ARC
  5
1653
330
1F
100
AcDbEntity
  8
OBJECT1
100
AcDbCircle
 10
8.168578250448351
 20
13.736585819061
 30
0.0
 40
0.0198421219458285
100
AcDbArc
 50
0.0
 51
70.76365699999995
  0
ARC
  5
1654
330
1F
100
AcDbEntity
  8
OBJECT1
100
AcDbCircle
 10
8.168574156367164
 20
13.65029864899807
 30
0.0
 40
0.0198465309563394
100
AcDbArc
 50
270.0173339999997
 51
359.9878539999998
  0
LINE
  5
1655
330
1F
100
AcDbEntity
  8
OBJECT1
100
AcDbLine
 10
8.161808214808811
 20
13.77393360231119
 30
0.0
 11
8.161808214808811
 21
13.80366481990374
 31
0.0
  0
ARC
  5
1656
330
1F
100
AcDbEntity
  8
OBJECT1
100
AcDbCircle
 10
8.18164246352158
 20
13.77405201573635
 30
0.0
 40
0.0198348785714177
100
AcDbArc
 50
179.9947969999998
 51
250.7842249999997
  0
LINE
  5
1657
330
1F
100
AcDbEntity
  8
OBJECT1
100
AcDbLine
 10
8.188420687323503
 20
13.736585819061
 30
0.0
 11
8.188420687323503
 21
13.65029455491687
 31
0.0
  0
LINE
  5
1658
330
1F
100
AcDbEntity
  8
OBJECT1
100
AcDbLine
 10
8.130315597517146
 20
13.63045274790037
 30
0.0
 11
8.168580140024289
 21
13.63045274790037
 31
0.0
  0
LINE
  5
1659
330
1F
100
AcDbEntity
  8
OBJECT1
100
AcDbLine
 10
8.393910810348103
 20
13.85585679675628
 30
0.0
 11
8.307620805921267
 21
13.85585679675628
 31
0.0
  0
LINE
  5
165A
330
1F
100
AcDbEntity
  8
OBJECT1
100
AcDbLine
 10
8.307620805921267
 20
14.29676068221389
 30
0.0
 11
8.393910810348103
 21
14.29676068221389
 31
0.0
  0
LINE
  5
165B
330
1F
100
AcDbEntity
  8
OBJECT2
100
AcDbLine
 10
8.287780258622046
 20
14.27691919012671
 30
0.0
 11
8.287780258622046
 21
13.87569860377278
 31
0.0
  0
LINE
  5
165C
330
1F
100
AcDbEntity
  8
OBJECT1
100
AcDbLine
 10
7.665621321201156
 20
13.88239715045618
 30
0.0
 11
7.695399148333384
 21
13.88239715045618
 31
0.0
  0
ARC
  5
165D
330
1F
100
AcDbEntity
  8
OBJECT1
100
AcDbCircle
 10
8.307622695497199
 20
13.87570017841939
 30
0.0
 40
0.0198436965924395
100
AcDbArc
 50
199.1314999999996
 51
269.9948120000001
  0
LINE
  5
165E
330
1F
100
AcDbEntity
  8
OBJECT1
100
AcDbLine
 10
8.270318372493484
 20
13.88239715045618
 30
0.0
 11
8.240540545361261
 21
13.88239715045618
 31
0.0
  0
ARC
  5
165F
330
1F
100
AcDbEntity
  8
OBJECT1
100
AcDbCircle
 10
8.270184527531544
 20
13.86256353160205
 30
0.0
 40
0.0198336188541288
100
AcDbArc
 50
19.33271200000023
 51
90.01561700000003
  0
LINE
  5
1660
330
1F
100
AcDbEntity
  8
OBJECT1
100
AcDbLine
 10
8.270318372493484
 20
14.27021560457415
 30
0.0
 11
7.665851849465012
 21
14.27021560457415
 31
0.0
  0
ARC
  5
1661
330
1F
100
AcDbEntity
  8
OBJECT1
100
AcDbCircle
 10
8.307622065638556
 20
14.27691856026807
 30
0.0
 40
0.0198421219458285
100
AcDbArc
 50
90.00346400000015
 51
160.8777620000002
  0
ARC
  5
1662
330
1F
100
AcDbEntity
  8
OBJECT1
100
AcDbCircle
 10
8.270174449793231
 20
14.29006182060116
 30
0.0
 40
0.019845901097695
100
AcDbArc
 50
270.0138850000001
 51
340.655762
  0
LINE
  5
1663
330
1F
100
AcDbEntity
  8
OBJECT2
100
AcDbLine
 10
8.446437871999483
 20
13.96246068725362
 30
0.0
 11
8.446437871999483
 21
14.19015679171656
 31
0.0
  0
LINE
  5
1664
330
1F
100
AcDbEntity
  8
OBJECT2
100
AcDbLine
 10
8.523204728652014
 20
13.96246068725362
 30
0.0
 11
8.523204728652014
 21
14.19015679171656
 31
0.0
  0
LINE
  5
1665
330
1F
100
AcDbEntity
  8
OBJECT2
100
AcDbLine
 10
8.484821457790415
 20
13.91389197225309
 30
0.0
 11
8.484821457790415
 21
14.23872550671707
 31
0.0
  0
LINE
  5
1666
330
1F
100
AcDbEntity
  8
OBJECT2
100
AcDbLine
 10
8.413751357647324
 20
13.91389197225309
 30
0.0
 11
8.413751357647324
 21
14.23872550671707
 31
0.0
  0
ARC
  5
1667
330
1F
100
AcDbEntity
  8
OBJECT1
100
AcDbCircle
 10
8.393913959641327
 20
13.87569419476226
 30
0.0
 40
0.0198373980059953
100
AcDbArc
 50
269.9913329999999
 51
0.0121440000001187
  0
LINE
  5
1668
330
1F
100
AcDbEntity
  8
OBJECT1
100
AcDbLine
 10
8.413751357647324
 20
13.91389197225309
 30
0.0
 11
8.413751357647324
 21
13.87569860377278
 31
0.0
  0
ARC
  5
1669
330
1F
100
AcDbEntity
  8
OBJECT1
100
AcDbCircle
 10
8.393905456549632
 20
14.27691478111619
 30
0.0
 40
0.019845901097695
100
AcDbArc
 50
0.0121389999999104
 51
89.98439799999998
  0
LINE
  5
166A
330
1F
100
AcDbEntity
  8
OBJECT1
100
AcDbLine
 10
8.413751357647324
 20
14.23872550671707
 30
0.0
 11
8.413751357647324
 21
14.27691919012671
 31
0.0
  0
ARC
  5
166B
330
1F
100
AcDbEntity
  8
OBJECT1
100
AcDbCircle
 10
9.584318980311152
 20
14.15751712310108
 30
0.0
 40
0.0822847285738289
100
AcDbArc
 50
279.2774430528964
 51
80.7225569471036
  0
ARC
  5
166C
330
1F
100
AcDbEntity
  8
OBJECT2
100
AcDbCircle
 10
9.610850093137134
 20
13.99510035586909
 30
0.0
 40
0.0822847285738289
100
AcDbArc
 50
99.27744305289637
 51
260.7225569471035
  0
ARC
  5
166D
330
1F
100
AcDbEntity
  8
OBJECT1
100
AcDbCircle
 10
9.584318980311152
 20
13.99510035586909
 30
0.0
 40
0.0822847285738289
100
AcDbArc
 50
279.2774430528964
 51
80.7225569471036
  0
TEXT
  5
199A
330
1F
100
AcDbEntity
  8
TEXT
100
AcDbText
 10
8.581272231035896
 20
11.69494721021658
 30
0.0
 40
0.2361969916573503
  1
(FOR TEMPORARY SYSYTEM BYPASS
  7
ROMANS
 72
     2
 11
14.96983848157756
 21
11.81304570604526
 31
0.0
100
AcDbText
 73
     2
  0
LINE
  5
1A0D
330
1F
100
AcDbEntity
  8
OBJECT2
  6
HIDDEN
100
AcDbLine
 10
7.691385326412191
 20
11.68593710703727
 30
0.0
 11
7.74571742887926
 21
11.63150729746881
 31
0.0
  0
LINE
  5
1A0E
330
1F
100
AcDbEntity
  8
OBJECT2
  6
HIDDEN
100
AcDbLine
 10
7.628446588203733
 20
11.69148355544121
 30
0.0
 11
7.678012009004548
 21
11.69148355544121
 31
0.0
  0
ARC
  5
1A0F
330
1F
100
AcDbEntity
  8
OBJECT2
  6
HIDDEN
100
AcDbCircle
 10
7.714084798908821
 20
12.37811139311884
 30
0.0
 40
0.0242949708614087
100
AcDbArc
 50
244.7490419643914
 51
356.8857385510468
  0
LINE
  5
1A10
330
1F
100
AcDbEntity
  8
OBJECT2
  6
HIDDEN
100
AcDbLine
 10
7.688525107167532
 20
12.35677751588297
 30
0.0
 11
7.567649005083918
 21
12.30963715258189
 31
0.0
  0
ARC
  5
1A11
330
1F
100
AcDbEntity
  8
OBJECT2
  6
HIDDEN
100
AcDbCircle
 10
7.695395528513063
 20
12.33917504357679
 30
0.0
 40
0.018895759332588
100
AcDbArc
 50
63.85797781385491
 51
111.3211998692017
  0
ARC
  5
1A12
330
1F
100
AcDbEntity
  8
OBJECT2
  6
HIDDEN
100
AcDbCircle
 10
7.678012009004548
 20
11.67258779610862
 30
0.0
 40
0.018895759332588
100
AcDbArc
 50
44.94852790901552
 51
90.0
  0
ARC
  5
1A13
330
1F
100
AcDbEntity
  8
OBJECT2
  6
HIDDEN
100
AcDbCircle
 10
7.628446588203733
 20
11.67258779610862
 30
0.0
 40
0.018895759332588
100
AcDbArc
 50
90.0
 51
180.3206463337075
  0
ARC
  5
1A14
330
1F
100
AcDbEntity
  8
OBJECT2
  6
HIDDEN
100
AcDbCircle
 10
7.521056887397946
 20
11.67198680117289
 30
0.0
 40
0.0884956231618606
100
AcDbArc
 50
283.2663942555793
 51
0.3206463337079652
  0
LINE
  5
1A1C
330
1F
100
AcDbEntity
  8
OBJECT2
  6
HIDDEN
100
AcDbLine
 10
6.863992729865526
 20
12.1697830068185
 30
0.0
 11
7.008325179292987
 21
12.17482320701514
 31
0.0
  0
LINE
  5
1A21
330
1F
100
AcDbEntity
  8
OBJECT2
  6
HIDDEN
100
AcDbLine
 10
7.510617808078901
 20
11.56261447679296
 30
0.0
 11
7.41835957722845
 21
11.56261447679296
 31
0.0
  0
LINE
  5
1A22
330
1F
100
AcDbEntity
  8
OBJECT2
  6
HIDDEN
100
AcDbLine
 10
7.39946381789586
 20
11.58151023612555
 30
0.0
 11
7.39946381789586
 21
11.62520667958216
 31
0.0
  0
ARC
  5
1A23
330
1F
100
AcDbEntity
  8
OBJECT2
  6
HIDDEN
100
AcDbCircle
 10
7.41835957722845
 20
11.58151023612555
 30
0.0
 40
0.018895759332588
100
AcDbArc
 50
180.0
 51
270.0
  0
LINE
  5
1A28
330
1F
100
AcDbEntity
  8
OBJECT2
  6
HIDDEN
100
AcDbLine
 10
6.705513907113344
 20
11.84744883804307
 30
0.0
 11
6.719216481922687
 21
11.86115172778174
 31
0.0
  0
LINE
  5
1A29
330
1F
100
AcDbEntity
  8
OBJECT2
  6
HIDDEN
100
AcDbLine
 10
6.705513907113344
 20
11.84744883804307
 30
0.0
 11
6.644344869931213
 21
11.84744883804307
 31
0.0
  0
LINE
  5
1A2A
330
1F
100
AcDbEntity
  8
OBJECT2
  6
HIDDEN
100
AcDbLine
 10
7.044219962861487
 20
11.68418082105834
 30
0.0
 11
7.341788429336766
 21
11.67378950123254
 31
0.0
  0
ARC
  5
1A2B
330
1F
100
AcDbEntity
  8
OBJECT2
  6
HIDDEN
100
AcDbCircle
 10
7.008160316170364
 20
11.71990693015472
 30
0.0
 40
0.004723939833147
100
AcDbArc
 50
38.0108015603108
 51
88.00000000000002
  0
LINE
  5
1A2C
330
1F
100
AcDbEntity
  8
OBJECT2
  6
HIDDEN
100
AcDbLine
 10
7.040662858952202
 20
11.68599283370064
 30
0.0
 11
7.011882283202284
 21
11.72281597964906
 31
0.0
  0
ARC
  5
1A2D
330
1F
100
AcDbEntity
  8
OBJECT2
  6
HIDDEN
100
AcDbCircle
 10
7.044384825984121
 20
11.68890188319497
 30
0.0
 40
0.004723939833147
100
AcDbArc
 50
218.0108015603112
 51
268.0
  0
ARC
  5
1A2E
330
1F
100
AcDbEntity
  8
OBJECT2
  6
HIDDEN
100
AcDbCircle
 10
7.340414569981525
 20
11.63444731676055
 30
0.0
 40
0.0393661652762251
100
AcDbArc
 50
0.6996897293021535
 51
88.00000000000002
  0
LINE
  5
1A2F
330
1F
100
AcDbEntity
  8
OBJECT2
  6
HIDDEN
100
AcDbLine
 10
7.39946381789586
 20
11.62520667958216
 30
0.0
 11
7.389618607443713
 21
11.62520667958216
 31
0.0
  0
ARC
  5
1A30
330
1F
100
AcDbEntity
  8
OBJECT2
  6
HIDDEN
100
AcDbCircle
 10
7.389618607443713
 20
11.63504822090122
 30
0.0
 40
0.0098415413190563
100
AcDbArc
 50
180.6996897293021
 51
270.0
  0
ARC
  5
1A31
330
1F
100
AcDbEntity
  8
OBJECT2
  6
HIDDEN
100
AcDbCircle
 10
6.72866436158899
 20
11.85798793541965
 30
0.0
 40
0.009447879666294
100
AcDbArc
 50
180.0
 51
228.7718132535709
  0
LINE
  5
1A32
330
1F
100
AcDbEntity
  8
OBJECT2
  6
HIDDEN
100
AcDbLine
 10
6.722437646437132
 20
11.85088227228337
 30
0.0
 11
6.858095740958929
 21
11.73200465362498
 31
0.0
  0
ARC
  5
1A33
330
1F
100
AcDbEntity
  8
OBJECT2
  6
HIDDEN
100
AcDbCircle
 10
6.864322456110786
 20
11.73911031676127
 30
0.0
 40
0.009447879666294
100
AcDbArc
 50
228.7718132535712
 51
268.0
  0
LINE
  5
1A34
330
1F
100
AcDbEntity
  8
OBJECT2
  6
HIDDEN
100
AcDbLine
 10
6.863992729865526
 20
11.72966819248799
 30
0.0
 11
7.008325179292987
 21
11.72462799229136
 31
0.0
  0
LINE
  5
1A37
330
1F
100
AcDbEntity
  8
OBJECT2
  6
HIDDEN
100
AcDbLine
 10
6.705513907113344
 20
12.0520020463341
 30
0.0
 11
6.719216481922687
 21
12.03829947152475
 31
0.0
  0
LINE
  5
1A3A
330
1F
100
AcDbEntity
  8
OBJECT2
  6
HIDDEN
100
AcDbLine
 10
6.644344869931213
 20
12.0520020463341
 30
0.0
 11
6.705513907113344
 21
12.0520020463341
 31
0.0
  0
ARC
  5
1A3C
330
1F
100
AcDbEntity
  8
OBJECT2
  6
HIDDEN
100
AcDbCircle
 10
6.72866436158899
 20
12.04146326388684
 30
0.0
 40
0.009447879666294
100
AcDbArc
 50
131.2281867464288
 51
180.0
  0
LINE
  5
1A3F
330
1F
100
AcDbEntity
  8
OBJECT2
  6
HIDDEN
100
AcDbLine
 10
6.722437646437132
 20
12.04856892702313
 30
0.0
 11
6.858095740958929
 21
12.16744654568151
 31
0.0
  0
ARC
  5
1A41
330
1F
100
AcDbEntity
  8
OBJECT2
  6
HIDDEN
100
AcDbCircle
 10
6.864322456110786
 20
12.16034088254523
 30
0.0
 40
0.009447879666294
100
AcDbArc
 50
91.99999999999997
 51
131.2281867464288
  0
ARC
  5
1A45
330
1F
100
AcDbEntity
  8
OBJECT2
  6
HIDDEN
100
AcDbCircle
 10
7.545700943527002
 20
11.56746130413233
 30
0.0
 40
0.018895759332588
100
AcDbArc
 50
103.2663942555793
 51
158.1765214040774
  0
ARC
  5
1A46
330
1F
100
AcDbEntity
  8
OBJECT2
  6
HIDDEN
100
AcDbCircle
 10
7.510617808078901
 20
11.58151023612555
 30
0.0
 40
0.018895759332588
100
AcDbArc
 50
270.0
 51
338.1765214040776
  0
LINE
  5
1A47
330
1F
100
AcDbEntity
  8
OBJECT2
  6
HIDDEN
100
AcDbLine
 10
7.510617808078901
 20
12.33683672251353
 30
0.0
 11
7.41835957722845
 21
12.33683672251353
 31
0.0
  0
LINE
  5
1A48
330
1F
100
AcDbEntity
  8
OBJECT2
  6
HIDDEN
100
AcDbLine
 10
7.044219962861487
 20
12.21527037824816
 30
0.0
 11
7.341788429336766
 21
12.22566169807396
 31
0.0
  0
ARC
  5
1A49
330
1F
100
AcDbEntity
  8
OBJECT2
  6
HIDDEN
100
AcDbCircle
 10
7.008160316170364
 20
12.17954426915177
 30
0.0
 40
0.004723939833147
100
AcDbArc
 50
272.0
 51
321.9891984396891
  0
ARC
  5
1A4A
330
1F
100
AcDbEntity
  8
OBJECT2
  6
HIDDEN
100
AcDbCircle
 10
7.044384825984121
 20
12.21054931611152
 30
0.0
 40
0.004723939833147
100
AcDbArc
 50
91.99999999999997
 51
141.9891984396888
  0
LINE
  5
1A4B
330
1F
100
AcDbEntity
  8
OBJECT2
  6
HIDDEN
100
AcDbLine
 10
7.040662858952202
 20
12.21345836560585
 30
0.0
 11
7.011882283202284
 21
12.17663521965744
 31
0.0
  0
LINE
  5
1A4C
330
1F
100
AcDbEntity
  8
OBJECT2
  6
HIDDEN
100
AcDbLine
 10
7.39946381789586
 20
12.27424451972434
 30
0.0
 11
7.39946381789586
 21
12.31794096318094
 31
0.0
  0
ARC
  5
1A4D
330
1F
100
AcDbEntity
  8
OBJECT2
  6
HIDDEN
100
AcDbCircle
 10
7.389618607443713
 20
12.26440297840528
 30
0.0
 40
0.0098415413190563
100
AcDbArc
 50
90.0
 51
179.3003102706978
  0
LINE
  5
1A4E
330
1F
100
AcDbEntity
  8
OBJECT2
  6
HIDDEN
100
AcDbLine
 10
7.39946381789586
 20
12.27424451972433
 30
0.0
 11
7.389618607443713
 21
12.27424451972433
 31
0.0
  0
ARC
  5
1A4F
330
1F
100
AcDbEntity
  8
OBJECT2
  6
HIDDEN
100
AcDbCircle
 10
7.340414569981525
 20
12.26500388254593
 30
0.0
 40
0.0393661652762251
100
AcDbArc
 50
272.0
 51
359.3003102706986
  0
ARC
  5
1A50
330
1F
100
AcDbEntity
  8
OBJECT2
  6
HIDDEN
100
AcDbCircle
 10
7.41835957722845
 20
12.31794096318094
 30
0.0
 40
0.018895759332588
100
AcDbArc
 50
90.0
 51
180.0
  0
ARC
  5
1A51
330
1F
100
AcDbEntity
  8
OBJECT2
  6
HIDDEN
100
AcDbCircle
 10
7.560778583738375
 20
12.32723962488807
 30
0.0
 40
0.018895759332588
100
AcDbArc
 50
248.2919142883924
 51
291.3211998692009
  0
ARC
  5
1A52
330
1F
100
AcDbEntity
  8
OBJECT2
  6
HIDDEN
100
AcDbCircle
 10
7.545700943527002
 20
12.33198989517417
 30
0.0
 40
0.018895759332588
100
AcDbArc
 50
201.8234785959227
 51
256.7336057444206
  0
ARC
  5
1A53
330
1F
100
AcDbEntity
  8
OBJECT2
  6
HIDDEN
100
AcDbCircle
 10
7.545700943527002
 20
12.33198989517425
 30
0.0
 40
0.018895759332588
100
AcDbArc
 50
201.8234785959227
 51
256.7336057444206
  0
ARC
  5
1A54
330
1F
100
AcDbEntity
  8
OBJECT2
  6
HIDDEN
100
AcDbCircle
 10
7.528159375802953
 20
12.32496542917756
 30
0.0
 40
0.0000000000000016
100
AcDbArc
 50
333.4349488229218
 51
45.00000000000013
  0
ARC
  5
1A55
330
1F
100
AcDbEntity
  8
OBJECT2
  6
HIDDEN
100
AcDbCircle
 10
7.521056887397946
 20
12.2274643981336
 30
0.0
 40
0.0884956231618606
100
AcDbArc
 50
68.29191428839381
 51
76.73360574442068
  0
ARC
  5
1A56
330
1F
100
AcDbEntity
  8
OBJECT2
  6
HIDDEN
100
AcDbCircle
 10
7.510617808078901
 20
12.31794096318105
 30
0.0
 40
0.018895759332588
100
AcDbArc
 50
21.82347859592252
 51
90.0
  0
LINE
  5
1A5A
330
1F
100
AcDbEntity
  8
OBJECT2
  6
HIDDEN
100
AcDbLine
 10
6.410191454645678
 20
11.86115172778174
 30
0.0
 11
6.410191454645678
 21
12.03829947152475
 31
0.0
  0
LINE
  5
1A5F
330
1F
100
AcDbEntity
  8
OBJECT2
  6
HIDDEN
100
AcDbLine
 10
6.488923785198128
 20
11.8906763517389
 30
0.0
 11
6.630642295121855
 21
11.8906763517389
 31
0.0
  0
LINE
  5
1A60
330
1F
100
AcDbEntity
  8
OBJECT2
  6
HIDDEN
100
AcDbLine
 10
6.488923785198128
 20
11.84744883804307
 30
0.0
 11
6.488923785198128
 21
11.8906763517389
 31
0.0
  0
LINE
  5
1A61
330
1F
100
AcDbEntity
  8
OBJECT2
  6
HIDDEN
100
AcDbLine
 10
6.423894029455027
 20
11.84744883804307
 30
0.0
 11
6.410191454645678
 21
11.86115172778174
 31
0.0
  0
LINE
  5
1A62
330
1F
100
AcDbEntity
  8
OBJECT2
  6
HIDDEN
100
AcDbLine
 10
6.488923785198128
 20
11.84744883804307
 30
0.0
 11
6.423894029455027
 21
11.84744883804307
 31
0.0
  0
LINE
  5
1A63
330
1F
100
AcDbEntity
  8
OBJECT2
  6
HIDDEN
100
AcDbLine
 10
6.630642295121855
 20
11.86115172778174
 30
0.0
 11
6.630642295121855
 21
11.8906763517389
 31
0.0
  0
LINE
  5
1A64
330
1F
100
AcDbEntity
  8
OBJECT2
  6
HIDDEN
100
AcDbLine
 10
6.644344869931213
 20
11.84744883804307
 30
0.0
 11
6.630642295121855
 21
11.86115172778174
 31
0.0
  0
LINE
  5
1A65
330
1F
100
AcDbEntity
  8
OBJECT2
  6
HIDDEN
100
AcDbLine
 10
6.630642295121855
 20
12.00877484756758
 30
0.0
 11
6.488923785198128
 21
12.00877484756758
 31
0.0
  0
LINE
  5
1A67
330
1F
100
AcDbEntity
  8
OBJECT2
  6
HIDDEN
100
AcDbLine
 10
6.488923785198128
 20
12.0520020463341
 30
0.0
 11
6.423894029455027
 21
12.0520020463341
 31
0.0
  0
LINE
  5
1A6B
330
1F
100
AcDbEntity
  8
OBJECT2
  6
HIDDEN
100
AcDbLine
 10
6.488923785198128
 20
12.0520020463341
 30
0.0
 11
6.488923785198128
 21
12.00877484756758
 31
0.0
  0
LINE
  5
1A6C
330
1F
100
AcDbEntity
  8
OBJECT2
  6
HIDDEN
100
AcDbLine
 10
6.423894029455027
 20
12.0520020463341
 30
0.0
 11
6.410191454645678
 21
12.03829947152475
 31
0.0
  0
LINE
  5
1A72
330
1F
100
AcDbEntity
  8
OBJECT2
  6
HIDDEN
100
AcDbLine
 10
6.630642295121855
 20
12.00877484756758
 30
0.0
 11
6.630642295121855
 21
12.03829947152475
 31
0.0
  0
LINE
  5
1A75
330
1F
100
AcDbEntity
  8
OBJECT2
  6
HIDDEN
100
AcDbLine
 10
6.644344869931213
 20
12.0520020463341
 30
0.0
 11
6.630642295121855
 21
12.03829947152475
 31
0.0
  0
TEXT
  5
1A77
330
1F
100
AcDbEntity
  8
TEXT
100
AcDbText
 10
8.603767182622313
 20
11.29862962688598
 30
0.0
 40
0.2361969916573503
  1
OF WILKINS MODEL BR4 OR 70DU)
  7
ROMANS
 72
     2
 11
14.96983848157756
 21
11.41672812271465
 31
0.0
100
AcDbText
 73
     2
  0
INSERT
  5
1A78
330
1F
100
AcDbEntity
  8
0
100
AcDbBlockReference
  2
DIRECTION
 10
23.54976652166197
 20
7.569466835333727
 30
0.0
 41
0.7085909749720509
 42
0.7085909749720509
 43
0.7085909749720509
  0
TEXT
  5
1A79
330
1F
100
AcDbEntity
  8
TEXT
100
AcDbText
 10
19.07175222934623
 20
4.601403609119834
 30
0.0
 40
0.2657216156145191
  1
TEMPORARY PIT INSTALLATION
  7
ROMANS
 72
     1
 11
22.03265023190801
 21
4.734264416927093
 31
0.0
100
AcDbText
 73
     2
  0
TEXT
  5
1A7A
330
1F
100
AcDbEntity
  8
TEXT
100
AcDbText
 10
18.79970390859803
 20
5.122200477040406
 30
0.0
 40
0.2657216156145191
  1
DOUBLE UNION SPACER NIPPLE
  7
ROMANS
 72
     1
 11
22.03265023190801
 21
5.255061284847665
 31
0.0
100
AcDbText
 73
     2
  0
TEXT
  5
1A7B
330
1F
100
AcDbEntity
  8
TEXT
100
AcDbText
 10
17.36354184325289
 20
5.711562595012027
 30
0.0
 40
0.5314432312290382
  1
WILKINS MODEL DUSPC
  7
ROMANS
 72
     1
 11
22.03265023190801
 21
5.977284210626546
 31
0.0
100
AcDbText
 73
     2
  0
LINE
  5
1B19
330
1F
100
AcDbEntity
  8
OBJECT2
  6
HIDDEN
100
AcDbLine
 10
22.39530703777611
 20
10.35552982447116
 30
0.0
 11
22.39530703777611
 21
10.44778805532161
 31
0.0
  0
ARC
  5
1B1A
330
1F
100
AcDbEntity
  8
OBJECT2
  6
HIDDEN
100
AcDbCircle
 10
22.4142027971087
 20
10.44778805532161
 30
0.0
 40
0.018895759332588
100
AcDbArc
 50
89.99999999999998
 51
180.0
  0
LINE
  5
1B1B
330
1F
100
AcDbEntity
  8
OBJECT1
100
AcDbLine
 10
22.37631320522237
 20
10.11490335701012
 30
0.0
 11
23.2169047054945
 21
10.11495303121778
 31
0.0
  0
LINE
  5
1B1C
330
1F
100
AcDbEntity
  8
OBJECT1
100
AcDbLine
 10
22.37631320522237
 20
9.680305297096328
 30
0.0
 11
23.18852311605042
 21
9.680305297096328
 31
0.0
  0
LINE
  5
1B1D
330
1F
100
AcDbEntity
  8
OBJECT1
100
AcDbLine
 10
22.05113222416312
 20
10.10648352573472
 30
0.0
 11
22.18383272935816
 21
10.10648352573472
 31
0.0
  0
LINE
  5
1B1E
330
1F
100
AcDbEntity
  8
OBJECT1
100
AcDbLine
 10
22.05113222416312
 20
9.689641517406901
 30
0.0
 11
22.18383272935816
 21
9.689641517406901
 31
0.0
  0
ARC
  5
1B1F
330
1F
100
AcDbEntity
  8
OBJECT2
  6
HIDDEN
100
AcDbCircle
 10
22.4142027971087
 20
10.35552982447116
 30
0.0
 40
0.018895759332588
100
AcDbArc
 50
180.0
 51
248.1765214040776
  0
LWPOLYLINE
  5
1B20
330
1F
100
AcDbEntity
  8
OBJECT1
100
AcDbPolyline
 90
        2
 70
     0
 43
0.0
 10
22.31613520478134
 20
9.609629475737943
 10
22.19166127819976
 20
9.609629475737943
  0
LWPOLYLINE
  5
1B21
330
1F
100
AcDbEntity
  8
OBJECT2
100
AcDbPolyline
 90
        2
 70
     0
 43
0.0
 10
22.31613520478134
 20
9.78089634175868
 10
22.19166127819976
 20
9.78089634175868
  0
LWPOLYLINE
  5
1B22
330
1F
100
AcDbEntity
  8
OBJECT2
100
AcDbPolyline
 90
        2
 70
     0
 43
0.0
 10
22.19166127819976
 20
9.78089634175868
 10
22.18383272935816
 20
9.725835548239375
  0
LWPOLYLINE
  5
1B23
330
1F
100
AcDbEntity
  8
OBJECT2
100
AcDbPolyline
 90
        2
 70
     0
 43
0.0
 10
22.19166127819976
 20
9.78089634175868
 10
22.18383272935816
 20
9.857094217150336
  0
LWPOLYLINE
  5
1B24
330
1F
100
AcDbEntity
  8
OBJECT1
100
AcDbPolyline
 90
        2
 70
     0
 43
0.0
 10
22.19166127819976
 20
9.609629475737943
 10
22.18383272935816
 20
9.639377961336059
  0
LWPOLYLINE
  5
1B25
330
1F
100
AcDbEntity
  8
OBJECT1
100
AcDbPolyline
 90
        2
 70
     0
 43
0.0
 10
22.18383272935816
 20
9.639377961336059
 10
22.18383272935816
 20
9.689641517406901
  0
LWPOLYLINE
  5
1B26
330
1F
100
AcDbEntity
  8
OBJECT2
100
AcDbPolyline
 90
        2
 70
     0
 43
0.0
 10
22.31613520478134
 20
9.78089634175868
 10
22.32396375362295
 20
9.725835548239375
  0
LWPOLYLINE
  5
1B27
330
1F
100
AcDbEntity
  8
OBJECT2
100
AcDbPolyline
 90
        2
 70
     0
 43
0.0
 10
22.31613520478134
 20
9.78089634175868
 10
22.32396375362295
 20
9.857094217150336
  0
LWPOLYLINE
  5
1B28
330
1F
100
AcDbEntity
  8
OBJECT1
100
AcDbPolyline
 90
        2
 70
     0
 43
0.0
 10
22.31613520478134
 20
9.609629475737943
 10
22.32396375362295
 20
9.639377961336059
  0
LINE
  5
1B29
330
1F
100
AcDbEntity
  8
OBJECT1
100
AcDbLine
 10
22.3475980783522
 20
9.660380269517494
 30
0.0
 11
22.35940792793506
 21
9.680835529024772
 31
0.0
  0
LINE
  5
1B2A
330
1F
100
AcDbEntity
  8
OBJECT1
100
AcDbLine
 10
22.33578822876933
 20
9.680835529024772
 30
0.0
 11
22.3475980783522
 21
9.660380269517494
 31
0.0
  0
LINE
  5
1B2B
330
1F
100
AcDbEntity
  8
OBJECT1
100
AcDbLine
 10
22.32397837918647
 20
9.660380269517494
 30
0.0
 11
22.33578822876933
 21
9.680835529024772
 31
0.0
  0
LINE
  5
1B2C
330
1F
100
AcDbEntity
  8
OBJECT1
100
AcDbLine
 10
22.36292495031675
 20
9.67474386756834
 30
0.0
 11
22.35940792793506
 21
9.680835529024772
 31
0.0
  0
LWPOLYLINE
  5
1B2D
330
1F
100
AcDbEntity
  8
OBJECT1
100
AcDbPolyline
 90
        2
 70
     0
 43
0.0
 10
22.32396375362295
 20
9.660967838665177
 10
22.32396375362295
 20
9.639377961336059
  0
ARC
  5
1B2E
330
1F
100
AcDbEntity
  8
OBJECT1
100
AcDbCircle
 10
22.37631320522237
 20
9.661409537763745
 30
0.0
 40
0.018895759332588
100
AcDbArc
 50
89.99999999999957
 51
135.1156204213965
  0
LWPOLYLINE
  5
1B2F
330
1F
100
AcDbEntity
  8
OBJECT2
100
AcDbPolyline
 90
        2
 70
     0
 43
0.0
 10
22.31613520478134
 20
10.01549185537887
 10
22.32396375362295
 20
9.939554931615276
  0
LWPOLYLINE
  5
1B30
330
1F
100
AcDbEntity
  8
OBJECT2
100
AcDbPolyline
 90
        2
 70
     0
 43
0.0
 10
22.31613520478134
 20
10.01549185537887
 10
22.19166127819976
 20
10.01549185537887
  0
LWPOLYLINE
  5
1B31
330
1F
100
AcDbEntity
  8
OBJECT1
100
AcDbPolyline
 90
        2
 70
     0
 43
0.0
 10
22.31613520478134
 20
10.18852244508707
 10
22.19166127819976
 20
10.18852244508707
  0
LWPOLYLINE
  5
1B32
330
1F
100
AcDbEntity
  8
OBJECT1
100
AcDbPolyline
 90
        2
 70
     0
 43
0.0
 10
22.18383272935816
 20
10.10648352573472
 10
22.18383272935816
 20
10.15877395948896
  0
LWPOLYLINE
  5
1B33
330
1F
100
AcDbEntity
  8
OBJECT1
100
AcDbPolyline
 90
        2
 70
     0
 43
0.0
 10
22.19166127819976
 20
10.18852244508707
 10
22.18383272935816
 20
10.15877395948896
  0
LWPOLYLINE
  5
1B34
330
1F
100
AcDbEntity
  8
OBJECT2
100
AcDbPolyline
 90
        2
 70
     0
 43
0.0
 10
22.19166127819976
 20
10.01549185537887
 10
22.18383272935816
 20
10.07055264889819
  0
LWPOLYLINE
  5
1B35
330
1F
100
AcDbEntity
  8
OBJECT2
100
AcDbPolyline
 90
        2
 70
     0
 43
0.0
 10
22.19166127819976
 20
10.01549185537887
 10
22.18383272935816
 20
9.939554931615276
  0
LINE
  5
1B36
330
1F
100
AcDbEntity
  8
OBJECT1
100
AcDbLine
 10
22.3475980783522
 20
10.11437532744954
 30
0.0
 11
22.35543778578091
 21
10.12795409903254
 31
0.0
  0
LINE
  5
1B37
330
1F
100
AcDbEntity
  8
OBJECT1
100
AcDbLine
 10
22.32397837918647
 20
10.11437532744954
 30
0.0
 11
22.33578822876933
 21
10.13483058695682
 31
0.0
  0
LINE
  5
1B38
330
1F
100
AcDbEntity
  8
OBJECT1
100
AcDbLine
 10
22.33578822876933
 20
10.13483058695682
 30
0.0
 11
22.3475980783522
 21
10.11437532744954
 31
0.0
  0
LINE
  5
1B39
330
1F
100
AcDbEntity
  8
OBJECT1
100
AcDbLine
 10
22.36295188566263
 20
10.12043999915083
 30
0.0
 11
22.35543778578091
 21
10.12795409903254
 31
0.0
  0
ARC
  5
1B3A
330
1F
100
AcDbEntity
  8
OBJECT1
100
AcDbCircle
 10
22.37631320522237
 20
10.13380131871057
 30
0.0
 40
0.018895759332588
100
AcDbArc
 50
225.0000000000002
 51
270.0
  0
LWPOLYLINE
  5
1B3B
330
1F
100
AcDbEntity
  8
OBJECT1
100
AcDbPolyline
 90
        2
 70
     0
 43
0.0
 10
22.31613520478134
 20
10.18852244508707
 10
22.32396375362295
 20
10.15877395948896
  0
LWPOLYLINE
  5
1B3C
330
1F
100
AcDbEntity
  8
OBJECT1
100
AcDbPolyline
 90
        2
 70
     0
 43
0.0
 10
22.32396375362295
 20
10.15877395948896
 10
22.32396375362295
 20
10.11496289659722
  0
LWPOLYLINE
  5
1B3D
330
1F
100
AcDbEntity
  8
OBJECT2
100
AcDbPolyline
 90
        2
 70
     0
 43
0.0
 10
22.31613520478134
 20
10.01549185537887
 10
22.32396375362295
 20
10.07055264889819
  0
LWPOLYLINE
  5
1B3E
330
1F
100
AcDbEntity
  8
OBJECT2
100
AcDbPolyline
 90
        2
 70
     0
 43
0.0
 10
22.18383272935816
 20
9.689641517406901
 10
22.18383272935816
 20
10.10648352573472
  0
LINE
  5
1B3F
330
1F
100
AcDbEntity
  8
OBJECT2
100
AcDbLine
 10
22.3475980783522
 20
10.11437532744954
 30
0.0
 11
22.35940792793506
 21
9.680835529024772
 31
0.0
  0
LINE
  5
1B40
330
1F
100
AcDbEntity
  8
OBJECT2
100
AcDbLine
 10
22.3475980783522
 20
9.660380269517494
 30
0.0
 11
22.33578822876933
 21
10.13483058695682
 31
0.0
  0
LINE
  5
1B41
330
1F
100
AcDbEntity
  8
OBJECT2
100
AcDbLine
 10
22.32397837918647
 20
10.11437532744954
 30
0.0
 11
22.33578822876933
 21
9.680835529024772
 31
0.0
  0
LWPOLYLINE
  5
1B42
330
1F
100
AcDbEntity
  8
OBJECT2
100
AcDbPolyline
 90
        2
 70
     0
 43
0.0
 10
22.32396375362295
 20
10.11496289659722
 10
22.32396375362295
 20
9.660967838665177
  0
LWPOLYLINE
  5
1B43
330
1F
100
AcDbEntity
  8
OBJECT1
100
AcDbPolyline
 90
        2
 70
     0
 43
0.0
 10
23.37317504307303
 20
9.609629475737943
 10
23.24870111649146
 20
9.609629475737943
  0
LWPOLYLINE
  5
1B44
330
1F
100
AcDbEntity
  8
OBJECT2
100
AcDbPolyline
 90
        2
 70
     0
 43
0.0
 10
23.37317504307303
 20
9.78089634175868
 10
23.24870111649146
 20
9.78089634175868
  0
LWPOLYLINE
  5
1B45
330
1F
100
AcDbEntity
  8
OBJECT1
100
AcDbPolyline
 90
        2
 70
     0
 43
0.0
 10
23.37317504307303
 20
10.18852244508707
 10
23.24870111649146
 20
10.18852244508707
  0
LWPOLYLINE
  5
1B46
330
1F
100
AcDbEntity
  8
OBJECT2
100
AcDbPolyline
 90
        2
 70
     0
 43
0.0
 10
23.37317504307303
 20
10.01549185537887
 10
23.24870111649146
 20
10.01549185537887
  0
ARC
  5
1B47
330
1F
100
AcDbEntity
  8
OBJECT2
  6
HIDDEN
100
AcDbCircle
 10
23.06015695911676
 20
10.34509074515212
 30
0.0
 40
0.0884956231618606
100
AcDbArc
 50
338.2919142883938
 51
346.7336057444207
  0
ARC
  5
1B48
330
1F
100
AcDbEntity
  8
OBJECT2
  6
HIDDEN
100
AcDbCircle
 10
23.16468245615741
 20
10.32044668902305
 30
0.0
 40
0.018895759332588
100
AcDbArc
 50
111.8234785959227
 51
166.7336057444206
  0
ARC
  5
1B49
330
1F
100
AcDbEntity
  8
OBJECT2
  6
HIDDEN
100
AcDbCircle
 10
23.16468245615732
 20
10.32044668902305
 30
0.0
 40
0.018895759332588
100
AcDbArc
 50
111.8234785959227
 51
166.7336057444206
  0
ARC
  5
1B4A
330
1F
100
AcDbEntity
  8
OBJECT2
  6
HIDDEN
100
AcDbCircle
 10
23.15993218587123
 20
10.30536904881168
 30
0.0
 40
0.018895759332588
100
AcDbArc
 50
158.2919142883923
 51
201.3211998692009
  0
ARC
  5
1B4B
330
1F
100
AcDbEntity
  8
OBJECT2
  6
HIDDEN
100
AcDbCircle
 10
23.17186760455995
 20
10.170752104037
 30
0.0
 40
0.018895759332588
100
AcDbArc
 50
333.8579778138549
 51
21.32119986920178
  0
LINE
  5
1B4C
330
1F
100
AcDbEntity
  8
OBJECT2
  6
HIDDEN
100
AcDbLine
 10
23.18947007686613
 20
10.17762252538253
 30
0.0
 11
23.14232971356504
 21
10.29849862746614
 31
0.0
  0
ARC
  5
1B4D
330
1F
100
AcDbEntity
  8
OBJECT2
  6
HIDDEN
100
AcDbCircle
 10
23.21080395410199
 20
10.15206283364124
 30
0.0
 40
0.0242949708614087
100
AcDbArc
 50
154.7490419643914
 51
266.8857385510468
  0
LINE
  5
1B4E
330
1F
100
AcDbEntity
  8
OBJECT2
100
AcDbLine
 10
23.2172382429206
 20
10.11437532744954
 30
0.0
 11
23.20939853549189
 21
10.12795409903254
 31
0.0
  0
ARC
  5
1B4F
330
1F
100
AcDbEntity
  8
OBJECT1
100
AcDbCircle
 10
23.18852311605042
 20
9.661409537763745
 30
0.0
 40
0.018895759332588
100
AcDbArc
 50
44.8843795786034
 51
89.99999999999998
  0
LINE
  5
1B50
330
1F
100
AcDbEntity
  8
OBJECT1
100
AcDbLine
 10
23.20191137095605
 20
9.67474386756834
 30
0.0
 11
23.20542839333773
 21
9.680835529024772
 31
0.0
  0
LINE
  5
1B51
330
1F
100
AcDbEntity
  8
OBJECT1
100
AcDbLine
 10
23.2172382429206
 20
9.660380269517494
 30
0.0
 11
23.20542839333773
 21
9.680835529024772
 31
0.0
  0
LINE
  5
1B52
330
1F
100
AcDbEntity
  8
OBJECT1
100
AcDbLine
 10
23.24085794208634
 20
9.660380269517494
 30
0.0
 11
23.22904809250347
 21
9.680835529024772
 31
0.0
  0
LINE
  5
1B53
330
1F
100
AcDbEntity
  8
OBJECT1
100
AcDbLine
 10
23.22904809250347
 20
9.680835529024772
 30
0.0
 11
23.2172382429206
 21
9.660380269517494
 31
0.0
  0
LWPOLYLINE
  5
1B54
330
1F
100
AcDbEntity
  8
OBJECT1
100
AcDbPolyline
 90
        2
 70
     0
 43
0.0
 10
23.24870111649146
 20
9.609629475737943
 10
23.24087256764986
 20
9.639377961336059
  0
LWPOLYLINE
  5
1B55
330
1F
100
AcDbEntity
  8
OBJECT1
100
AcDbPolyline
 90
        2
 70
     0
 43
0.0
 10
23.24087256764986
 20
9.639377961336059
 10
23.24087256764986
 20
9.660967838665177
  0
LWPOLYLINE
  5
1B56
330
1F
100
AcDbEntity
  8
OBJECT2
100
AcDbPolyline
 90
        2
 70
     0
 43
0.0
 10
23.24870111649146
 20
9.78089634175868
 10
23.24087256764986
 20
9.725835548239375
  0
LWPOLYLINE
  5
1B57
330
1F
100
AcDbEntity
  8
OBJECT2
100
AcDbPolyline
 90
        2
 70
     0
 43
0.0
 10
23.24870111649146
 20
9.78089634175868
 10
23.24087256764986
 20
9.857094217150336
  0
LINE
  5
1B58
330
1F
100
AcDbEntity
  8
OBJECT1
100
AcDbLine
 10
23.24085794208634
 20
10.11437532744954
 30
0.0
 11
23.22904809250347
 21
10.13483058695682
 31
0.0
  0
LINE
  5
1B59
330
1F
100
AcDbEntity
  8
OBJECT1
100
AcDbLine
 10
23.22904809250347
 20
10.13483058695682
 30
0.0
 11
23.2172382429206
 21
10.11437532744954
 31
0.0
  0
LWPOLYLINE
  5
1B5A
330
1F
100
AcDbEntity
  8
OBJECT1
100
AcDbPolyline
 90
        2
 70
     0
 43
0.0
 10
23.24870111649146
 20
10.18852244508707
 10
23.24087256764986
 20
10.15877395948896
  0
LWPOLYLINE
  5
1B5B
330
1F
100
AcDbEntity
  8
OBJECT1
100
AcDbPolyline
 90
        2
 70
     0
 43
0.0
 10
23.24087256764986
 20
10.11437532744955
 10
23.24087256764986
 20
10.15877395948896
  0
LWPOLYLINE
  5
1B5C
330
1F
100
AcDbEntity
  8
OBJECT2
100
AcDbPolyline
 90
        2
 70
     0
 43
0.0
 10
23.24870111649146
 20
10.01549185537887
 10
23.24087256764986
 20
10.07055264889819
  0
LWPOLYLINE
  5
1B5D
330
1F
100
AcDbEntity
  8
OBJECT2
100
AcDbPolyline
 90
        2
 70
     0
 43
0.0
 10
23.24870111649146
 20
10.01549185537887
 10
23.24087256764986
 20
9.939554931615276
  0
LINE
  5
1B5E
330
1F
100
AcDbEntity
  8
OBJECT2
100
AcDbLine
 10
23.2172382429206
 20
10.11437532744954
 30
0.0
 11
23.20542839333773
 21
9.680835529024772
 31
0.0
  0
LINE
  5
1B5F
330
1F
100
AcDbEntity
  8
OBJECT2
100
AcDbLine
 10
23.2172382429206
 20
9.660380269517494
 30
0.0
 11
23.22904809250347
 21
10.13483058695682
 31
0.0
  0
LINE
  5
1B60
330
1F
100
AcDbEntity
  8
OBJECT2
100
AcDbLine
 10
23.24085794208634
 20
10.11437532744954
 30
0.0
 11
23.22904809250347
 21
9.680835529024772
 31
0.0
  0
LWPOLYLINE
  5
1B61
330
1F
100
AcDbEntity
  8
OBJECT2
100
AcDbPolyline
 90
        2
 70
     0
 43
0.0
 10
23.24087256764986
 20
9.660967838665177
 10
23.24087256764986
 20
10.11437532744955
  0
LWPOLYLINE
  5
1B62
330
1F
100
AcDbEntity
  8
OBJECT1
100
AcDbPolyline
 90
        2
 70
     0
 43
0.0
 10
23.37317504307303
 20
9.609629475737943
 10
23.38100359191464
 20
9.639377961336059
  0
LINE
  5
1B63
330
1F
100
AcDbEntity
  8
OBJECT1
100
AcDbLine
 10
23.53350767196975
 20
9.689641517406901
 30
0.0
 11
23.38100359191464
 21
9.689641517406901
 31
0.0
  0
LWPOLYLINE
  5
1B64
330
1F
100
AcDbEntity
  8
OBJECT1
100
AcDbPolyline
 90
        2
 70
     0
 43
0.0
 10
23.38100359191464
 20
9.689641517406901
 10
23.38100359191464
 20
9.639377961336059
  0
LWPOLYLINE
  5
1B65
330
1F
100
AcDbEntity
  8
OBJECT2
100
AcDbPolyline
 90
        2
 70
     0
 43
0.0
 10
23.37317504307303
 20
9.78089634175868
 10
23.38100359191464
 20
9.725835548239375
  0
LWPOLYLINE
  5
1B66
330
1F
100
AcDbEntity
  8
OBJECT2
100
AcDbPolyline
 90
        2
 70
     0
 43
0.0
 10
23.37317504307303
 20
9.78089634175868
 10
23.38100359191464
 20
9.857094217150336
  0
LINE
  5
1B67
330
1F
100
AcDbEntity
  8
OBJECT1
100
AcDbLine
 10
23.53350767196975
 20
10.10648352573472
 30
0.0
 11
23.38100359191464
 21
10.10648352573472
 31
0.0
  0
LWPOLYLINE
  5
1B68
330
1F
100
AcDbEntity
  8
OBJECT1
100
AcDbPolyline
 90
        2
 70
     0
 43
0.0
 10
23.37317504307303
 20
10.18852244508707
 10
23.38100359191464
 20
10.15877395948896
  0
LWPOLYLINE
  5
1B69
330
1F
100
AcDbEntity
  8
OBJECT1
100
AcDbPolyline
 90
        2
 70
     0
 43
0.0
 10
23.38100359191464
 20
10.15877395948896
 10
23.38100359191464
 20
10.10648352573472
  0
LWPOLYLINE
  5
1B6A
330
1F
100
AcDbEntity
  8
OBJECT2
100
AcDbPolyline
 90
        2
 70
     0
 43
0.0
 10
23.37317504307303
 20
10.01549185537887
 10
23.38100359191464
 20
10.07055264889819
  0
LWPOLYLINE
  5
1B6B
330
1F
100
AcDbEntity
  8
OBJECT2
100
AcDbPolyline
 90
        2
 70
     0
 43
0.0
 10
23.37317504307303
 20
10.01549185537887
 10
23.38100359191464
 20
9.939554931615276
  0
LWPOLYLINE
  5
1B6C
330
1F
100
AcDbEntity
  8
OBJECT2
100
AcDbPolyline
 90
        2
 70
     0
 43
0.0
 10
23.38100359191464
 20
10.10648352573472
 10
23.38100359191464
 20
9.689641517406901
  0
LWPOLYLINE
  5
1B6D
330
1F
100
AcDbEntity
  8
OBJECT1
100
AcDbPolyline
 90
        2
 70
     0
 43
0.0
 10
23.53350767196976
 20
9.689641517406901
 10
23.53977051104304
 20
9.695643404852129
  0
LWPOLYLINE
  5
1B6E
330
1F
100
AcDbEntity
  8
OBJECT1
100
AcDbPolyline
 90
        2
 70
     0
 43
0.0
 10
23.53977051104304
 20
9.695643404852129
 10
23.53977051104304
 20
9.7356459118035
  0
LWPOLYLINE
  5
1B6F
330
1F
100
AcDbEntity
  8
OBJECT1
100
AcDbPolyline
 90
        2
 70
     0
 43
0.0
 10
23.53977051104304
 20
10.06047913133814
 10
23.53977051104304
 20
10.1004816382895
  0
LWPOLYLINE
  5
1B70
330
1F
100
AcDbEntity
  8
OBJECT1
100
AcDbPolyline
 90
        2
 70
     0
 43
0.0
 10
23.53977051104304
 20
10.1004816382895
 10
23.53350767196976
 20
10.10648352573472
  0
LWPOLYLINE
  5
1B71
330
1F
100
AcDbEntity
  8
OBJECT2
100
AcDbPolyline
 90
        2
 70
     0
 43
0.0
 10
23.53977051104304
 20
9.7356459118035
 10
23.53977051104304
 20
10.06047913133814
  0
LWPOLYLINE
  5
1B72
330
1F
100
AcDbEntity
  8
OBJECT2
100
AcDbPolyline
 90
        2
 70
     0
 43
0.0
 10
22.04486938508984
 20
9.7356459118035
 10
22.04486938508984
 20
10.06047913133814
  0
LWPOLYLINE
  5
1B73
330
1F
100
AcDbEntity
  8
OBJECT1
100
AcDbPolyline
 90
        2
 70
     0
 43
0.0
 10
22.04486938508984
 20
9.695643404852129
 10
22.04486938508984
 20
9.7356459118035
  0
LWPOLYLINE
  5
1B74
330
1F
100
AcDbEntity
  8
OBJECT1
100
AcDbPolyline
 90
        2
 70
     0
 43
0.0
 10
22.05113222416312
 20
9.689641517406901
 10
22.04486938508984
 20
9.695643404852129
  0
LWPOLYLINE
  5
1B75
330
1F
100
AcDbEntity
  8
OBJECT1
100
AcDbPolyline
 90
        2
 70
     0
 43
0.0
 10
22.04486938508984
 20
10.06047913133814
 10
22.04486938508984
 20
10.1004816382895
  0
LWPOLYLINE
  5
1B76
330
1F
100
AcDbEntity
  8
OBJECT1
100
AcDbPolyline
 90
        2
 70
     0
 43
0.0
 10
22.04486938508984
 20
10.1004816382895
 10
22.05113222416312
 20
10.10648352573472
  0
LINE
  5
1B77
330
1F
100
AcDbEntity
  8
OBJECT2
  6
HIDDEN
100
AcDbLine
 10
22.4142027971087
 20
10.46668381465419
 30
0.0
 11
22.45789924056531
 21
10.46668381465419
 31
0.0
  0
ARC
  5
1B78
330
1F
100
AcDbEntity
  8
OBJECT2
  6
HIDDEN
100
AcDbCircle
 10
22.46774078188437
 20
10.47652902510634
 30
0.0
 40
0.0098415413190563
100
AcDbArc
 50
90.69968972930212
 51
180.0
  0
LINE
  5
1B79
330
1F
100
AcDbEntity
  8
OBJECT2
  6
HIDDEN
100
AcDbLine
 10
22.45789924056531
 20
10.46668381465419
 30
0.0
 11
22.45789924056531
 21
10.47652902510634
 31
0.0
  0
ARC
  5
1B7A
330
1F
100
AcDbEntity
  8
OBJECT2
  6
HIDDEN
100
AcDbCircle
 10
22.46713987774371
 20
10.52573306256853
 30
0.0
 40
0.0393661652762251
100
AcDbArc
 50
270.6996897293021
 51
358.0
  0
ARC
  5
1B7B
330
1F
100
AcDbEntity
  8
OBJECT2
  6
HIDDEN
100
AcDbCircle
 10
22.52159444417813
 20
10.82176280656593
 30
0.0
 40
0.004723939833147
100
AcDbArc
 50
128.0108015603112
 51
178.0
  0
LINE
  5
1B7C
330
1F
100
AcDbEntity
  8
OBJECT2
  6
HIDDEN
100
AcDbLine
 10
22.51868539468379
 20
10.82548477359786
 30
0.0
 11
22.55550854063221
 21
10.85426534934778
 31
0.0
  0
LINE
  5
1B7D
330
1F
100
AcDbEntity
  8
OBJECT2
  6
HIDDEN
100
AcDbLine
 10
22.51687338204149
 20
10.82192766968858
 30
0.0
 11
22.50648206221569
 21
10.52435920321329
 31
0.0
  0
ARC
  5
1B7E
330
1F
100
AcDbEntity
  8
OBJECT2
  6
HIDDEN
100
AcDbCircle
 10
22.50467936215605
 20
10.34509074515212
 30
0.0
 40
0.0884956231618606
100
AcDbArc
 50
193.2663942555793
 51
270.3206463337079
  0
ARC
  5
1B7F
330
1F
100
AcDbEntity
  8
OBJECT2
  6
HIDDEN
100
AcDbCircle
 10
22.40015386511548
 20
10.32044668902305
 30
0.0
 40
0.018895759332588
100
AcDbArc
 50
13.2663942555793
 51
68.17652140407744
  0
ARC
  5
1B80
330
1F
100
AcDbEntity
  8
OBJECT2
  6
HIDDEN
100
AcDbCircle
 10
22.50528035709177
 20
10.23770104434633
 30
0.0
 40
0.018895759332588
100
AcDbArc
 50
0.0
 51
90.32064633370756
  0
ARC
  5
1B81
330
1F
100
AcDbEntity
  8
OBJECT2
  6
HIDDEN
100
AcDbCircle
 10
22.50528035709177
 20
10.18813562354551
 30
0.0
 40
0.018895759332588
100
AcDbArc
 50
314.9485279090155
 51
0.0
  0
LINE
  5
1B82
330
1F
100
AcDbEntity
  8
OBJECT2
  6
HIDDEN
100
AcDbLine
 10
22.52417611642437
 20
10.23770104434633
 30
0.0
 11
22.52417611642437
 21
10.18813562354551
 31
0.0
  0
LINE
  5
1B83
330
1F
100
AcDbEntity
  8
OBJECT2
  6
HIDDEN
100
AcDbLine
 10
22.51862966802042
 20
10.17476230613786
 30
0.0
 11
22.46419985845197
 21
10.1204302036708
 31
0.0
  0
LINE
  5
1B84
330
1F
100
AcDbEntity
  8
OBJECT2
  6
HIDDEN
100
AcDbLine
 10
23.16952928349668
 20
10.35552982447116
 30
0.0
 11
23.16952928349668
 21
10.44778805532161
 31
0.0
  0
LINE
  5
1B85
330
1F
100
AcDbEntity
  8
OBJECT2
  6
HIDDEN
100
AcDbLine
 10
23.00247556780165
 20
11.00215490268453
 30
0.0
 11
23.00751576799828
 21
10.85782245325708
 31
0.0
  0
ARC
  5
1B86
330
1F
100
AcDbEntity
  8
OBJECT2
  6
HIDDEN
100
AcDbCircle
 10
23.1506335241641
 20
10.44778805532161
 30
0.0
 40
0.018895759332588
100
AcDbArc
 50
0.0
 51
89.99999999999998
  0
ARC
  5
1B87
330
1F
100
AcDbEntity
  8
OBJECT2
  6
HIDDEN
100
AcDbCircle
 10
23.09769644352908
 20
10.52573306256853
 30
0.0
 40
0.0393661652762251
100
AcDbArc
 50
182.0
 51
269.3003102706986
  0
LINE
  5
1B88
330
1F
100
AcDbEntity
  8
OBJECT2
  6
HIDDEN
100
AcDbLine
 10
23.10693708070748
 20
10.46668381465419
 30
0.0
 11
23.10693708070748
 21
10.47652902510634
 31
0.0
  0
ARC
  5
1B89
330
1F
100
AcDbEntity
  8
OBJECT2
  6
HIDDEN
100
AcDbCircle
 10
23.09709553938843
 20
10.47652902510634
 30
0.0
 40
0.0098415413190563
100
AcDbArc
 50
0.0
 51
89.30031027069784
  0
LINE
  5
1B8A
330
1F
100
AcDbEntity
  8
OBJECT2
  6
HIDDEN
100
AcDbLine
 10
23.10693708070749
 20
10.46668381465419
 30
0.0
 11
23.1506335241641
 21
10.46668381465419
 31
0.0
  0
LINE
  5
1B8B
330
1F
100
AcDbEntity
  8
OBJECT2
  6
HIDDEN
100
AcDbLine
 10
23.046150926589
 20
10.82548477359786
 30
0.0
 11
23.00932778064059
 21
10.85426534934778
 31
0.0
  0
ARC
  5
1B8C
330
1F
100
AcDbEntity
  8
OBJECT2
  6
HIDDEN
100
AcDbCircle
 10
23.04324187709467
 20
10.82176280656593
 30
0.0
 40
0.004723939833147
100
AcDbArc
 50
1.999999999999964
 51
51.98919843968885
  0
ARC
  5
1B8D
330
1F
100
AcDbEntity
  8
OBJECT2
  6
HIDDEN
100
AcDbCircle
 10
23.01223683013493
 20
10.85798731637969
 30
0.0
 40
0.004723939833147
100
AcDbArc
 50
182.0
 51
231.9891984396892
  0
LINE
  5
1B8E
330
1F
100
AcDbEntity
  8
OBJECT2
  6
HIDDEN
100
AcDbLine
 10
23.04796293923132
 20
10.82192766968858
 30
0.0
 11
23.0583542590571
 21
10.52435920321329
 31
0.0
  0
ARC
  5
1B8F
330
1F
100
AcDbEntity
  8
OBJECT2
  6
HIDDEN
100
AcDbCircle
 10
23.15063352416419
 20
10.35552982447116
 30
0.0
 40
0.018895759332588
100
AcDbArc
 50
291.8234785959224
 51
0.0
  0
ARC
  5
1B90
330
1F
100
AcDbEntity
  8
OBJECT2
  6
HIDDEN
100
AcDbCircle
 10
23.15765799016071
 20
10.3379882567471
 30
0.0
 40
0.0000000000000016
100
AcDbArc
 50
243.4349488229218
 51
315.0000000000001
  0
LINE
  5
1B91
330
1F
100
AcDbEntity
  8
OBJECT2
  6
HIDDEN
100
AcDbLine
 10
22.69384428876489
 20
11.45595617790438
 30
0.0
 11
22.8709920325079
 21
11.45595617790438
 31
0.0
  0
LINE
  5
1B92
330
1F
100
AcDbEntity
  8
OBJECT2
  6
HIDDEN
100
AcDbLine
 10
22.68357483326652
 20
11.14370998611293
 30
0.0
 11
22.56469721460813
 21
11.00805189159113
 31
0.0
  0
LINE
  5
1B93
330
1F
100
AcDbEntity
  8
OBJECT2
  6
HIDDEN
100
AcDbLine
 10
22.68014139902622
 20
11.22180276261884
 30
0.0
 11
22.69384428876489
 21
11.2355053374282
 31
0.0
  0
LINE
  5
1B94
330
1F
100
AcDbEntity
  8
OBJECT2
  6
HIDDEN
100
AcDbLine
 10
22.69384428876489
 20
11.2355053374282
 30
0.0
 11
22.72336891272206
 21
11.2355053374282
 31
0.0
  0
LINE
  5
1B95
330
1F
100
AcDbEntity
  8
OBJECT2
  6
HIDDEN
100
AcDbLine
 10
22.68014139902622
 20
11.37722384735193
 30
0.0
 11
22.68014139902622
 21
11.44225360309504
 31
0.0
  0
LINE
  5
1B96
330
1F
100
AcDbEntity
  8
OBJECT2
  6
HIDDEN
100
AcDbLine
 10
22.68014139902622
 20
11.44225360309504
 30
0.0
 11
22.69384428876489
 21
11.45595617790438
 31
0.0
  0
LINE
  5
1B97
330
1F
100
AcDbEntity
  8
OBJECT2
  6
HIDDEN
100
AcDbLine
 10
22.68014139902622
 20
11.37722384735193
 30
0.0
 11
22.72336891272206
 21
11.37722384735193
 31
0.0
  0
LINE
  5
1B98
330
1F
100
AcDbEntity
  8
OBJECT2
  6
HIDDEN
100
AcDbLine
 10
22.72336891272206
 20
11.37722384735193
 30
0.0
 11
22.72336891272206
 21
11.2355053374282
 31
0.0
  0
ARC
  5
1B99
330
1F
100
AcDbEntity
  8
OBJECT2
  6
HIDDEN
100
AcDbCircle
 10
22.69068049640281
 20
11.13748327096107
 30
0.0
 40
0.009447879666294
100
AcDbArc
 50
89.99999999999998
 51
138.7718132535709
  0
LINE
  5
1B9A
330
1F
100
AcDbEntity
  8
OBJECT2
  6
HIDDEN
100
AcDbLine
 10
22.68014139902622
 20
11.16063372543671
 30
0.0
 11
22.68014139902622
 21
11.22180276261884
 31
0.0
  0
LINE
  5
1B9B
330
1F
100
AcDbEntity
  8
OBJECT2
  6
HIDDEN
100
AcDbLine
 10
22.68014139902622
 20
11.16063372543671
 30
0.0
 11
22.69384428876489
 21
11.14693115062737
 31
0.0
  0
LINE
  5
1B9C
330
1F
100
AcDbEntity
  8
OBJECT2
  6
HIDDEN
100
AcDbLine
 10
22.56236075347115
 20
11.00215490268453
 30
0.0
 11
22.55732055327451
 21
10.85782245325708
 31
0.0
  0
ARC
  5
1B9D
330
1F
100
AcDbEntity
  8
OBJECT2
  6
HIDDEN
100
AcDbCircle
 10
22.57180287774442
 20
11.00182517643927
 30
0.0
 40
0.009447879666294
100
AcDbArc
 50
138.7718132535712
 51
178.0
  0
ARC
  5
1B9E
330
1F
100
AcDbEntity
  8
OBJECT2
  6
HIDDEN
100
AcDbCircle
 10
22.55259949113788
 20
10.85798731637969
 30
0.0
 40
0.004723939833147
100
AcDbArc
 50
308.0108015603108
 51
358.0
  0
LINE
  5
1B9F
330
1F
100
AcDbEntity
  8
OBJECT2
  6
HIDDEN
100
AcDbLine
 10
22.88126148800627
 20
11.14370998611293
 30
0.0
 11
23.00013910666466
 21
11.00805189159113
 31
0.0
  0
LINE
  5
1BA0
330
1F
100
AcDbEntity
  8
OBJECT2
  6
HIDDEN
100
AcDbLine
 10
22.88469460731725
 20
11.22180276261884
 30
0.0
 11
22.8709920325079
 21
11.2355053374282
 31
0.0
  0
LINE
  5
1BA1
330
1F
100
AcDbEntity
  8
OBJECT2
  6
HIDDEN
100
AcDbLine
 10
22.84146740855073
 20
11.2355053374282
 30
0.0
 11
22.8709920325079
 21
11.2355053374282
 31
0.0
  0
LINE
  5
1BA2
330
1F
100
AcDbEntity
  8
OBJECT2
  6
HIDDEN
100
AcDbLine
 10
22.88469460731725
 20
11.44225360309504
 30
0.0
 11
22.8709920325079
 21
11.45595617790438
 31
0.0
  0
LINE
  5
1BA3
330
1F
100
AcDbEntity
  8
OBJECT2
  6
HIDDEN
100
AcDbLine
 10
22.88469460731725
 20
11.37722384735193
 30
0.0
 11
22.84146740855073
 21
11.37722384735193
 31
0.0
  0
LINE
  5
1BA4
330
1F
100
AcDbEntity
  8
OBJECT2
  6
HIDDEN
100
AcDbLine
 10
22.88469460731725
 20
11.37722384735193
 30
0.0
 11
22.88469460731725
 21
11.44225360309504
 31
0.0
  0
LINE
  5
1BA5
330
1F
100
AcDbEntity
  8
OBJECT2
  6
HIDDEN
100
AcDbLine
 10
22.84146740855073
 20
11.2355053374282
 30
0.0
 11
22.84146740855073
 21
11.37722384735193
 31
0.0
  0
ARC
  5
1BA6
330
1F
100
AcDbEntity
  8
OBJECT2
  6
HIDDEN
100
AcDbCircle
 10
22.87415582486999
 20
11.13748327096107
 30
0.0
 40
0.009447879666294
100
AcDbArc
 50
41.22818674642887
 51
89.99999999999998
  0
LINE
  5
1BA7
330
1F
100
AcDbEntity
  8
OBJECT2
  6
HIDDEN
100
AcDbLine
 10
22.88469460731725
 20
11.22180276261884
 30
0.0
 11
22.88469460731725
 21
11.16063372543671
 31
0.0
  0
LINE
  5
1BA8
330
1F
100
AcDbEntity
  8
OBJECT2
  6
HIDDEN
100
AcDbLine
 10
22.88469460731725
 20
11.16063372543671
 30
0.0
 11
22.8709920325079
 21
11.14693115062737
 31
0.0
  0
ARC
  5
1BA9
330
1F
100
AcDbEntity
  8
OBJECT2
  6
HIDDEN
100
AcDbCircle
 10
22.99303344352838
 20
11.00182517643927
 30
0.0
 40
0.009447879666294
100
AcDbArc
 50
1.999999999999964
 51
41.22818674642887
  0
LINE
  5
1BAA
330
1F
100
AcDbEntity
  8
TEXT
100
AcDbLine
 10
22.8789271389761
 20
10.26652915006446
 30
0.0
 11
24.16517389486145
 21
14.30325386207919
 31
0.0
  0
SOLID
  5
1BAD
330
1F
100
AcDbEntity
  8
TEXT
100
AcDbTrace
 10
22.85399579359888
 20
10.27472557227413
 30
0.0
 11
22.90385848435332
 21
10.25833272785478
 31
0.0
 12
22.82974860571805
 22
10.11694107780109
 32
0.0
 13
22.82974860571805
 23
10.11694107780109
 33
0.0
  0
LINE
  5
1BAF
330
1F
100
AcDbEntity
  8
TEXT
100
AcDbLine
 10
24.16517389486145
 20
14.30325386207919
 30
0.0
 11
25.68512943644022
 21
14.30325386207919
 31
0.0
  0
TEXT
  5
1BB3
330
1F
100
AcDbEntity
  8
TEXT
100
AcDbText
 10
24.47779605921303
 20
13.37296649919808
 30
0.0
 40
0.2361969916573503
  1
OF WILKINS MODEL BR4 OR 70DU)
  7
ROMANS
 72
     2
 11
30.84386735816828
 21
13.49106499502676
 31
0.0
100
AcDbText
 73
     2
  0
TEXT
  5
1BB4
330
1F
100
AcDbEntity
  8
TEXT
100
AcDbText
 10
24.45530110762661
 20
13.76928408252869
 30
0.0
 40
0.2361969916573503
  1
(FOR TEMPORARY SYSYTEM BYPASS
  7
ROMANS
 72
     2
 11
30.84386735816828
 21
13.88738257835736
 31
0.0
100
AcDbText
 73
     2
  0
TEXT
  5
1BB5
330
1F
100
AcDbEntity
  8
TEXT
100
AcDbText
 10
25.81029845821112
 20
14.1788246067758
 30
0.0
 40
0.2361969916573503
  1
WILKINS MODEL DUSPC
  7
ROMANS
 72
     2
 11
29.93812207431815
 21
14.29692310260448
 31
0.0
100
AcDbText
 73
     2
  0
ENDSEC
  0
SECTION
  2
OBJECTS
  0
DICTIONARY
  5
C
330
0
100
AcDbDictionary
  3
ACAD_GROUP
350
D
  3
ACAD_LAYOUT
350
1A
  3
ACAD_MLINESTYLE
350
17
  3
ACAD_PLOTSETTINGS
350
19
  3
ACAD_PLOTSTYLENAME
350
E
  3
ACDBHEADERROUNDTRIPXREC
350
1D84
  3
ACDBVARIABLEDICTIONARY
350
178
  0
DICTIONARY
  5
1DA6
330
1F
100
AcDbDictionary
280
     1
  3
ACAD_LAYOUTSELFREF
360
1DA7
  0
DICTIONARY
  5
1DA4
330
1B
100
AcDbDictionary
280
     1
  3
ACAD_LAYOUTSELFREF
360
1DA5
  0
DICTIONARY
  5
D
102
{ACAD_REACTORS
330
C
102
}
330
C
100
AcDbDictionary
  0
DICTIONARY
  5
1A
102
{ACAD_REACTORS
330
C
102
}
330
C
100
AcDbDictionary
  0
DICTIONARY
  5
17
102
{ACAD_REACTORS
330
C
102
}
330
C
100
AcDbDictionary
  3
STANDARD
350
18
  0
DICTIONARY
  5
19
102
{ACAD_REACTORS
330
C
102
}
330
C
100
AcDbDictionary
  0
ACDBDICTIONARYWDFLT
  5
E
102
{ACAD_REACTORS
330
C
102
}
330
C
100
AcDbDictionary
281
     1
  3
Normal
350
F
100
AcDbDictionaryWithDefault
340
F
  0
DICTIONARY
  5
1D84
102
{ACAD_REACTORS
330
C
102
}
330
C
100
AcDbDictionary
  3
CEPSNTYPE
350
1D8E
  3
FINGERPRINTGUID
350
1D8F
  3
HYPERLINKBASE
350
1D87
  3
INSUNITS
350
1D8D
  3
LAYOUTDICT
350
1D89
  3
LWETCUNION
350
1D8C
  3
PLOTSETDICT
350
1D8A
  3
PLOTSTYLNAMDICT
350
1D8B
  3
PSVPSCALE
350
1D91
  3
PUCSBASE
350
1D94
  3
PUCSORGBACK
350
1D9A
  3
PUCSORGBOTTOM
350
1D96
  3
PUCSORGFRONT
350
1D99
  3
PUCSORGLEFT
350
1D97
  3
PUCSORGRIGHT
350
1D98
  3
PUCSORGTOP
350
1D95
  3
PUCSORTHOREF
350
1D92
  3
PUCSORTHOVIEW
350
1D93
  3
STYLESHEET
350
1D88
  3
TSTACKALIGN
350
1D85
  3
TSTACKSIZE
350
1D86
  3
UCSBASE
350
1D9D
  3
UCSORGBACK
350
1DA3
  3
UCSORGBOTTOM
350
1D9F
  3
UCSORGFRONT
350
1DA2
  3
UCSORGLEFT
350
1DA0
  3
UCSORGRIGHT
350
1DA1
  3
UCSORGTOP
350
1D9E
  3
UCSORTHOREF
350
1D9B
  3
UCSORTHOVIEW
350
1D9C
  3
VERSIONGUID
350
1D90
  0
DICTIONARY
  5
178
102
{ACAD_REACTORS
330
C
102
}
330
C
100
AcDbDictionary
  3
DIMASSOC
350
286
  3
SORTENTS
350
179
  0
XRECORD
  5
1DA7
102
{ACAD_REACTORS
330
1DA6
102
}
330
1DA6
100
AcDbXrecord
340
1F
  0
XRECORD
  5
1DA5
102
{ACAD_REACTORS
330
1DA4
102
}
330
1DA4
100
AcDbXrecord
340
1B
  0
MLINESTYLE
  5
18
102
{ACAD_REACTORS
330
17
102
}
330
17
100
AcDbMlineStyle
  2
STANDARD
 70
     0
  3

 62
   256
 51
90.0
 52
90.0
 71
     2
 49
0.5
 62
   256
  6
BYLAYER
 49
-0.5
 62
   256
  6
BYLAYER
  0
ACDBPLACEHOLDER
  5
F
102
{ACAD_REACTORS
330
E
102
}
330
E
100
AcDbPlaceHolder
280
     0
  0
XRECORD
  5
1D8E
102
{ACAD_REACTORS
330
1D84
102
}
330
1D84
100
AcDbXrecord
 90
        0
  0
XRECORD
  5
1D8F
102
{ACAD_REACTORS
330
1D84
102
}
330
1D84
100
AcDbXrecord
  1
{FDEAD576-A652-11D2-9A35-0060089B3A3F}
  0
XRECORD
  5
1D87
102
{ACAD_REACTORS
330
1D84
102
}
330
1D84
100
AcDbXrecord
  1

  0
XRECORD
  5
1D8D
102
{ACAD_REACTORS
330
1D84
102
}
330
1D84
100
AcDbXrecord
 90
        1
  0
XRECORD
  5
1D89
102
{ACAD_REACTORS
330
1D84
102
}
330
1D84
100
AcDbXrecord
340
1A
  0
XRECORD
  5
1D8C
102
{ACAD_REACTORS
330
1D84
102
}
330
1D84
100
AcDbXrecord
 90
    11805
  0
XRECORD
  5
1D8A
102
{ACAD_REACTORS
330
1D84
102
}
330
1D84
100
AcDbXrecord
340
19
  0
XRECORD
  5
1D8B
102
{ACAD_REACTORS
330
1D84
102
}
330
1D84
100
AcDbXrecord
340
E
  0
XRECORD
  5
1D91
102
{ACAD_REACTORS
330
1D84
102
}
330
1D84
100
AcDbXrecord
 40
0.0
  0
XRECORD
  5
1D94
102
{ACAD_REACTORS
330
1D84
102
}
330
1D84
100
AcDbXrecord
340
0
  0
XRECORD
  5
1D9A
102
{ACAD_REACTORS
330
1D84
102
}
330
1D84
100
AcDbXrecord
 10
0.0
 20
0.0
 30
0.0
  0
XRECORD
  5
1D96
102
{ACAD_REACTORS
330
1D84
102
}
330
1D84
100
AcDbXrecord
 10
0.0
 20
0.0
 30
0.0
  0
XRECORD
  5
1D99
102
{ACAD_REACTORS
330
1D84
102
}
330
1D84
100
AcDbXrecord
 10
0.0
 20
0.0
 30
0.0
  0
XRECORD
  5
1D97
102
{ACAD_REACTORS
330
1D84
102
}
330
1D84
100
AcDbXrecord
 10
0.0
 20
0.0
 30
0.0
  0
XRECORD
  5
1D98
102
{ACAD_REACTORS
330
1D84
102
}
330
1D84
100
AcDbXrecord
 10
0.0
 20
0.0
 30
0.0
  0
XRECORD
  5
1D95
102
{ACAD_REACTORS
330
1D84
102
}
330
1D84
100
AcDbXrecord
 10
0.0
 20
0.0
 30
0.0
  0
XRECORD
  5
1D92
102
{ACAD_REACTORS
330
1D84
102
}
330
1D84
100
AcDbXrecord
340
0
  0
XRECORD
  5
1D93
102
{ACAD_REACTORS
330
1D84
102
}
330
1D84
100
AcDbXrecord
 70
     0
  0
XRECORD
  5
1D88
102
{ACAD_REACTORS
330
1D84
102
}
330
1D84
100
AcDbXrecord
  1
WILKINS.ctb
  0
XRECORD
  5
1D85
102
{ACAD_REACTORS
330
1D84
102
}
330
1D84
100
AcDbXrecord
 90
        1
  0
XRECORD
  5
1D86
102
{ACAD_REACTORS
330
1D84
102
}
330
1D84
100
AcDbXrecord
 90
       70
  0
XRECORD
  5
1D9D
102
{ACAD_REACTORS
330
1D84
102
}
330
1D84
100
AcDbXrecord
340
0
  0
XRECORD
  5
1DA3
102
{ACAD_REACTORS
330
1D84
102
}
330
1D84
100
AcDbXrecord
 10
0.0
 20
0.0
 30
0.0
  0
XRECORD
  5
1D9F
102
{ACAD_REACTORS
330
1D84
102
}
330
1D84
100
AcDbXrecord
 10
0.0
 20
0.0
 30
0.0
  0
XRECORD
  5
1DA2
102
{ACAD_REACTORS
330
1D84
102
}
330
1D84
100
AcDbXrecord
 10
0.0
 20
0.0
 30
0.0
  0
XRECORD
  5
1DA0
102
{ACAD_REACTORS
330
1D84
102
}
330
1D84
100
AcDbXrecord
 10
0.0
 20
0.0
 30
0.0
  0
XRECORD
  5
1DA1
102
{ACAD_REACTORS
330
1D84
102
}
330
1D84
100
AcDbXrecord
 10
0.0
 20
0.0
 30
0.0
  0
XRECORD
  5
1D9E
102
{ACAD_REACTORS
330
1D84
102
}
330
1D84
100
AcDbXrecord
 10
0.0
 20
0.0
 30
0.0
  0
XRECORD
  5
1D9B
102
{ACAD_REACTORS
330
1D84
102
}
330
1D84
100
AcDbXrecord
340
0
  0
XRECORD
  5
1D9C
102
{ACAD_REACTORS
330
1D84
102
}
330
1D84
100
AcDbXrecord
 70
     0
  0
XRECORD
  5
1D90
102
{ACAD_REACTORS
330
1D84
102
}
330
1D84
100
AcDbXrecord
  1
{F45FB11D-8B16-497E-830A-16A56DC846E5}
  0
DICTIONARYVAR
  5
286
102
{ACAD_REACTORS
330
178
102
}
330
178
100
DictionaryVariables
280
     0
  1
1
  0
DICTIONARYVAR
  5
179
102
{ACAD_REACTORS
330
178
102
}
330
178
100
DictionaryVariables
280
     0
  1
96
  0
ENDSEC
  0
EOF
