  0
SECTION
  2
HEADER
  9
$ACADVER
  1
AC1014
  9
$ACADMAINTVER
 70
     9
  9
$DWGCODEPAGE
  3
ANSI_1252
  9
$INSBASE
 10
7.868575874111698
 20
6.416832024225752
 30
0.0
  9
$EXTMIN
 10
1.395332411391819
 20
5.454136858584135
 30
-0.0015258207003583
  9
$EXTMAX
 10
30.33057410762479
 20
16.87725986170941
 30
0.0000000349246037
  9
$LIMMIN
 10
0.0
 20
0.0
  9
$LIMMAX
 10
31.5
 20
20.58643722898182
  9
$ORTHOMODE
 70
     0
  9
$REGENMODE
 70
     1
  9
$FILLMODE
 70
     1
  9
$QTEXTMODE
 70
     0
  9
$MIRRTEXT
 70
     0
  9
$DRAGMODE
 70
     2
  9
$LTSCALE
 40
1.0
  9
$OSMODE
 70
    37
  9
$ATTMODE
 70
     1
  9
$TEXTSIZE
 40
0.2
  9
$TRACEWID
 40
0.05
  9
$TEXTSTYLE
  7
ROMANS
  9
$CLAYER
  8
0
  9
$CELTYPE
  6
BYLAYER
  9
$CECOLOR
 62
   256
  9
$CELTSCALE
 40
1.0
  9
$DELOBJ
 70
     1
  9
$DISPSILH
 70
     0
  9
$DIMSCALE
 40
1.0
  9
$DIMASZ
 40
0.25
  9
$DIMEXO
 40
0.25
  9
$DIMDLI
 40
0.015
  9
$DIMRND
 40
0.0
  9
$DIMDLE
 40
0.0
  9
$DIMEXE
 40
0.25
  9
$DIMTP
 40
0.0
  9
$DIMTM
 40
0.0
  9
$DIMTXT
 40
0.25
  9
$DIMCEN
 40
0.09
  9
$DIMTSZ
 40
0.0
  9
$DIMTOL
 70
     0
  9
$DIMLIM
 70
     0
  9
$DIMTIH
 70
     1
  9
$DIMTOH
 70
     1
  9
$DIMSE1
 70
     0
  9
$DIMSE2
 70
     0
  9
$DIMTAD
 70
     0
  9
$DIMZIN
 70
     1
  9
$DIMBLK
  1

  9
$DIMASO
 70
     1
  9
$DIMSHO
 70
     1
  9
$DIMPOST
  1
"
  9
$DIMAPOST
  1

  9
$DIMALT
 70
     0
  9
$DIMALTD
 70
     2
  9
$DIMALTF
 40
25.4
  9
$DIMLFAC
 40
1.0
  9
$DIMTOFL
 70
     0
  9
$DIMTVP
 40
0.0
  9
$DIMTIX
 70
     0
  9
$DIMSOXD
 70
     0
  9
$DIMSAH
 70
     0
  9
$DIMBLK1
  1

  9
$DIMBLK2
  1

  9
$DIMSTYLE
  2
STANDARD
  9
$DIMCLRD
 70
   256
  9
$DIMCLRE
 70
   256
  9
$DIMCLRT
 70
     2
  9
$DIMTFAC
 40
1.0
  9
$DIMGAP
 40
0.03
  9
$DIMJUST
 70
     0
  9
$DIMSD1
 70
     0
  9
$DIMSD2
 70
     0
  9
$DIMTOLJ
 70
     1
  9
$DIMTZIN
 70
     1
  9
$DIMALTZ
 70
     1
  9
$DIMALTTZ
 70
     1
  9
$DIMFIT
 70
     5
  9
$DIMUPT
 70
     0
  9
$DIMUNIT
 70
     2
  9
$DIMDEC
 70
     3
  9
$DIMTDEC
 70
     3
  9
$DIMALTU
 70
     2
  9
$DIMALTTD
 70
     2
  9
$DIMTXSTY
  7
STANDARD
  9
$DIMAUNIT
 70
     0
  9
$LUNITS
 70
     2
  9
$LUPREC
 70
     3
  9
$SKETCHINC
 40
0.1
  9
$FILLETRAD
 40
0.2
  9
$AUNITS
 70
     0
  9
$AUPREC
 70
     0
  9
$MENU
  1
acad
  9
$ELEVATION
 40
0.0
  9
$PELEVATION
 40
0.0
  9
$THICKNESS
 40
0.0
  9
$LIMCHECK
 70
     0
  9
$BLIPMODE
 70
     0
  9
$CHAMFERA
 40
0.0
  9
$CHAMFERB
 40
0.0
  9
$CHAMFERC
 40
0.0
  9
$CHAMFERD
 40
0.0
  9
$SKPOLY
 70
     0
  9
$TDCREATE
 40
2451151.413464930
  9
$TDUPDATE
 40
2452551.684993206
  9
$TDINDWG
 40
0.0162320023
  9
$TDUSRTIMER
 40
0.0162320023
  9
$USRTIMER
 70
     1
  9
$ANGBASE
 50
0.0
  9
$ANGDIR
 70
     0
  9
$PDMODE
 70
     3
  9
$PDSIZE
 40
-2.5
  9
$PLINEWID
 40
0.0
  9
$COORDS
 70
     0
  9
$SPLFRAME
 70
     0
  9
$SPLINETYPE
 70
     6
  9
$SPLINESEGS
 70
     8
  9
$ATTDIA
 70
     0
  9
$ATTREQ
 70
     1
  9
$HANDLING
 70
 22529
  9
$HANDSEED
  5
EB5
  9
$SURFTAB1
 70
     6
  9
$SURFTAB2
 70
     6
  9
$SURFTYPE
 70
     6
  9
$SURFU
 70
     6
  9
$SURFV
 70
     6
  9
$UCSNAME
  2

  9
$UCSORG
 10
0.0
 20
0.0
 30
0.0
  9
$UCSXDIR
 10
1.0
 20
0.0
 30
0.0
  9
$UCSYDIR
 10
0.0
 20
1.0
 30
0.0
  9
$PUCSNAME
  2

  9
$PUCSORG
 10
0.0
 20
0.0
 30
0.0
  9
$PUCSXDIR
 10
1.0
 20
0.0
 30
0.0
  9
$PUCSYDIR
 10
0.0
 20
1.0
 30
0.0
  9
$USERI1
 70
     0
  9
$USERI2
 70
     0
  9
$USERI3
 70
     0
  9
$USERI4
 70
     0
  9
$USERI5
 70
     0
  9
$USERR1
 40
0.0
  9
$USERR2
 40
0.0
  9
$USERR3
 40
0.0
  9
$USERR4
 40
0.0
  9
$USERR5
 40
0.0
  9
$WORLDVIEW
 70
     1
  9
$SHADEDGE
 70
     3
  9
$SHADEDIF
 70
    70
  9
$TILEMODE
 70
     1
  9
$MAXACTVP
 70
    16
  9
$PINSBASE
 10
-8.816689701833118E+99
 20
0.0
 30
0.0
  9
$PLIMCHECK
 70
     0
  9
$PEXTMIN
 10
1.000000000000000E+20
 20
1.000000000000000E+20
 30
1.000000000000000E+20
  9
$PEXTMAX
 10
-1.000000000000000E+20
 20
-1.000000000000000E+20
 30
-1.000000000000000E+20
  9
$PLIMMIN
 10
0.0
 20
0.0
  9
$PLIMMAX
 10
12.0
 20
9.0
  9
$UNITMODE
 70
     0
  9
$VISRETAIN
 70
     0
  9
$PLINEGEN
 70
     0
  9
$PSLTSCALE
 70
     1
  9
$TREEDEPTH
 70
  3020
  9
$PICKSTYLE
 70
     1
  9
$CMLSTYLE
  2
STANDARD
  9
$CMLJUST
 70
     0
  9
$CMLSCALE
 40
1.0
  9
$PROXYGRAPHICS
 70
     1
  9
$MEASUREMENT
 70
     0
  0
ENDSEC
  0
SECTION
  2
CLASSES
  0
CLASS
  1
ACDBDICTIONARYWDFLT
  2
AcDbDictionaryWithDefault
  3
AutoCAD 2000
 90
        0
280
     0
281
     0
  0
CLASS
  1
ACDBPLACEHOLDER
  2
AcDbPlaceHolder
  3
AutoCAD 2000
 90
        0
280
     0
281
     0
  0
CLASS
  1
LAYOUT
  2
AcDbLayout
  3
AutoCAD 2000
 90
        0
280
     0
281
     0
  0
CLASS
  1
DICTIONARYVAR
  2
AcDbDictionaryVar
  3
AutoCAD 2000
 90
        0
280
     0
281
     0
  0
CLASS
  1
LONG_TRANSACTION
  2
AcDbLongTransaction
  3
AutoCAD 2000
 90
        0
280
     0
281
     0
  0
CLASS
  1
LWPOLYLINE
  2
AcDbPolyline
  3
AutoCAD 2000
 90
        0
280
     0
281
     1
  0
CLASS
  1
HATCH
  2
AcDbHatch
  3
AutoCAD 2000
 90
        0
280
     0
281
     1
  0
CLASS
  1
XRECORD
  2
AcDbXrecord
  3
AutoCAD 2000
 90
        0
280
     0
281
     0
  0
ENDSEC
  0
SECTION
  2
TABLES
  0
TABLE
  2
VPORT
  5
8
330
0
100
AcDbSymbolTable
 70
     2
  0
VPORT
  5
E8F
330
8
100
AcDbSymbolTableRecord
100
AcDbViewportTableRecord
  2
*ACTIVE
 70
     0
 10
0.0
 20
0.0
 11
1.0
 21
1.0
 12
15.75
 22
10.29321861449091
 13
0.0
 23
0.0
 14
1.0
 24
1.0
 15
0.5
 25
0.5
 16
0.0
 26
0.0
 36
1.0
 17
0.0
 27
0.0
 37
0.0
 40
20.89523378741655
 41
1.781954887218044
 42
50.0
 43
0.0
 44
0.0
 50
0.0
 51
0.0
 71
     0
 72
   100
 73
     1
 74
     1
 75
     0
 76
     0
 77
     0
 78
     0
  0
ENDTAB
  0
TABLE
  2
LTYPE
  5
5
330
0
100
AcDbSymbolTable
 70
     1
  0
LTYPE
  5
13
330
5
100
AcDbSymbolTableRecord
100
AcDbLinetypeTableRecord
  2
BYBLOCK
 70
     0
  3

 72
    65
 73
     0
 40
0.0
  0
LTYPE
  5
14
330
5
100
AcDbSymbolTableRecord
100
AcDbLinetypeTableRecord
  2
BYLAYER
 70
     0
  3

 72
    65
 73
     0
 40
0.0
  0
LTYPE
  5
15
330
5
100
AcDbSymbolTableRecord
100
AcDbLinetypeTableRecord
  2
CONTINUOUS
 70
     0
  3
Solid line
 72
    65
 73
     0
 40
0.0
  0
ENDTAB
  0
TABLE
  2
LAYER
  5
2
330
0
100
AcDbSymbolTable
 70
     4
  0
LAYER
  5
10
330
2
100
AcDbSymbolTableRecord
100
AcDbLayerTableRecord
  2
0
 70
     0
 62
     7
  6
CONTINUOUS
  0
LAYER
  5
24
330
2
100
AcDbSymbolTableRecord
100
AcDbLayerTableRecord
  2
OBJECT1
 70
     0
 62
     7
  6
CONTINUOUS
  0
LAYER
  5
25
330
2
100
AcDbSymbolTableRecord
100
AcDbLayerTableRecord
  2
OBJECT2
 70
     0
 62
     8
  6
CONTINUOUS
  0
LAYER
  5
BFD
330
2
100
AcDbSymbolTableRecord
100
AcDbLayerTableRecord
  2
TEXT
 70
     0
 62
     7
  6
CONTINUOUS
  0
ENDTAB
  0
TABLE
  2
STYLE
  5
3
330
0
100
AcDbSymbolTable
 70
     2
  0
STYLE
  5
11
330
3
100
AcDbSymbolTableRecord
100
AcDbTextStyleTableRecord
  2
STANDARD
 70
     0
 40
0.0
 41
1.0
 50
0.0
 71
     0
 42
0.2
  3
txt
  4

  0
STYLE
  5
22
330
3
100
AcDbSymbolTableRecord
100
AcDbTextStyleTableRecord
  2
ROMANS
 70
     0
 40
0.2
 41
1.0
 50
0.0
 71
     0
 42
0.2
  3
romans
  4

  0
ENDTAB
  0
TABLE
  2
VIEW
  5
6
330
0
100
AcDbSymbolTable
 70
     0
  0
ENDTAB
  0
TABLE
  2
UCS
  5
7
330
0
100
AcDbSymbolTable
 70
     0
  0
ENDTAB
  0
TABLE
  2
APPID
  5
9
330
0
100
AcDbSymbolTable
 70
     1
  0
APPID
  5
12
330
9
100
AcDbSymbolTableRecord
100
AcDbRegAppTableRecord
  2
ACAD
 70
     0
  0
ENDTAB
  0
TABLE
  2
DIMSTYLE
  5
A
330
0
100
AcDbSymbolTable
 70
     1
  0
DIMSTYLE
105
1C4
330
A
100
AcDbSymbolTableRecord
100
AcDbDimStyleTableRecord
  2
STANDARD
 70
     0
  3

  4

  5

  6

  7

 40
1.0
 41
0.18
 42
0.0625
 43
0.38
 44
0.18
 45
0.0
 46
0.0
 47
0.0
 48
0.0
140
0.18
141
0.09
142
0.0
143
25.4
144
1.0
145
0.0
146
1.0
147
0.09
 71
     0
 72
     0
 73
     1
 74
     1
 75
     0
 76
     0
 77
     0
 78
     0
170
     0
171
     2
172
     0
173
     0
174
     0
175
     0
176
     0
177
     0
178
     0
270
     2
271
     4
272
     4
273
     2
274
     2
340
11
275
     0
280
     0
281
     0
282
     0
283
     1
284
     0
285
     0
286
     0
287
     3
288
     0
  0
ENDTAB
  0
TABLE
  2
BLOCK_RECORD
  5
1
330
0
100
AcDbSymbolTable
 70
     3
  0
BLOCK_RECORD
  5
1E
102
{ACAD_XDICTIONARY
360
EB3
102
}
330
1
100
AcDbSymbolTableRecord
100
AcDbBlockTableRecord
  2
*MODEL_SPACE
  0
BLOCK_RECORD
  5
1A
102
{ACAD_XDICTIONARY
360
EB1
102
}
330
1
100
AcDbSymbolTableRecord
100
AcDbBlockTableRecord
  2
*PAPER_SPACE
  0
BLOCK_RECORD
  5
1D0
330
1
100
AcDbSymbolTableRecord
100
AcDbBlockTableRecord
  2
*X0
  0
BLOCK_RECORD
  5
244
330
1
100
AcDbSymbolTableRecord
100
AcDbBlockTableRecord
  2
*X1
  0
BLOCK_RECORD
  5
BF1
330
1
100
AcDbSymbolTableRecord
100
AcDbBlockTableRecord
  2
SPECSHEET_FLOWARROW
  0
ENDTAB
  0
ENDSEC
  0
SECTION
  2
BLOCKS
  0
BLOCK
  5
2B
330
1E
100
AcDbEntity
  8
0
100
AcDbBlockBegin
  2
*MODEL_SPACE
 70
     0
 10
0.0
 20
0.0
 30
0.0
  3
*MODEL_SPACE
  1

  0
ENDBLK
  5
2C
330
1E
100
AcDbEntity
  8
0
100
AcDbBlockEnd
  0
BLOCK
  5
29
330
1A
100
AcDbEntity
 67
     1
  8
0
100
AcDbBlockBegin
  2
*PAPER_SPACE
 70
     0
 10
0.0
 20
0.0
 30
0.0
  3
*PAPER_SPACE
  1

  0
ENDBLK
  5
2A
330
1A
100
AcDbEntity
 67
     1
  8
0
100
AcDbBlockEnd
  0
BLOCK
  5
242
330
1D0
100
AcDbEntity
  8
0
100
AcDbBlockBegin
  2
*X0
 70
     1
 10
0.0
 20
0.0
 30
0.0
  3
*X0
  1

  0
LINE
  5
1D1
330
1D0
100
AcDbEntity
  8
0
 62
     0
100
AcDbLine
 10
41.25
 20
15.0
 30
0.0
 11
41.875
 21
15.0
 31
0.0
  0
LINE
  5
1D2
330
1D0
100
AcDbEntity
  8
0
 62
     0
100
AcDbLine
 10
42.5
 20
15.0
 30
0.0
 11
43.125
 21
15.0
 31
0.0
  0
LINE
  5
1D3
330
1D0
100
AcDbEntity
  8
0
 62
     0
100
AcDbLine
 10
43.75
 20
15.0
 30
0.0
 11
44.28029978480062
 21
15.0
 31
0.0
  0
LINE
  5
1D4
330
1D0
100
AcDbEntity
  8
0
 62
     0
100
AcDbLine
 10
40.625
 20
15.625
 30
0.0
 11
41.25
 21
15.625
 31
0.0
  0
LINE
  5
1D5
330
1D0
100
AcDbEntity
  8
0
 62
     0
100
AcDbLine
 10
41.875
 20
15.625
 30
0.0
 11
42.5
 21
15.625
 31
0.0
  0
LINE
  5
1D6
330
1D0
100
AcDbEntity
  8
0
 62
     0
100
AcDbLine
 10
43.125
 20
15.625
 30
0.0
 11
43.75
 21
15.625
 31
0.0
  0
LINE
  5
1D7
330
1D0
100
AcDbEntity
  8
0
 62
     0
100
AcDbLine
 10
40.28423462970976
 20
16.25
 30
0.0
 11
40.625
 21
16.25
 31
0.0
  0
LINE
  5
1D8
330
1D0
100
AcDbEntity
  8
0
 62
     0
100
AcDbLine
 10
41.25
 20
16.25
 30
0.0
 11
41.875
 21
16.25
 31
0.0
  0
LINE
  5
1D9
330
1D0
100
AcDbEntity
  8
0
 62
     0
100
AcDbLine
 10
42.5
 20
16.25
 30
0.0
 11
43.125
 21
16.25
 31
0.0
  0
LINE
  5
1DA
330
1D0
100
AcDbEntity
  8
0
 62
     0
100
AcDbLine
 10
43.75
 20
16.25
 30
0.0
 11
44.28029978480062
 21
16.25
 31
0.0
  0
LINE
  5
1DB
330
1D0
100
AcDbEntity
  8
0
 62
     0
100
AcDbLine
 10
40.625
 20
16.875
 30
0.0
 11
41.25
 21
16.875
 31
0.0
  0
LINE
  5
1DC
330
1D0
100
AcDbEntity
  8
0
 62
     0
100
AcDbLine
 10
41.875
 20
16.875
 30
0.0
 11
42.5
 21
16.875
 31
0.0
  0
LINE
  5
1DD
330
1D0
100
AcDbEntity
  8
0
 62
     0
100
AcDbLine
 10
43.125
 20
16.875
 30
0.0
 11
43.75
 21
16.875
 31
0.0
  0
LINE
  5
1DE
330
1D0
100
AcDbEntity
  8
0
 62
     0
100
AcDbLine
 10
41.875
 20
14.375
 30
0.0
 11
42.5
 21
14.375
 31
0.0
  0
LINE
  5
1DF
330
1D0
100
AcDbEntity
  8
0
 62
     0
100
AcDbLine
 10
43.125
 20
14.375
 30
0.0
 11
43.75
 21
14.375
 31
0.0
  0
LINE
  5
1E0
330
1D0
100
AcDbEntity
  8
0
 62
     0
100
AcDbLine
 10
42.5
 20
13.75
 30
0.0
 11
43.125
 21
13.75
 31
0.0
  0
LINE
  5
1E1
330
1D0
100
AcDbEntity
  8
0
 62
     0
100
AcDbLine
 10
43.75
 20
13.75
 30
0.0
 11
44.28029978480062
 21
13.75
 31
0.0
  0
LINE
  5
1E2
330
1D0
100
AcDbEntity
  8
0
 62
     0
100
AcDbLine
 10
41.10503287170213
 20
14.609375
 30
0.0
 11
41.25
 21
14.609375
 31
0.0
  0
LINE
  5
1E3
330
1D0
100
AcDbEntity
  8
0
 62
     0
100
AcDbLine
 10
41.875
 20
14.609375
 30
0.0
 11
42.5
 21
14.609375
 31
0.0
  0
LINE
  5
1E4
330
1D0
100
AcDbEntity
  8
0
 62
     0
100
AcDbLine
 10
43.125
 20
14.609375
 30
0.0
 11
43.75
 21
14.609375
 31
0.0
  0
LINE
  5
1E5
330
1D0
100
AcDbEntity
  8
0
 62
     0
100
AcDbLine
 10
41.25
 20
15.234375
 30
0.0
 11
41.875
 21
15.234375
 31
0.0
  0
LINE
  5
1E6
330
1D0
100
AcDbEntity
  8
0
 62
     0
100
AcDbLine
 10
42.5
 20
15.234375
 30
0.0
 11
43.125
 21
15.234375
 31
0.0
  0
LINE
  5
1E7
330
1D0
100
AcDbEntity
  8
0
 62
     0
100
AcDbLine
 10
43.75
 20
15.234375
 30
0.0
 11
44.28029978480062
 21
15.234375
 31
0.0
  0
LINE
  5
1E8
330
1D0
100
AcDbEntity
  8
0
 62
     0
100
AcDbLine
 10
40.625
 20
15.859375
 30
0.0
 11
41.25
 21
15.859375
 31
0.0
  0
LINE
  5
1E9
330
1D0
100
AcDbEntity
  8
0
 62
     0
100
AcDbLine
 10
41.875
 20
15.859375
 30
0.0
 11
42.5
 21
15.859375
 31
0.0
  0
LINE
  5
1EA
330
1D0
100
AcDbEntity
  8
0
 62
     0
100
AcDbLine
 10
43.125
 20
15.859375
 30
0.0
 11
43.75
 21
15.859375
 31
0.0
  0
LINE
  5
1EB
330
1D0
100
AcDbEntity
  8
0
 62
     0
100
AcDbLine
 10
40.23431761646492
 20
16.484375
 30
0.0
 11
40.625
 21
16.484375
 31
0.0
  0
LINE
  5
1EC
330
1D0
100
AcDbEntity
  8
0
 62
     0
100
AcDbLine
 10
41.25
 20
16.484375
 30
0.0
 11
41.875
 21
16.484375
 31
0.0
  0
LINE
  5
1ED
330
1D0
100
AcDbEntity
  8
0
 62
     0
100
AcDbLine
 10
42.5
 20
16.484375
 30
0.0
 11
43.125
 21
16.484375
 31
0.0
  0
LINE
  5
1EE
330
1D0
100
AcDbEntity
  8
0
 62
     0
100
AcDbLine
 10
43.75
 20
16.484375
 30
0.0
 11
44.28029978480062
 21
16.484375
 31
0.0
  0
LINE
  5
1EF
330
1D0
100
AcDbEntity
  8
0
 62
     0
100
AcDbLine
 10
40.625
 20
17.109375
 30
0.0
 11
41.25
 21
17.109375
 31
0.0
  0
LINE
  5
1F0
330
1D0
100
AcDbEntity
  8
0
 62
     0
100
AcDbLine
 10
41.875
 20
17.109375
 30
0.0
 11
42.5
 21
17.109375
 31
0.0
  0
LINE
  5
1F1
330
1D0
100
AcDbEntity
  8
0
 62
     0
100
AcDbLine
 10
43.125
 20
17.109375
 30
0.0
 11
43.75
 21
17.109375
 31
0.0
  0
LINE
  5
1F2
330
1D0
100
AcDbEntity
  8
0
 62
     0
100
AcDbLine
 10
41.74575129304503
 20
13.984375
 30
0.0
 11
41.875
 21
13.984375
 31
0.0
  0
LINE
  5
1F3
330
1D0
100
AcDbEntity
  8
0
 62
     0
100
AcDbLine
 10
42.5
 20
13.984375
 30
0.0
 11
43.125
 21
13.984375
 31
0.0
  0
LINE
  5
1F4
330
1D0
100
AcDbEntity
  8
0
 62
     0
100
AcDbLine
 10
43.75
 20
13.984375
 30
0.0
 11
44.28029978480062
 21
13.984375
 31
0.0
  0
LINE
  5
1F5
330
1D0
100
AcDbEntity
  8
0
 62
     0
100
AcDbLine
 10
43.125
 20
13.359375
 30
0.0
 11
43.75
 21
13.359375
 31
0.0
  0
LINE
  5
1F6
330
1D0
100
AcDbEntity
  8
0
 62
     0
100
AcDbLine
 10
40.92578075505477
 20
14.84375
 30
0.0
 11
41.25
 21
14.84375
 31
0.0
  0
LINE
  5
1F7
330
1D0
100
AcDbEntity
  8
0
 62
     0
100
AcDbLine
 10
41.875
 20
14.84375
 30
0.0
 11
42.5
 21
14.84375
 31
0.0
  0
LINE
  5
1F8
330
1D0
100
AcDbEntity
  8
0
 62
     0
100
AcDbLine
 10
43.125
 20
14.84375
 30
0.0
 11
43.75
 21
14.84375
 31
0.0
  0
LINE
  5
1F9
330
1D0
100
AcDbEntity
  8
0
 62
     0
100
AcDbLine
 10
40.56049292378155
 20
15.46875
 30
0.0
 11
40.625
 21
15.46875
 31
0.0
  0
LINE
  5
1FA
330
1D0
100
AcDbEntity
  8
0
 62
     0
100
AcDbLine
 10
41.25
 20
15.46875
 30
0.0
 11
41.875
 21
15.46875
 31
0.0
  0
LINE
  5
1FB
330
1D0
100
AcDbEntity
  8
0
 62
     0
100
AcDbLine
 10
42.5
 20
15.46875
 30
0.0
 11
43.125
 21
15.46875
 31
0.0
  0
LINE
  5
1FC
330
1D0
100
AcDbEntity
  8
0
 62
     0
100
AcDbLine
 10
43.75
 20
15.46875
 30
0.0
 11
44.28029978480062
 21
15.46875
 31
0.0
  0
LINE
  5
1FD
330
1D0
100
AcDbEntity
  8
0
 62
     0
100
AcDbLine
 10
40.625
 20
16.09375
 30
0.0
 11
41.25
 21
16.09375
 31
0.0
  0
LINE
  5
1FE
330
1D0
100
AcDbEntity
  8
0
 62
     0
100
AcDbLine
 10
41.875
 20
16.09375
 30
0.0
 11
42.5
 21
16.09375
 31
0.0
  0
LINE
  5
1FF
330
1D0
100
AcDbEntity
  8
0
 62
     0
100
AcDbLine
 10
43.125
 20
16.09375
 30
0.0
 11
43.75
 21
16.09375
 31
0.0
  0
LINE
  5
200
330
1D0
100
AcDbEntity
  8
0
 62
     0
100
AcDbLine
 10
40.1984443968674
 20
16.71875
 30
0.0
 11
40.625
 21
16.71875
 31
0.0
  0
LINE
  5
201
330
1D0
100
AcDbEntity
  8
0
 62
     0
100
AcDbLine
 10
41.25
 20
16.71875
 30
0.0
 11
41.875
 21
16.71875
 31
0.0
  0
LINE
  5
202
330
1D0
100
AcDbEntity
  8
0
 62
     0
100
AcDbLine
 10
42.5
 20
16.71875
 30
0.0
 11
43.125
 21
16.71875
 31
0.0
  0
LINE
  5
203
330
1D0
100
AcDbEntity
  8
0
 62
     0
100
AcDbLine
 10
43.75
 20
16.71875
 30
0.0
 11
44.28029978480062
 21
16.71875
 31
0.0
  0
LINE
  5
204
330
1D0
100
AcDbEntity
  8
0
 62
     0
100
AcDbLine
 10
41.47185132371581
 20
14.21875
 30
0.0
 11
41.875
 21
14.21875
 31
0.0
  0
LINE
  5
205
330
1D0
100
AcDbEntity
  8
0
 62
     0
100
AcDbLine
 10
42.5
 20
14.21875
 30
0.0
 11
43.125
 21
14.21875
 31
0.0
  0
LINE
  5
206
330
1D0
100
AcDbEntity
  8
0
 62
     0
100
AcDbLine
 10
43.75
 20
14.21875
 30
0.0
 11
44.28029978480062
 21
14.21875
 31
0.0
  0
LINE
  5
207
330
1D0
100
AcDbEntity
  8
0
 62
     0
100
AcDbLine
 10
42.346206303034
 20
13.59375
 30
0.0
 11
42.5
 21
13.59375
 31
0.0
  0
LINE
  5
208
330
1D0
100
AcDbEntity
  8
0
 62
     0
100
AcDbLine
 10
43.125
 20
13.59375
 30
0.0
 11
43.75
 21
13.59375
 31
0.0
  0
LINE
  5
209
330
1D0
100
AcDbEntity
  8
0
 62
     0
100
AcDbLine
 10
41.953125
 20
13.83232035757277
 30
0.0
 11
41.953125
 21
14.296875
 31
0.0
  0
LINE
  5
20A
330
1D0
100
AcDbEntity
  8
0
 62
     0
100
AcDbLine
 10
41.953125
 20
14.921875
 30
0.0
 11
41.953125
 21
15.546875
 31
0.0
  0
LINE
  5
20B
330
1D0
100
AcDbEntity
  8
0
 62
     0
100
AcDbLine
 10
41.953125
 20
16.171875
 30
0.0
 11
41.953125
 21
16.796875
 31
0.0
  0
LINE
  5
20C
330
1D0
100
AcDbEntity
  8
0
 62
     0
100
AcDbLine
 10
41.328125
 20
14.35983232807855
 30
0.0
 11
41.328125
 21
14.921875
 31
0.0
  0
LINE
  5
20D
330
1D0
100
AcDbEntity
  8
0
 62
     0
100
AcDbLine
 10
41.328125
 20
15.546875
 30
0.0
 11
41.328125
 21
16.171875
 31
0.0
  0
LINE
  5
20E
330
1D0
100
AcDbEntity
  8
0
 62
     0
100
AcDbLine
 10
41.328125
 20
16.796875
 30
0.0
 11
41.328125
 21
17.22358212988598
 31
0.0
  0
LINE
  5
20F
330
1D0
100
AcDbEntity
  8
0
 62
     0
100
AcDbLine
 10
40.703125
 20
15.19374976085859
 30
0.0
 11
40.703125
 21
15.546875
 31
0.0
  0
LINE
  5
210
330
1D0
100
AcDbEntity
  8
0
 62
     0
100
AcDbLine
 10
40.703125
 20
16.171875
 30
0.0
 11
40.703125
 21
16.796875
 31
0.0
  0
LINE
  5
211
330
1D0
100
AcDbEntity
  8
0
 62
     0
100
AcDbLine
 10
42.578125
 20
13.47938663694578
 30
0.0
 11
42.578125
 21
13.671875
 31
0.0
  0
LINE
  5
212
330
1D0
100
AcDbEntity
  8
0
 62
     0
100
AcDbLine
 10
42.578125
 20
14.296875
 30
0.0
 11
42.578125
 21
14.921875
 31
0.0
  0
LINE
  5
213
330
1D0
100
AcDbEntity
  8
0
 62
     0
100
AcDbLine
 10
42.578125
 20
15.546875
 30
0.0
 11
42.578125
 21
16.171875
 31
0.0
  0
LINE
  5
214
330
1D0
100
AcDbEntity
  8
0
 62
     0
100
AcDbLine
 10
42.578125
 20
16.796875
 30
0.0
 11
42.578125
 21
17.22358212988598
 31
0.0
  0
LINE
  5
215
330
1D0
100
AcDbEntity
  8
0
 62
     0
100
AcDbLine
 10
43.203125
 20
13.67187499999999
 30
0.0
 11
43.203125
 21
14.29687499999999
 31
0.0
  0
LINE
  5
216
330
1D0
100
AcDbEntity
  8
0
 62
     0
100
AcDbLine
 10
43.203125
 20
14.92187499999999
 30
0.0
 11
43.203125
 21
15.54687499999999
 31
0.0
  0
LINE
  5
217
330
1D0
100
AcDbEntity
  8
0
 62
     0
100
AcDbLine
 10
43.203125
 20
16.17187499999999
 30
0.0
 11
43.203125
 21
16.79687499999999
 31
0.0
  0
LINE
  5
218
330
1D0
100
AcDbEntity
  8
0
 62
     0
100
AcDbLine
 10
43.828125
 20
13.1355585424595
 30
0.0
 11
43.828125
 21
13.671875
 31
0.0
  0
LINE
  5
219
330
1D0
100
AcDbEntity
  8
0
 62
     0
100
AcDbLine
 10
43.828125
 20
14.296875
 30
0.0
 11
43.828125
 21
14.921875
 31
0.0
  0
LINE
  5
21A
330
1D0
100
AcDbEntity
  8
0
 62
     0
100
AcDbLine
 10
43.828125
 20
15.546875
 30
0.0
 11
43.828125
 21
16.171875
 31
0.0
  0
LINE
  5
21B
330
1D0
100
AcDbEntity
  8
0
 62
     0
100
AcDbLine
 10
43.828125
 20
16.796875
 30
0.0
 11
43.828125
 21
17.22358212988598
 31
0.0
  0
LINE
  5
21C
330
1D0
100
AcDbEntity
  8
0
 62
     0
100
AcDbLine
 10
42.1875
 20
13.68287768753228
 30
0.0
 11
42.1875
 21
14.296875
 31
0.0
  0
LINE
  5
21D
330
1D0
100
AcDbEntity
  8
0
 62
     0
100
AcDbLine
 10
42.1875
 20
14.921875
 30
0.0
 11
42.1875
 21
15.546875
 31
0.0
  0
LINE
  5
21E
330
1D0
100
AcDbEntity
  8
0
 62
     0
100
AcDbLine
 10
42.1875
 20
16.171875
 30
0.0
 11
42.1875
 21
16.796875
 31
0.0
  0
LINE
  5
21F
330
1D0
100
AcDbEntity
  8
0
 62
     0
100
AcDbLine
 10
41.5625
 20
14.296875
 30
0.0
 11
41.5625
 21
14.921875
 31
0.0
  0
LINE
  5
220
330
1D0
100
AcDbEntity
  8
0
 62
     0
100
AcDbLine
 10
41.5625
 20
15.546875
 30
0.0
 11
41.5625
 21
16.171875
 31
0.0
  0
LINE
  5
221
330
1D0
100
AcDbEntity
  8
0
 62
     0
100
AcDbLine
 10
41.5625
 20
16.796875
 30
0.0
 11
41.5625
 21
17.22358212988598
 31
0.0
  0
LINE
  5
222
330
1D0
100
AcDbEntity
  8
0
 62
     0
100
AcDbLine
 10
40.9375
 20
14.92187499999999
 30
0.0
 11
40.9375
 21
15.54687499999999
 31
0.0
  0
LINE
  5
223
330
1D0
100
AcDbEntity
  8
0
 62
     0
100
AcDbLine
 10
40.9375
 20
16.17187499999999
 30
0.0
 11
40.9375
 21
16.79687499999999
 31
0.0
  0
LINE
  5
224
330
1D0
100
AcDbEntity
  8
0
 62
     0
100
AcDbLine
 10
40.3125
 20
16.14054761746228
 30
0.0
 11
40.3125
 21
16.17187499999999
 31
0.0
  0
LINE
  5
225
330
1D0
100
AcDbEntity
  8
0
 62
     0
100
AcDbLine
 10
40.3125
 20
16.79687499999999
 30
0.0
 11
40.3125
 21
17.22358212988598
 31
0.0
  0
LINE
  5
226
330
1D0
100
AcDbEntity
  8
0
 62
     0
100
AcDbLine
 10
42.8125
 20
13.38145216343456
 30
0.0
 11
42.8125
 21
13.671875
 31
0.0
  0
LINE
  5
227
330
1D0
100
AcDbEntity
  8
0
 62
     0
100
AcDbLine
 10
42.8125
 20
14.296875
 30
0.0
 11
42.8125
 21
14.921875
 31
0.0
  0
LINE
  5
228
330
1D0
100
AcDbEntity
  8
0
 62
     0
100
AcDbLine
 10
42.8125
 20
15.546875
 30
0.0
 11
42.8125
 21
16.171875
 31
0.0
  0
LINE
  5
229
330
1D0
100
AcDbEntity
  8
0
 62
     0
100
AcDbLine
 10
42.8125
 20
16.796875
 30
0.0
 11
42.8125
 21
17.22358212988598
 31
0.0
  0
LINE
  5
22A
330
1D0
100
AcDbEntity
  8
0
 62
     0
100
AcDbLine
 10
43.4375
 20
13.671875
 30
0.0
 11
43.4375
 21
14.296875
 31
0.0
  0
LINE
  5
22B
330
1D0
100
AcDbEntity
  8
0
 62
     0
100
AcDbLine
 10
43.4375
 20
14.921875
 30
0.0
 11
43.4375
 21
15.546875
 31
0.0
  0
LINE
  5
22C
330
1D0
100
AcDbEntity
  8
0
 62
     0
100
AcDbLine
 10
43.4375
 20
16.171875
 30
0.0
 11
43.4375
 21
16.796875
 31
0.0
  0
LINE
  5
22D
330
1D0
100
AcDbEntity
  8
0
 62
     0
100
AcDbLine
 10
44.0625
 20
13.11639791912728
 30
0.0
 11
44.0625
 21
13.671875
 31
0.0
  0
LINE
  5
22E
330
1D0
100
AcDbEntity
  8
0
 62
     0
100
AcDbLine
 10
44.0625
 20
14.296875
 30
0.0
 11
44.0625
 21
14.921875
 31
0.0
  0
LINE
  5
22F
330
1D0
100
AcDbEntity
  8
0
 62
     0
100
AcDbLine
 10
44.0625
 20
15.546875
 30
0.0
 11
44.0625
 21
16.171875
 31
0.0
  0
LINE
  5
230
330
1D0
100
AcDbEntity
  8
0
 62
     0
100
AcDbLine
 10
44.0625
 20
16.796875
 30
0.0
 11
44.0625
 21
17.22358212988598
 31
0.0
  0
LINE
  5
231
330
1D0
100
AcDbEntity
  8
0
 62
     0
100
AcDbLine
 10
41.796875
 20
14.29687499999999
 30
0.0
 11
41.796875
 21
14.92187499999999
 31
0.0
  0
LINE
  5
232
330
1D0
100
AcDbEntity
  8
0
 62
     0
100
AcDbLine
 10
41.796875
 20
15.54687499999999
 30
0.0
 11
41.796875
 21
16.17187499999999
 31
0.0
  0
LINE
  5
233
330
1D0
100
AcDbEntity
  8
0
 62
     0
100
AcDbLine
 10
41.796875
 20
16.79687499999999
 30
0.0
 11
41.796875
 21
17.22358212988598
 31
0.0
  0
LINE
  5
234
330
1D0
100
AcDbEntity
  8
0
 62
     0
100
AcDbLine
 10
41.171875
 20
14.921875
 30
0.0
 11
41.171875
 21
15.546875
 31
0.0
  0
LINE
  5
235
330
1D0
100
AcDbEntity
  8
0
 62
     0
100
AcDbLine
 10
41.171875
 20
16.171875
 30
0.0
 11
41.171875
 21
16.796875
 31
0.0
  0
LINE
  5
236
330
1D0
100
AcDbEntity
  8
0
 62
     0
100
AcDbLine
 10
40.546875
 20
15.546875
 30
0.0
 11
40.546875
 21
16.171875
 31
0.0
  0
LINE
  5
237
330
1D0
100
AcDbEntity
  8
0
 62
     0
100
AcDbLine
 10
40.546875
 20
16.796875
 30
0.0
 11
40.546875
 21
17.22358212988598
 31
0.0
  0
LINE
  5
238
330
1D0
100
AcDbEntity
  8
0
 62
     0
100
AcDbLine
 10
42.421875
 20
13.671875
 30
0.0
 11
42.421875
 21
14.296875
 31
0.0
  0
LINE
  5
239
330
1D0
100
AcDbEntity
  8
0
 62
     0
100
AcDbLine
 10
42.421875
 20
14.921875
 30
0.0
 11
42.421875
 21
15.546875
 31
0.0
  0
LINE
  5
23A
330
1D0
100
AcDbEntity
  8
0
 62
     0
100
AcDbLine
 10
42.421875
 20
16.171875
 30
0.0
 11
42.421875
 21
16.796875
 31
0.0
  0
LINE
  5
23B
330
1D0
100
AcDbEntity
  8
0
 62
     0
100
AcDbLine
 10
43.046875
 20
13.29992794181024
 30
0.0
 11
43.046875
 21
13.671875
 31
0.0
  0
LINE
  5
23C
330
1D0
100
AcDbEntity
  8
0
 62
     0
100
AcDbLine
 10
43.046875
 20
14.296875
 30
0.0
 11
43.046875
 21
14.921875
 31
0.0
  0
LINE
  5
23D
330
1D0
100
AcDbEntity
  8
0
 62
     0
100
AcDbLine
 10
43.046875
 20
15.546875
 30
0.0
 11
43.046875
 21
16.171875
 31
0.0
  0
LINE
  5
23E
330
1D0
100
AcDbEntity
  8
0
 62
     0
100
AcDbLine
 10
43.046875
 20
16.796875
 30
0.0
 11
43.046875
 21
17.22358212988598
 31
0.0
  0
LINE
  5
23F
330
1D0
100
AcDbEntity
  8
0
 62
     0
100
AcDbLine
 10
43.671875
 20
13.67187499999999
 30
0.0
 11
43.671875
 21
14.29687499999999
 31
0.0
  0
LINE
  5
240
330
1D0
100
AcDbEntity
  8
0
 62
     0
100
AcDbLine
 10
43.671875
 20
14.92187499999999
 30
0.0
 11
43.671875
 21
15.54687499999999
 31
0.0
  0
LINE
  5
241
330
1D0
100
AcDbEntity
  8
0
 62
     0
100
AcDbLine
 10
43.671875
 20
16.17187499999999
 30
0.0
 11
43.671875
 21
16.79687499999999
 31
0.0
  0
ENDBLK
  5
243
330
1D0
100
AcDbEntity
  8
0
100
AcDbBlockEnd
  0
BLOCK
  5
377
330
244
100
AcDbEntity
  8
0
100
AcDbBlockBegin
  2
*X1
 70
     1
 10
0.0
 20
0.0
 30
0.0
  3
*X1
  1

  0
LINE
  5
245
330
244
100
AcDbEntity
  8
0
 62
     0
100
AcDbLine
 10
62.53090520879082
 20
14.88071119332601
 30
0.0
 11
62.65142788560705
 21
15.02434452641082
 31
0.0
  0
LINE
  5
246
330
244
100
AcDbEntity
  8
0
 62
     0
100
AcDbLine
 10
61.43151142170328
 20
11.27663086183412
 30
0.0
 11
61.55203409851951
 21
11.42026419491893
 31
0.0
  0
LINE
  5
247
330
244
100
AcDbEntity
  8
0
 62
     0
100
AcDbLine
 10
62.877783543498
 20
13.00023085885182
 30
0.0
 11
62.99830622031422
 21
13.14386419193663
 31
0.0
  0
LINE
  5
248
330
244
100
AcDbEntity
  8
0
 62
     0
100
AcDbLine
 10
61.77838975641044
 20
9.396150527359939
 30
0.0
 11
61.83106726401007
 21
9.458929136290693
 31
0.0
  0
LINE
  5
249
330
244
100
AcDbEntity
  8
0
 62
     0
100
AcDbLine
 10
63.22466187820516
 20
11.11975052437764
 30
0.0
 11
63.34518455502139
 21
11.26338385746245
 31
0.0
  0
LINE
  5
24A
330
244
100
AcDbEntity
  8
0
 62
     0
100
AcDbLine
 10
62.12526809111762
 20
7.51567019288575
 30
0.0
 11
62.24579076793385
 21
7.659303525970558
 31
0.0
  0
LINE
  5
24B
330
244
100
AcDbEntity
  8
0
 62
     0
100
AcDbLine
 10
63.57154021291233
 20
9.23927018990345
 30
0.0
 11
63.58842981349277
 21
9.259398432072677
 31
0.0
  0
LINE
  5
24C
330
244
100
AcDbEntity
  8
0
 62
     0
100
AcDbLine
 10
62.47214642582479
 20
5.63518985841156
 30
0.0
 11
62.59266910264102
 21
5.778823191496368
 31
0.0
  0
LINE
  5
24D
330
244
100
AcDbEntity
  8
0
 62
     0
100
AcDbLine
 10
44.88752019551312
 20
5.323512898502253
 30
0.0
 11
45.00804287232935
 21
5.467146231587062
 31
0.0
  0
LINE
  5
24E
330
244
100
AcDbEntity
  8
0
 62
     0
100
AcDbLine
 10
46.33379231730784
 20
7.047112895519954
 30
0.0
 11
46.45431499412406
 21
7.190746228604762
 31
0.0
  0
LINE
  5
24F
330
244
100
AcDbEntity
  8
0
 62
     0
100
AcDbLine
 10
44.54064186080596
 20
7.203993232976444
 30
0.0
 11
44.66116453762218
 21
7.347626566061252
 31
0.0
  0
LINE
  5
250
330
244
100
AcDbEntity
  8
0
 62
     0
100
AcDbLine
 10
45.98691398260067
 20
8.927593229994144
 30
0.0
 11
46.10743665941689
 21
9.071226563078953
 31
0.0
  0
LINE
  5
251
330
244
100
AcDbEntity
  8
0
 62
     0
100
AcDbLine
 10
44.28029978480062
 20
9.187603464648212
 30
0.0
 11
44.31428620291501
 21
9.22810690053544
 31
0.0
  0
LINE
  5
252
330
244
100
AcDbEntity
  8
0
 62
     0
100
AcDbLine
 10
45.64003564789349
 20
10.80807356446833
 30
0.0
 11
45.76055832470973
 21
10.95170689755313
 31
0.0
  0
LINE
  5
253
330
244
100
AcDbEntity
  8
0
 62
     0
100
AcDbLine
 10
45.29315731318632
 20
12.68855389894252
 30
0.0
 11
45.41367999000256
 21
12.83218723202733
 31
0.0
  0
LINE
  5
254
330
244
100
AcDbEntity
  8
0
 62
     0
100
AcDbLine
 10
44.94627897847916
 20
14.5690342334167
 30
0.0
 11
45.06680165529539
 21
14.71266756650151
 31
0.0
  0
LINE
  5
255
330
244
100
AcDbEntity
  8
0
 62
     0
100
AcDbLine
 10
44.59940064377199
 20
16.44951456789089
 30
0.0
 11
44.71992332058821
 21
16.5931479009757
 31
0.0
  0
LINE
  5
256
330
244
100
AcDbEntity
  8
0
 62
     0
100
AcDbLine
 10
45.64003565499882
 20
10.80807357646405
 30
0.0
 11
45.78946485971258
 21
10.7950002150519
 31
0.0
  0
LINE
  5
257
330
244
100
AcDbEntity
  8
0
 62
     0
100
AcDbLine
 10
61.7783897640851
 20
9.396150543951993
 30
0.0
 11
61.92781896879886
 21
9.383077182539844
 31
0.0
  0
LINE
  5
258
330
244
100
AcDbEntity
  8
0
 62
     0
100
AcDbLine
 10
63.57154022065024
 20
9.239270207006208
 30
0.0
 11
63.58842981349277
 21
9.237792559100919
 31
0.0
  0
LINE
  5
259
330
244
100
AcDbEntity
  8
0
 62
     0
100
AcDbLine
 10
45.29315732096632
 20
12.68855391071408
 30
0.0
 11
45.44258652568008
 21
12.67548054930193
 31
0.0
  0
LINE
  5
25A
330
244
100
AcDbEntity
  8
0
 62
     0
100
AcDbLine
 10
61.4315114300526
 20
11.27663087820202
 30
0.0
 11
61.58094063476636
 21
11.26355751678987
 31
0.0
  0
LINE
  5
25B
330
244
100
AcDbEntity
  8
0
 62
     0
100
AcDbLine
 10
63.22466188661774
 20
11.11975054125623
 30
0.0
 11
63.37409109133151
 21
11.10667717984408
 31
0.0
  0
LINE
  5
25C
330
244
100
AcDbEntity
  8
0
 62
     0
100
AcDbLine
 10
44.94627898693383
 20
14.5690342449641
 30
0.0
 11
45.09570819164759
 21
14.55596088355196
 31
0.0
  0
LINE
  5
25D
330
244
100
AcDbEntity
  8
0
 62
     0
100
AcDbLine
 10
62.87778355258524
 20
13.00023087550626
 30
0.0
 11
63.02721275729901
 21
12.98715751409411
 31
0.0
  0
LINE
  5
25E
330
244
100
AcDbEntity
  8
0
 62
     0
100
AcDbLine
 10
44.59940065290132
 20
16.44951457921413
 30
0.0
 11
44.74882985761508
 21
16.43644121780198
 31
0.0
  0
LINE
  5
25F
330
244
100
AcDbEntity
  8
0
 62
     0
100
AcDbLine
 10
62.53090521855273
 20
14.88071120975629
 30
0.0
 11
62.6803344232665
 21
14.86763784834414
 31
0.0
  0
LINE
  5
260
330
244
100
AcDbEntity
  8
0
 62
     0
100
AcDbLine
 10
44.28029978480062
 20
9.076902638096525
 30
0.0
 11
44.34319273717995
 21
9.071400217747658
 31
0.0
  0
LINE
  5
261
330
244
100
AcDbEntity
  8
0
 62
     0
100
AcDbLine
 10
45.98691398903133
 20
8.927593242214022
 30
0.0
 11
46.13634319374509
 21
8.914519880801874
 31
0.0
  0
LINE
  5
262
330
244
100
AcDbEntity
  8
0
 62
     0
100
AcDbLine
 10
62.1252680981176
 20
7.515670209701963
 30
0.0
 11
62.27469730283136
 21
7.502596848289814
 31
0.0
  0
LINE
  5
263
330
244
100
AcDbEntity
  8
0
 62
     0
100
AcDbLine
 10
44.54064186649868
 20
7.203993244909777
 30
0.0
 11
44.69007107121245
 21
7.190919883497628
 31
0.0
  0
LINE
  5
264
330
244
100
AcDbEntity
  8
0
 62
     0
100
AcDbLine
 10
46.33379232306383
 20
7.047112907963993
 30
0.0
 11
46.48322152777759
 21
7.034039546551844
 31
0.0
  0
LINE
  5
265
330
244
100
AcDbEntity
  8
0
 62
     0
100
AcDbLine
 10
62.47214643215009
 20
5.635189875451932
 30
0.0
 11
62.62157563686386
 21
5.622116514039784
 31
0.0
  0
LINE
  5
266
330
244
100
AcDbEntity
  8
0
 62
     0
100
AcDbLine
 10
44.88752020053119
 20
5.323512910659748
 30
0.0
 11
45.03694940524495
 21
5.310439549247599
 31
0.0
  0
LINE
  5
267
330
244
100
AcDbEntity
  8
0
 62
     0
100
AcDbLine
 10
62.62157951925694
 20
5.622067414269677
 30
0.0
 11
62.59267311463005
 21
5.778774126487986
 31
0.0
  0
LINE
  5
268
330
244
100
AcDbEntity
  8
0
 62
     0
100
AcDbLine
 10
62.27470265375711
 20
7.502548014976882
 30
0.0
 11
62.24579624913022
 21
7.659254727195191
 31
0.0
  0
LINE
  5
269
330
244
100
AcDbEntity
  8
0
 62
     0
100
AcDbLine
 10
61.92782578825728
 20
9.383028615684088
 30
0.0
 11
61.9138250404336
 21
9.458929136290704
 31
0.0
  0
LINE
  5
26A
330
244
100
AcDbEntity
  8
0
 62
     0
100
AcDbLine
 10
61.58094892275745
 20
11.26350921639129
 30
0.0
 11
61.55204251813055
 21
11.4202159286096
 31
0.0
  0
LINE
  5
26B
330
244
100
AcDbEntity
  8
0
 62
     0
100
AcDbLine
 10
63.37409924254234
 20
11.10662747083646
 30
0.0
 11
63.34519283791544
 21
11.26333418305476
 31
0.0
  0
LINE
  5
26C
330
244
100
AcDbEntity
  8
0
 62
     0
100
AcDbLine
 10
63.02722237704251
 20
12.98710807154366
 30
0.0
 11
62.99831597241561
 21
13.14381478376197
 31
0.0
  0
LINE
  5
26D
330
244
100
AcDbEntity
  8
0
 62
     0
100
AcDbLine
 10
62.68034551154268
 20
14.86758867225087
 30
0.0
 11
62.65143910691578
 21
15.02429538446918
 31
0.0
  0
LINE
  5
26E
330
244
100
AcDbEntity
  8
0
 62
     0
100
AcDbLine
 10
46.48322664119295
 20
7.034003124263058
 30
0.0
 11
46.45432023656606
 21
7.190709836481367
 31
0.0
  0
LINE
  5
26F
330
244
100
AcDbEntity
  8
0
 62
     0
100
AcDbLine
 10
46.13634977569312
 20
8.914483724970263
 30
0.0
 11
46.10744337106623
 21
9.071190437188572
 31
0.0
  0
LINE
  5
270
330
244
100
AcDbEntity
  8
0
 62
     0
100
AcDbLine
 10
45.78947291019328
 20
10.79496432567746
 30
0.0
 11
45.7605665055664
 21
10.95167103789577
 31
0.0
  0
LINE
  5
271
330
244
100
AcDbEntity
  8
0
 62
     0
100
AcDbLine
 10
45.44259604469345
 20
12.67544492638467
 30
0.0
 11
45.41368964006657
 21
12.83215163860298
 31
0.0
  0
LINE
  5
272
330
244
100
AcDbEntity
  8
0
 62
     0
100
AcDbLine
 10
45.09571917919362
 20
14.55592552709187
 30
0.0
 11
45.06681277456674
 21
14.71263223931018
 31
0.0
  0
LINE
  5
273
330
244
100
AcDbEntity
  8
0
 62
     0
100
AcDbLine
 10
44.74884231369379
 20
16.43640612779908
 30
0.0
 11
44.71993590906691
 21
16.59311284001739
 31
0.0
  0
LINE
  5
274
330
244
100
AcDbEntity
  8
0
 62
     0
100
AcDbLine
 10
45.0369531869079
 20
5.310404269110673
 30
0.0
 11
45.008046782281
 21
5.467110981328982
 31
0.0
  0
LINE
  5
275
330
244
100
AcDbEntity
  8
0
 62
     0
100
AcDbLine
 10
44.69007632140807
 20
7.190884869817878
 30
0.0
 11
44.66116991678117
 21
7.347591582036187
 31
0.0
  0
LINE
  5
276
330
244
100
AcDbEntity
  8
0
 62
     0
100
AcDbLine
 10
44.34319945590824
 20
9.071365470525083
 30
0.0
 11
44.31429305128134
 21
9.228072182743392
 31
0.0
  0
LINE
  5
277
330
244
100
AcDbEntity
  8
0
 62
     0
100
AcDbLine
 10
61.38288084851583
 20
13.36161144097157
 30
0.0
 11
61.57760208709385
 21
13.56455281611878
 31
0.0
  0
LINE
  5
278
330
244
100
AcDbEntity
  8
0
 62
     0
100
AcDbLine
 10
61.71432860714369
 20
10.51251740338249
 30
0.0
 11
61.90904984572171
 21
10.7154587785297
 31
0.0
  0
LINE
  5
279
330
244
100
AcDbEntity
  8
0
 62
     0
100
AcDbLine
 10
62.04577636577154
 20
7.663423365793404
 30
0.0
 11
62.24049760434956
 21
7.866364740940615
 31
0.0
  0
LINE
  5
27A
330
244
100
AcDbEntity
  8
0
 62
     0
100
AcDbLine
 10
62.37722412439939
 20
4.814329328204328
 30
0.0
 11
62.57194536297742
 21
5.017270703351539
 31
0.0
  0
LINE
  5
27B
330
244
100
AcDbEntity
  8
0
 62
     0
100
AcDbLine
 10
46.36860839501473
 20
7.297114543139595
 30
0.0
 11
46.50554637997613
 21
7.43983335070726
 31
0.0
  0
LINE
  5
27C
330
244
100
AcDbEntity
  8
0
 62
     0
100
AcDbLine
 10
45.70571287775901
 20
12.99530261831776
 30
0.0
 11
45.90043411633703
 21
13.19824399346497
 31
0.0
  0
LINE
  5
27D
330
244
100
AcDbEntity
  8
0
 62
     0
100
AcDbLine
 10
45.37426511913117
 20
15.84439665590684
 30
0.0
 11
45.4554241545768
 21
15.92898181148225
 31
0.0
  0
LINE
  5
27E
330
244
100
AcDbEntity
  8
0
 62
     0
100
AcDbLine
 10
62.59956841915943
 20
4.77980527308062
 30
0.0
 11
62.57194795799337
 21
5.017229797817415
 31
0.0
  0
LINE
  5
27F
330
244
100
AcDbEntity
  8
0
 62
     0
100
AcDbLine
 10
62.26812293369957
 20
7.628899152735668
 30
0.0
 11
62.24050247253352
 21
7.866323677472462
 31
0.0
  0
LINE
  5
280
330
244
100
AcDbEntity
  8
0
 62
     0
100
AcDbLine
 10
61.93523664391806
 20
10.49037813629069
 30
0.0
 11
61.90905698707365
 21
10.71541755712751
 31
0.0
  0
LINE
  5
281
330
244
100
AcDbEntity
  8
0
 62
     0
100
AcDbLine
 10
61.60523196277985
 20
13.32708691204576
 30
0.0
 11
61.5776115016138
 21
13.56451143678256
 31
0.0
  0
LINE
  5
282
330
244
100
AcDbEntity
  8
0
 62
     0
100
AcDbLine
 10
45.92806395225004
 20
12.96078824681436
 30
0.0
 11
45.90044349108398
 21
13.19821277155115
 31
0.0
  0
LINE
  5
283
330
244
100
AcDbEntity
  8
0
 62
     0
100
AcDbLine
 10
45.59661846679018
 20
15.80988212646941
 30
0.0
 11
45.58276316591747
 21
15.92898181148225
 31
0.0
  0
LINE
  5
284
330
244
100
AcDbEntity
  8
0
 62
     0
100
AcDbLine
 10
62.04577636778024
 20
7.663423382718814
 30
0.0
 11
62.26811825292273
 21
7.628940254796773
 31
0.0
  0
LINE
  5
285
330
244
100
AcDbEntity
  8
0
 62
     0
100
AcDbLine
 10
45.70571287864592
 20
12.99530263048364
 30
0.0
 11
45.92805476378841
 21
12.9608195025616
 31
0.0
  0
LINE
  5
286
330
244
100
AcDbEntity
  8
0
 62
     0
100
AcDbLine
 10
61.71432860890454
 20
10.51251742009662
 30
0.0
 11
61.8570792928983
 21
10.49037813629069
 31
0.0
  0
LINE
  5
287
330
244
100
AcDbEntity
  8
0
 62
     0
100
AcDbLine
 10
45.37426511977022
 20
15.84439666786146
 30
0.0
 11
45.5966070049127
 21
15.80991353993942
 31
0.0
  0
LINE
  5
288
330
244
100
AcDbEntity
  8
0
 62
     0
100
AcDbLine
 10
61.38288085002884
 20
13.36161145747444
 30
0.0
 11
61.60522273517132
 21
13.3271283295524
 31
0.0
  0
LINE
  5
289
330
244
100
AcDbEntity
  8
0
 62
     0
100
AcDbLine
 10
46.36860839639733
 20
7.297114555728019
 30
0.0
 11
46.50554637997613
 21
7.275876766896156
 31
0.0
  0
LINE
  5
28A
330
244
100
AcDbEntity
  8
0
 62
     0
100
AcDbLine
 10
62.37722412665594
 20
4.814329345340999
 30
0.0
 11
62.59956601179843
 21
4.779846217418957
 31
0.0
  0
LINE
  5
28B
330
244
100
AcDbEntity
  8
0
 62
     0
100
AcDbLine
 10
44.91305709529489
 20
8.043290710127655
 30
0.0
 11
45.08810342526312
 21
8.110484700667399
 31
0.0
  0
LINE
  5
28C
330
244
100
AcDbEntity
  8
0
 62
     0
100
AcDbLine
 10
61.71750477224453
 20
14.49391380194305
 30
0.0
 11
61.89255110221274
 21
14.5611077924828
 31
0.0
  0
LINE
  5
28D
330
244
100
AcDbEntity
  8
0
 62
     0
100
AcDbLine
 10
44.30476876597235
 20
6.230415596987383
 30
0.0
 11
44.47981509594057
 21
6.297609587527127
 31
0.0
  0
LINE
  5
28E
330
244
100
AcDbEntity
  8
0
 62
     0
100
AcDbLine
 10
46.40532472559105
 20
7.036743483464309
 30
0.0
 11
46.50554637997612
 21
7.07521497211449
 31
0.0
  0
LINE
  5
28F
330
244
100
AcDbEntity
  8
0
 62
     0
100
AcDbLine
 10
63.20977240254068
 20
13.48736657527971
 30
0.0
 11
63.3848187325089
 21
13.55456056581945
 31
0.0
  0
LINE
  5
290
330
244
100
AcDbEntity
  8
0
 62
     0
100
AcDbLine
 10
45.7970363962685
 20
5.223868370324035
 30
0.0
 11
45.97208272623673
 21
5.291062360863779
 31
0.0
  0
LINE
  5
291
330
244
100
AcDbEntity
  8
0
 62
     0
100
AcDbLine
 10
62.60148407321814
 20
11.67449146213944
 30
0.0
 11
62.77653040318636
 21
11.74168545267918
 31
0.0
  0
LINE
  5
292
330
244
100
AcDbEntity
  8
0
 62
     0
100
AcDbLine
 10
61.38490741457303
 20
8.048741235858896
 30
0.0
 11
61.55995374454126
 21
8.11593522639864
 31
0.0
  0
LINE
  5
293
330
244
100
AcDbEntity
  8
0
 62
     0
100
AcDbLine
 10
63.48546337419174
 20
8.855069122335821
 30
0.0
 11
63.58842981349278
 21
8.89459423519915
 31
0.0
  0
LINE
  5
294
330
244
100
AcDbEntity
  8
0
 62
     0
100
AcDbLine
 10
62.87717504486919
 20
7.042194009195551
 30
0.0
 11
63.05222137483742
 21
7.109387999735295
 31
0.0
  0
LINE
  5
295
330
244
100
AcDbEntity
  8
0
 62
     0
100
AcDbLine
 10
62.26888671554664
 20
5.229318896055278
 30
0.0
 11
62.44393304551486
 21
5.296512886595022
 31
0.0
  0
LINE
  5
296
330
244
100
AcDbEntity
  8
0
 62
     0
100
AcDbLine
 10
62.44369519559356
 20
16.35204728863546
 30
0.0
 11
62.5008394315353
 21
16.37398290562307
 31
0.0
  0
LINE
  5
297
330
244
100
AcDbEntity
  8
0
 62
     0
100
AcDbLine
 10
46.12963375394
 20
11.6690409364082
 30
0.0
 11
46.30468008390822
 21
11.73623492694794
 31
0.0
  0
LINE
  5
298
330
244
100
AcDbEntity
  8
0
 62
     0
100
AcDbLine
 10
44.63736612364384
 20
12.67558816307154
 30
0.0
 11
44.81241245361206
 21
12.74278215361129
 31
0.0
  0
LINE
  5
299
330
244
100
AcDbEntity
  8
0
 62
     0
100
AcDbLine
 10
45.24565445296638
 20
14.48846327621181
 30
0.0
 11
45.42070078293461
 21
14.55565726675156
 31
0.0
  0
LINE
  5
29A
330
244
100
AcDbEntity
  8
0
 62
     0
100
AcDbLine
 10
45.24565446925873
 20
14.4884632749011
 30
0.0
 11
45.37001010514198
 21
14.40458433938049
 31
0.0
  0
LINE
  5
29B
330
244
100
AcDbEntity
  8
0
 62
     0
100
AcDbLine
 10
62.26888673565252
 20
5.229318898797457
 30
0.0
 11
62.39324237153577
 21
5.145439963276845
 31
0.0
  0
LINE
  5
29C
330
244
100
AcDbEntity
  8
0
 62
     0
100
AcDbLine
 10
61.38490743485739
 20
8.04874123766193
 30
0.0
 11
61.50926307074065
 21
7.964862302141319
 31
0.0
  0
LINE
  5
29D
330
244
100
AcDbEntity
  8
0
 62
     0
100
AcDbLine
 10
62.87717506545646
 20
7.042194011414587
 30
0.0
 11
63.00153070133973
 21
6.958315075893976
 31
0.0
  0
LINE
  5
29E
330
244
100
AcDbEntity
  8
0
 62
     0
100
AcDbLine
 10
63.48546339526042
 20
8.855069124031729
 30
0.0
 11
63.58842981349277
 21
8.78561739798525
 31
0.0
  0
LINE
  5
29F
330
244
100
AcDbEntity
  8
0
 62
     0
100
AcDbLine
 10
62.6014840944653
 20
11.6744914628962
 30
0.0
 11
62.72583973034856
 21
11.59061252737559
 31
0.0
  0
LINE
  5
2A0
330
244
100
AcDbEntity
  8
0
 62
     0
100
AcDbLine
 10
61.71750479367019
 20
14.49391380176068
 30
0.0
 11
61.84186042955344
 21
14.41003486624006
 31
0.0
  0
LINE
  5
2A1
330
244
100
AcDbEntity
  8
0
 62
     0
100
AcDbLine
 10
63.20977242426926
 20
13.48736657551333
 30
0.0
 11
63.33412806015251
 21
13.40348763999272
 31
0.0
  0
LINE
  5
2A2
330
244
100
AcDbEntity
  8
0
 62
     0
100
AcDbLine
 10
62.44369519559356
 20
16.22726296257989
 30
0.0
 11
62.4501487593574
 21
16.2229099788572
 31
0.0
  0
LINE
  5
2A3
330
244
100
AcDbEntity
  8
0
 62
     0
100
AcDbLine
 10
44.63736613945478
 20
12.67558816228397
 30
0.0
 11
44.76172177533803
 21
12.59170922676335
 31
0.0
  0
LINE
  5
2A4
330
244
100
AcDbEntity
  8
0
 62
     0
100
AcDbLine
 10
46.12963377005385
 20
11.66904093603662
 30
0.0
 11
46.25398940593711
 21
11.58516200051601
 31
0.0
  0
LINE
  5
2A5
330
244
100
AcDbEntity
  8
0
 62
     0
100
AcDbLine
 10
44.91305711044594
 20
8.043290710802358
 30
0.0
 11
45.03741274632919
 21
7.959411775281746
 31
0.0
  0
LINE
  5
2A6
330
244
100
AcDbEntity
  8
0
 62
     0
100
AcDbLine
 10
46.40532474104501
 20
7.036743484555015
 30
0.0
 11
46.50554637997611
 21
6.969143135524079
 31
0.0
  0
LINE
  5
2A7
330
244
100
AcDbEntity
  8
0
 62
     0
100
AcDbLine
 10
44.30476878064199
 20
6.230415598185223
 30
0.0
 11
44.42912441652524
 21
6.146536662664612
 31
0.0
  0
LINE
  5
2A8
330
244
100
AcDbEntity
  8
0
 62
     0
100
AcDbLine
 10
45.79703641124106
 20
5.22386837193788
 30
0.0
 11
45.92139204712432
 21
5.139989436417269
 31
0.0
  0
LINE
  5
2A9
330
244
100
AcDbEntity
  8
0
 62
     0
100
AcDbLine
 10
61.84187083721006
 20
14.40998667777893
 30
0.0
 11
61.89256164770145
 21
14.56105955957594
 31
0.0
  0
LINE
  5
2AA
330
244
100
AcDbEntity
  8
0
 62
     0
100
AcDbLine
 10
62.45016058060263
 20
16.222861311486
 30
0.0
 11
62.50085139109401
 21
16.373934193283
 31
0.0
  0
LINE
  5
2AB
330
244
100
AcDbEntity
  8
0
 62
     0
100
AcDbLine
 10
61.50926843509352
 20
7.964814384725556
 30
0.0
 11
61.5599592455849
 21
8.115887266522564
 31
0.0
  0
LINE
  5
2AC
330
244
100
AcDbEntity
  8
0
 62
     0
100
AcDbLine
 10
62.72584792187865
 20
11.59056365213968
 30
0.0
 11
62.77653873237003
 21
11.74163653393669
 31
0.0
  0
LINE
  5
2AD
330
244
100
AcDbEntity
  8
0
 62
     0
100
AcDbLine
 10
63.33413766527122
 20
13.40343828584675
 30
0.0
 11
63.3848284757626
 21
13.55451116764376
 31
0.0
  0
LINE
  5
2AE
330
244
100
AcDbEntity
  8
0
 62
     0
100
AcDbLine
 10
62.39324551976211
 20
5.145391359086311
 30
0.0
 11
62.44393633025349
 21
5.296464240883318
 31
0.0
  0
LINE
  5
2AF
330
244
100
AcDbEntity
  8
0
 62
     0
100
AcDbLine
 10
63.00153526315468
 20
6.958265992793376
 30
0.0
 11
63.05222607364606
 21
7.109338874590383
 31
0.0
  0
LINE
  5
2B0
330
244
100
AcDbEntity
  8
0
 62
     0
100
AcDbLine
 10
45.92139535024886
 20
5.139953717940634
 30
0.0
 11
45.97208616074023
 21
5.291026599737641
 31
0.0
  0
LINE
  5
2B1
330
244
100
AcDbEntity
  8
0
 62
     0
100
AcDbLine
 10
44.42912852218769
 20
6.146502109872817
 30
0.0
 11
44.47981933267907
 21
6.297574991669824
 31
0.0
  0
LINE
  5
2B2
330
244
100
AcDbEntity
  8
0
 62
     0
100
AcDbLine
 10
45.03741826558026
 20
7.959376743579881
 30
0.0
 11
45.08810907607164
 21
8.110449625376888
 31
0.0
  0
LINE
  5
2B3
330
244
100
AcDbEntity
  8
0
 62
     0
100
AcDbLine
 10
46.2539977523654
 20
11.58512601099401
 30
0.0
 11
46.30468856285679
 21
11.73619889279102
 31
0.0
  0
LINE
  5
2B4
330
244
100
AcDbEntity
  8
0
 62
     0
100
AcDbLine
 10
44.76173092430424
 20
12.59167440292619
 30
0.0
 11
44.81242173479563
 21
12.7427472847232
 31
0.0
  0
LINE
  5
2B5
330
244
100
AcDbEntity
  8
0
 62
     0
100
AcDbLine
 10
45.37002066769681
 20
14.40454903663326
 30
0.0
 11
45.42071147818819
 21
14.55562191843027
 31
0.0
  0
LINE
  5
2B6
330
244
100
AcDbEntity
  8
0
 62
     0
100
AcDbLine
 10
44.79351302753194
 20
4.441669079842172
 30
0.0
 11
44.79351302753194
 21
4.441669079842172
 31
0.0
  0
LINE
  5
2B7
330
244
100
AcDbEntity
  8
0
 62
     0
100
AcDbLine
 10
46.1075044973893
 20
5.449930196637866
 30
0.0
 11
46.1075044973893
 21
5.449930196637866
 31
0.0
  0
LINE
  5
2B8
330
244
100
AcDbEntity
  8
0
 62
     0
100
AcDbLine
 10
44.82391266582516
 20
5.273903714420455
 30
0.0
 11
44.82391266582516
 21
5.273903714420455
 31
0.0
  0
LINE
  5
2B9
330
244
100
AcDbEntity
  8
0
 62
     0
100
AcDbLine
 10
46.13790413568252
 20
6.282164831216148
 30
0.0
 11
46.13790413568252
 21
6.282164831216148
 31
0.0
  0
LINE
  5
2BA
330
244
100
AcDbEntity
  8
0
 62
     0
100
AcDbLine
 10
44.85431230411839
 20
6.106138348998731
 30
0.0
 11
44.85431230411839
 21
6.106138348998731
 31
0.0
  0
LINE
  5
2BB
330
244
100
AcDbEntity
  8
0
 62
     0
100
AcDbLine
 10
46.16830377397575
 20
7.114399465794424
 30
0.0
 11
46.16830377397575
 21
7.114399465794424
 31
0.0
  0
LINE
  5
2BC
330
244
100
AcDbEntity
  8
0
 62
     0
100
AcDbLine
 10
44.88471194241161
 20
6.938372983577008
 30
0.0
 11
44.88471194241161
 21
6.938372983577008
 31
0.0
  0
LINE
  5
2BD
330
244
100
AcDbEntity
  8
0
 62
     0
100
AcDbLine
 10
46.19870341226897
 20
7.946634100372701
 30
0.0
 11
46.19870341226897
 21
7.946634100372701
 31
0.0
  0
LINE
  5
2BE
330
244
100
AcDbEntity
  8
0
 62
     0
100
AcDbLine
 10
44.91511158070484
 20
7.770607618155288
 30
0.0
 11
44.91511158070484
 21
7.770607618155288
 31
0.0
  0
LINE
  5
2BF
330
244
100
AcDbEntity
  8
0
 62
     0
100
AcDbLine
 10
46.2291030505622
 20
8.778868734950982
 30
0.0
 11
46.2291030505622
 21
8.778868734950982
 31
0.0
  0
LINE
  5
2C0
330
244
100
AcDbEntity
  8
0
 62
     0
100
AcDbLine
 10
44.94551121899807
 20
8.602842252733569
 30
0.0
 11
44.94551121899807
 21
8.602842252733569
 31
0.0
  0
LINE
  5
2C1
330
244
100
AcDbEntity
  8
0
 62
     0
100
AcDbLine
 10
44.9759108572913
 20
9.435076887311847
 30
0.0
 11
44.9759108572913
 21
9.435076887311847
 31
0.0
  0
LINE
  5
2C2
330
244
100
AcDbEntity
  8
0
 62
     0
100
AcDbLine
 10
46.32030196544188
 20
11.27557263868582
 30
0.0
 11
46.32030196544188
 21
11.27557263868582
 31
0.0
  0
LINE
  5
2C3
330
244
100
AcDbEntity
  8
0
 62
     0
100
AcDbLine
 10
45.03671013387775
 20
11.0995461564684
 30
0.0
 11
45.03671013387775
 21
11.0995461564684
 31
0.0
  0
LINE
  5
2C4
330
244
100
AcDbEntity
  8
0
 62
     0
100
AcDbLine
 10
46.35070160373511
 20
12.10780727326409
 30
0.0
 11
46.35070160373511
 21
12.10780727326409
 31
0.0
  0
LINE
  5
2C5
330
244
100
AcDbEntity
  8
0
 62
     0
100
AcDbLine
 10
45.06710977217098
 20
11.93178079104668
 30
0.0
 11
45.06710977217098
 21
11.93178079104668
 31
0.0
  0
LINE
  5
2C6
330
244
100
AcDbEntity
  8
0
 62
     0
100
AcDbLine
 10
46.38110124202833
 20
12.94004190784237
 30
0.0
 11
46.38110124202833
 21
12.94004190784237
 31
0.0
  0
LINE
  5
2C7
330
244
100
AcDbEntity
  8
0
 62
     0
100
AcDbLine
 10
45.0975094104642
 20
12.76401542562496
 30
0.0
 11
45.0975094104642
 21
12.76401542562496
 31
0.0
  0
LINE
  5
2C8
330
244
100
AcDbEntity
  8
0
 62
     0
100
AcDbLine
 10
46.41150088032156
 20
13.77227654242065
 30
0.0
 11
46.41150088032156
 21
13.77227654242065
 31
0.0
  0
LINE
  5
2C9
330
244
100
AcDbEntity
  8
0
 62
     0
100
AcDbLine
 10
45.12790904875743
 20
13.59625006020324
 30
0.0
 11
45.12790904875743
 21
13.59625006020324
 31
0.0
  0
LINE
  5
2CA
330
244
100
AcDbEntity
  8
0
 62
     0
100
AcDbLine
 10
46.44190051861478
 20
14.60451117699893
 30
0.0
 11
46.44190051861478
 21
14.60451117699893
 31
0.0
  0
LINE
  5
2CB
330
244
100
AcDbEntity
  8
0
 62
     0
100
AcDbLine
 10
45.15830868705065
 20
14.42848469478152
 30
0.0
 11
45.15830868705065
 21
14.42848469478152
 31
0.0
  0
LINE
  5
2CC
330
244
100
AcDbEntity
  8
0
 62
     0
100
AcDbLine
 10
46.47230015690801
 20
15.43674581157721
 30
0.0
 11
46.47230015690801
 21
15.43674581157721
 31
0.0
  0
LINE
  5
2CD
330
244
100
AcDbEntity
  8
0
 62
     0
100
AcDbLine
 10
45.18870832534388
 20
15.26071932935979
 30
0.0
 11
45.18870832534388
 21
15.26071932935979
 31
0.0
  0
LINE
  5
2CE
330
244
100
AcDbEntity
  8
0
 62
     0
100
AcDbLine
 10
45.21910796363711
 20
16.09295396393807
 30
0.0
 11
45.21910796363711
 21
16.09295396393807
 31
0.0
  0
LINE
  5
2CF
330
244
100
AcDbEntity
  8
0
 62
     0
100
AcDbLine
 10
45.24950760193034
 20
16.92518859851635
 30
0.0
 11
45.24950760193034
 21
16.92518859851635
 31
0.0
  0
LINE
  5
2D0
330
244
100
AcDbEntity
  8
0
 62
     0
100
AcDbLine
 10
46.07710485909606
 20
4.61769556205959
 30
0.0
 11
46.07710485909606
 21
4.61769556205959
 31
0.0
  0
LINE
  5
2D1
330
244
100
AcDbEntity
  8
0
 62
     0
100
AcDbLine
 10
61.79080225888241
 20
15.86633148615936
 30
0.0
 11
61.79080225888241
 21
15.86633148615936
 31
0.0
  0
LINE
  5
2D2
330
244
100
AcDbEntity
  8
0
 62
     0
100
AcDbLine
 10
63.08396820355712
 20
16.85861261544359
 30
0.0
 11
63.08396820355712
 21
16.85861261544359
 31
0.0
  0
LINE
  5
2D3
330
244
100
AcDbEntity
  8
0
 62
     0
100
AcDbLine
 10
61.76040262058918
 20
15.03409685158109
 30
0.0
 11
61.76040262058918
 21
15.03409685158109
 31
0.0
  0
LINE
  5
2D4
330
244
100
AcDbEntity
  8
0
 62
     0
100
AcDbLine
 10
63.05356856526389
 20
16.0263779808653
 30
0.0
 11
63.05356856526389
 21
16.0263779808653
 31
0.0
  0
LINE
  5
2D5
330
244
100
AcDbEntity
  8
0
 62
     0
100
AcDbLine
 10
61.73000298229595
 20
14.20186221700281
 30
0.0
 11
61.73000298229595
 21
14.20186221700281
 31
0.0
  0
LINE
  5
2D6
330
244
100
AcDbEntity
  8
0
 62
     0
100
AcDbLine
 10
63.02316892697066
 20
15.19414334628702
 30
0.0
 11
63.02316892697066
 21
15.19414334628702
 31
0.0
  0
LINE
  5
2D7
330
244
100
AcDbEntity
  8
0
 62
     0
100
AcDbLine
 10
61.69960334400272
 20
13.36962758242453
 30
0.0
 11
61.69960334400272
 21
13.36962758242453
 31
0.0
  0
LINE
  5
2D8
330
244
100
AcDbEntity
  8
0
 62
     0
100
AcDbLine
 10
62.99276928867743
 20
14.36190871170874
 30
0.0
 11
62.99276928867743
 21
14.36190871170874
 31
0.0
  0
LINE
  5
2D9
330
244
100
AcDbEntity
  8
0
 62
     0
100
AcDbLine
 10
61.6692037057095
 20
12.53739294784625
 30
0.0
 11
61.6692037057095
 21
12.53739294784625
 31
0.0
  0
LINE
  5
2DA
330
244
100
AcDbEntity
  8
0
 62
     0
100
AcDbLine
 10
62.96236965038421
 20
13.52967407713046
 30
0.0
 11
62.96236965038421
 21
13.52967407713046
 31
0.0
  0
LINE
  5
2DB
330
244
100
AcDbEntity
  8
0
 62
     0
100
AcDbLine
 10
61.63880406741627
 20
11.70515831326797
 30
0.0
 11
61.63880406741627
 21
11.70515831326797
 31
0.0
  0
LINE
  5
2DC
330
244
100
AcDbEntity
  8
0
 62
     0
100
AcDbLine
 10
62.93197001209098
 20
12.69743944255218
 30
0.0
 11
62.93197001209098
 21
12.69743944255218
 31
0.0
  0
LINE
  5
2DD
330
244
100
AcDbEntity
  8
0
 62
     0
100
AcDbLine
 10
61.60840442912305
 20
10.87292367868969
 30
0.0
 11
61.60840442912305
 21
10.87292367868969
 31
0.0
  0
LINE
  5
2DE
330
244
100
AcDbEntity
  8
0
 62
     0
100
AcDbLine
 10
62.90157037379776
 20
11.86520480797391
 30
0.0
 11
62.90157037379776
 21
11.86520480797391
 31
0.0
  0
LINE
  5
2DF
330
244
100
AcDbEntity
  8
0
 62
     0
100
AcDbLine
 10
62.87117073550453
 20
11.03297017339563
 30
0.0
 11
62.87117073550453
 21
11.03297017339563
 31
0.0
  0
LINE
  5
2E0
330
244
100
AcDbEntity
  8
0
 62
     0
100
AcDbLine
 10
61.54760515253659
 20
9.208454409533141
 30
0.0
 11
61.54760515253659
 21
9.208454409533141
 31
0.0
  0
LINE
  5
2E1
330
244
100
AcDbEntity
  8
0
 62
     0
100
AcDbLine
 10
61.51720551424336
 20
8.37621977495486
 30
0.0
 11
61.51720551424336
 21
8.37621977495486
 31
0.0
  0
LINE
  5
2E2
330
244
100
AcDbEntity
  8
0
 62
     0
100
AcDbLine
 10
62.81037145891807
 20
9.368500904239073
 30
0.0
 11
62.81037145891807
 21
9.368500904239073
 31
0.0
  0
LINE
  5
2E3
330
244
100
AcDbEntity
  8
0
 62
     0
100
AcDbLine
 10
61.48680587595014
 20
7.543985140376583
 30
0.0
 11
61.48680587595014
 21
7.543985140376583
 31
0.0
  0
LINE
  5
2E4
330
244
100
AcDbEntity
  8
0
 62
     0
100
AcDbLine
 10
62.77997182062485
 20
8.536266269660798
 30
0.0
 11
62.77997182062485
 21
8.536266269660798
 31
0.0
  0
LINE
  5
2E5
330
244
100
AcDbEntity
  8
0
 62
     0
100
AcDbLine
 10
61.45640623765692
 20
6.711750505798306
 30
0.0
 11
61.45640623765692
 21
6.711750505798306
 31
0.0
  0
LINE
  5
2E6
330
244
100
AcDbEntity
  8
0
 62
     0
100
AcDbLine
 10
62.74957218233163
 20
7.704031635082521
 30
0.0
 11
62.74957218233163
 21
7.704031635082521
 31
0.0
  0
LINE
  5
2E7
330
244
100
AcDbEntity
  8
0
 62
     0
100
AcDbLine
 10
61.42600659936369
 20
5.879515871220029
 30
0.0
 11
61.42600659936369
 21
5.879515871220029
 31
0.0
  0
LINE
  5
2E8
330
244
100
AcDbEntity
  8
0
 62
     0
100
AcDbLine
 10
62.7191725440384
 20
6.871797000504244
 30
0.0
 11
62.7191725440384
 21
6.871797000504244
 31
0.0
  0
LINE
  5
2E9
330
244
100
AcDbEntity
  8
0
 62
     0
100
AcDbLine
 10
61.39560696107046
 20
5.047281236641744
 30
0.0
 11
61.39560696107046
 21
5.047281236641744
 31
0.0
  0
LINE
  5
2EA
330
244
100
AcDbEntity
  8
0
 62
     0
100
AcDbLine
 10
62.68877290574517
 20
6.039562365925958
 30
0.0
 11
62.68877290574517
 21
6.039562365925958
 31
0.0
  0
LINE
  5
2EB
330
244
100
AcDbEntity
  8
0
 62
     0
100
AcDbLine
 10
61.36520732277723
 20
4.215046602063467
 30
0.0
 11
61.36520732277723
 21
4.215046602063467
 31
0.0
  0
LINE
  5
2EC
330
244
100
AcDbEntity
  8
0
 62
     0
100
AcDbLine
 10
62.65837326745194
 20
5.207327731347682
 30
0.0
 11
62.65837326745194
 21
5.207327731347682
 31
0.0
  0
LINE
  5
2ED
330
244
100
AcDbEntity
  8
0
 62
     0
100
AcDbLine
 10
62.62797362915872
 20
4.375093096769406
 30
0.0
 11
62.62797362915872
 21
4.375093096769406
 31
0.0
  0
LINE
  5
2EE
330
244
100
AcDbEntity
  8
0
 62
     0
100
AcDbLine
 10
61.88439751442727
 20
11.74501499685498
 30
0.0
 11
61.88439751442727
 21
11.74501499685498
 31
0.0
  0
LINE
  5
2EF
330
244
100
AcDbEntity
  8
0
 62
     0
100
AcDbLine
 10
62.51024708316949
 20
11.82740965569389
 30
0.0
 11
62.51024708316949
 21
11.82740965569389
 31
0.0
  0
LINE
  5
2F0
330
244
100
AcDbEntity
  8
0
 62
     0
100
AcDbLine
 10
63.45707692578148
 20
11.95206216926404
 30
0.0
 11
63.45707692578148
 21
11.95206216926404
 31
0.0
  0
LINE
  5
2F1
330
244
100
AcDbEntity
  8
0
 62
     0
100
AcDbLine
 10
62.54207135803263
 20
12.73104427656088
 30
0.0
 11
62.54207135803263
 21
12.73104427656088
 31
0.0
  0
LINE
  5
2F2
330
244
100
AcDbEntity
  8
0
 62
     0
100
AcDbLine
 10
63.16792092677485
 20
12.81343893539979
 30
0.0
 11
63.16792092677485
 21
12.81343893539979
 31
0.0
  0
LINE
  5
2F3
330
244
100
AcDbEntity
  8
0
 62
     0
100
AcDbLine
 10
44.29041308308601
 20
11.22761275514985
 30
0.0
 11
44.29041308308601
 21
11.22761275514985
 31
0.0
  0
LINE
  5
2F4
330
244
100
AcDbEntity
  8
0
 62
     0
100
AcDbLine
 10
44.91626265182823
 20
11.31000741398876
 30
0.0
 11
44.91626265182823
 21
11.31000741398876
 31
0.0
  0
LINE
  5
2F5
330
244
100
AcDbEntity
  8
0
 62
     0
100
AcDbLine
 10
45.86309249444022
 20
11.43465992755891
 30
0.0
 11
45.86309249444022
 21
11.43465992755891
 31
0.0
  0
LINE
  5
2F6
330
244
100
AcDbEntity
  8
0
 62
     0
100
AcDbLine
 10
61.62086925990021
 20
13.50921059515635
 30
0.0
 11
61.62086925990021
 21
13.50921059515635
 31
0.0
  0
LINE
  5
2F7
330
244
100
AcDbEntity
  8
0
 62
     0
100
AcDbLine
 10
63.19974520163801
 20
13.71707355626678
 30
0.0
 11
63.19974520163801
 21
13.71707355626678
 31
0.0
  0
LINE
  5
2F8
330
244
100
AcDbEntity
  8
0
 62
     0
100
AcDbLine
 10
44.94808692669138
 20
12.21364203485575
 30
0.0
 11
44.94808692669138
 21
12.21364203485575
 31
0.0
  0
LINE
  5
2F9
330
244
100
AcDbEntity
  8
0
 62
     0
100
AcDbLine
 10
45.5739364954336
 20
12.29603669369466
 30
0.0
 11
45.5739364954336
 21
12.29603669369466
 31
0.0
  0
LINE
  5
2FA
330
244
100
AcDbEntity
  8
0
 62
     0
100
AcDbLine
 10
62.27854310350559
 20
14.49523987486225
 30
0.0
 11
62.27854310350559
 21
14.49523987486225
 31
0.0
  0
LINE
  5
2FB
330
244
100
AcDbEntity
  8
0
 62
     0
100
AcDbLine
 10
45.60576077029675
 20
13.19967131456165
 30
0.0
 11
45.60576077029675
 21
13.19967131456165
 31
0.0
  0
LINE
  5
2FC
330
244
100
AcDbEntity
  8
0
 62
     0
100
AcDbLine
 10
46.23161033903897
 20
13.28206597340056
 30
0.0
 11
46.23161033903897
 21
13.28206597340056
 31
0.0
  0
LINE
  5
2FD
330
244
100
AcDbEntity
  8
0
 62
     0
100
AcDbLine
 10
61.36353753575676
 20
15.27422198215909
 30
0.0
 11
61.36353753575676
 21
15.27422198215909
 31
0.0
  0
LINE
  5
2FE
330
244
100
AcDbEntity
  8
0
 62
     0
100
AcDbLine
 10
61.98938710449898
 20
15.356616640998
 30
0.0
 11
61.98938710449898
 21
15.356616640998
 31
0.0
  0
LINE
  5
2FF
330
244
100
AcDbEntity
  8
0
 62
     0
100
AcDbLine
 10
62.93621694711096
 20
15.48126915456815
 30
0.0
 11
62.93621694711096
 21
15.48126915456815
 31
0.0
  0
LINE
  5
300
330
244
100
AcDbEntity
  8
0
 62
     0
100
AcDbLine
 10
44.68455867216433
 20
13.97783763315712
 30
0.0
 11
44.68455867216433
 21
13.97783763315712
 31
0.0
  0
LINE
  5
301
330
244
100
AcDbEntity
  8
0
 62
     0
100
AcDbLine
 10
46.26343461390212
 20
14.18570059426755
 30
0.0
 11
46.26343461390212
 21
14.18570059426755
 31
0.0
  0
LINE
  5
302
330
244
100
AcDbEntity
  8
0
 62
     0
100
AcDbLine
 10
62.64706094810435
 20
16.3426459207039
 30
0.0
 11
62.64706094810435
 21
16.3426459207039
 31
0.0
  0
LINE
  5
303
330
244
100
AcDbEntity
  8
0
 62
     0
100
AcDbLine
 10
44.39540267315772
 20
14.83921439929287
 30
0.0
 11
44.39540267315772
 21
14.83921439929287
 31
0.0
  0
LINE
  5
304
330
244
100
AcDbEntity
  8
0
 62
     0
100
AcDbLine
 10
45.3422325157697
 20
14.96386691286302
 30
0.0
 11
45.3422325157697
 21
14.96386691286302
 31
0.0
  0
LINE
  5
305
330
244
100
AcDbEntity
  8
0
 62
     0
100
AcDbLine
 10
44.42722694802086
 20
15.74284902015986
 30
0.0
 11
44.42722694802086
 21
15.74284902015986
 31
0.0
  0
LINE
  5
306
330
244
100
AcDbEntity
  8
0
 62
     0
100
AcDbLine
 10
45.05307651676308
 20
15.82524367899877
 30
0.0
 11
45.05307651676308
 21
15.82524367899877
 31
0.0
  0
LINE
  5
307
330
244
100
AcDbEntity
  8
0
 62
     0
100
AcDbLine
 10
45.08490079162624
 20
16.72887829986576
 30
0.0
 11
45.08490079162624
 21
16.72887829986576
 31
0.0
  0
LINE
  5
308
330
244
100
AcDbEntity
  8
0
 62
     0
100
AcDbLine
 10
45.46894690536189
 20
8.684435049551639
 30
0.0
 11
45.46894690536189
 21
8.684435049551639
 31
0.0
  0
LINE
  5
309
330
244
100
AcDbEntity
  8
0
 62
     0
100
AcDbLine
 10
46.09479647410411
 20
8.766829708390547
 30
0.0
 11
46.09479647410411
 21
8.766829708390547
 31
0.0
  0
LINE
  5
30A
330
244
100
AcDbEntity
  8
0
 62
     0
100
AcDbLine
 10
61.85257323956411
 20
10.84138037598799
 30
0.0
 11
61.85257323956411
 21
10.84138037598799
 31
0.0
  0
LINE
  5
30B
330
244
100
AcDbEntity
  8
0
 62
     0
100
AcDbLine
 10
62.79940308217611
 20
10.96603288955814
 30
0.0
 11
62.79940308217611
 21
10.96603288955814
 31
0.0
  0
LINE
  5
30C
330
244
100
AcDbEntity
  8
0
 62
     0
100
AcDbLine
 10
44.81127306175653
 20
7.698405769845739
 30
0.0
 11
44.81127306175653
 21
7.698405769845739
 31
0.0
  0
LINE
  5
30D
330
244
100
AcDbEntity
  8
0
 62
     0
100
AcDbLine
 10
45.43712263049875
 20
7.780800428684647
 30
0.0
 11
45.43712263049875
 21
7.780800428684647
 31
0.0
  0
LINE
  5
30E
330
244
100
AcDbEntity
  8
0
 62
     0
100
AcDbLine
 10
46.38395247311073
 20
7.905452942254796
 30
0.0
 11
46.38395247311073
 21
7.905452942254796
 31
0.0
  0
LINE
  5
30F
330
244
100
AcDbEntity
  8
0
 62
     0
100
AcDbLine
 10
44.77944878689337
 20
6.794771148978746
 30
0.0
 11
44.77944878689337
 21
6.794771148978746
 31
0.0
  0
LINE
  5
310
330
244
100
AcDbEntity
  8
0
 62
     0
100
AcDbLine
 10
45.72627862950535
 20
6.919423662548895
 30
0.0
 11
45.72627862950535
 21
6.919423662548895
 31
0.0
  0
LINE
  5
311
330
244
100
AcDbEntity
  8
0
 62
     0
100
AcDbLine
 10
61.48405539496536
 20
8.99397433014634
 30
0.0
 11
61.48405539496536
 21
8.99397433014634
 31
0.0
  0
LINE
  5
312
330
244
100
AcDbEntity
  8
0
 62
     0
100
AcDbLine
 10
63.06293133670315
 20
9.201837291256772
 30
0.0
 11
63.06293133670315
 21
9.201837291256772
 31
0.0
  0
LINE
  5
313
330
244
100
AcDbEntity
  8
0
 62
     0
100
AcDbLine
 10
45.06860478589998
 20
5.933394382842994
 30
0.0
 11
45.06860478589998
 21
5.933394382842994
 31
0.0
  0
LINE
  5
314
330
244
100
AcDbEntity
  8
0
 62
     0
100
AcDbLine
 10
62.40525749309778
 20
8.215808011550871
 30
0.0
 11
62.40525749309778
 21
8.215808011550871
 31
0.0
  0
LINE
  5
315
330
244
100
AcDbEntity
  8
0
 62
     0
100
AcDbLine
 10
63.03110706184
 20
8.298202670389779
 30
0.0
 11
63.03110706184
 21
8.298202670389779
 31
0.0
  0
LINE
  5
316
330
244
100
AcDbEntity
  8
0
 62
     0
100
AcDbLine
 10
44.41093094229461
 20
4.947365103137093
 30
0.0
 11
44.41093094229461
 21
4.947365103137093
 31
0.0
  0
LINE
  5
317
330
244
100
AcDbEntity
  8
0
 62
     0
100
AcDbLine
 10
45.9898068840324
 20
5.155228064247526
 30
0.0
 11
45.9898068840324
 21
5.155228064247526
 31
0.0
  0
LINE
  5
318
330
244
100
AcDbEntity
  8
0
 62
     0
100
AcDbLine
 10
61.74758364949241
 20
7.22977873184497
 30
0.0
 11
61.74758364949241
 21
7.22977873184497
 31
0.0
  0
LINE
  5
319
330
244
100
AcDbEntity
  8
0
 62
     0
100
AcDbLine
 10
62.37343321823463
 20
7.312173390683878
 30
0.0
 11
62.37343321823463
 21
7.312173390683878
 31
0.0
  0
LINE
  5
31A
330
244
100
AcDbEntity
  8
0
 62
     0
100
AcDbLine
 10
63.32026306084662
 20
7.436825904254027
 30
0.0
 11
63.32026306084662
 21
7.436825904254027
 31
0.0
  0
LINE
  5
31B
330
244
100
AcDbEntity
  8
0
 62
     0
100
AcDbLine
 10
45.95798260916925
 20
4.251593443380534
 30
0.0
 11
45.95798260916925
 21
4.251593443380534
 31
0.0
  0
LINE
  5
31C
330
244
100
AcDbEntity
  8
0
 62
     0
100
AcDbLine
 10
61.71575937462925
 20
6.326144110977978
 30
0.0
 11
61.71575937462925
 21
6.326144110977978
 31
0.0
  0
LINE
  5
31D
330
244
100
AcDbEntity
  8
0
 62
     0
100
AcDbLine
 10
62.66258921724125
 20
6.450796624548127
 30
0.0
 11
62.66258921724125
 21
6.450796624548127
 31
0.0
  0
LINE
  5
31E
330
244
100
AcDbEntity
  8
0
 62
     0
100
AcDbLine
 10
62.00491537363586
 20
5.464767344842226
 30
0.0
 11
62.00491537363586
 21
5.464767344842226
 31
0.0
  0
LINE
  5
31F
330
244
100
AcDbEntity
  8
0
 62
     0
100
AcDbLine
 10
63.58379131537366
 20
5.672630305952658
 30
0.0
 11
63.58379131537366
 21
5.672630305952658
 31
0.0
  0
LINE
  5
320
330
244
100
AcDbEntity
  8
0
 62
     0
100
AcDbLine
 10
62.92611747176828
 20
4.686601026246758
 30
0.0
 11
62.92611747176828
 21
4.686601026246758
 31
0.0
  0
LINE
  5
321
330
244
100
AcDbEntity
  8
0
 62
     0
100
AcDbLine
 10
63.5519670405105
 20
4.768995685085665
 30
0.0
 11
63.5519670405105
 21
4.768995685085665
 31
0.0
  0
LINE
  5
322
330
244
100
AcDbEntity
  8
0
 62
     0
100
AcDbLine
 10
45.03413878150514
 20
16.20259537448422
 30
0.0
 11
45.03413878150514
 21
16.20259537448422
 31
0.0
  0
LINE
  5
323
330
244
100
AcDbEntity
  8
0
 62
     0
100
AcDbLine
 10
62.45017213754122
 20
5.107358462122306
 30
0.0
 11
62.45017213754122
 21
5.107358462122306
 31
0.0
  0
LINE
  5
324
330
244
100
AcDbEntity
  8
0
 62
     0
100
AcDbLine
 10
62.97729179117427
 20
4.771546206905541
 30
0.0
 11
62.97729179117427
 21
4.771546206905541
 31
0.0
  0
LINE
  5
325
330
244
100
AcDbEntity
  8
0
 62
     0
100
AcDbLine
 10
45.56125843513819
 20
15.86678311926745
 30
0.0
 11
45.56125843513819
 21
15.86678311926745
 31
0.0
  0
LINE
  5
326
330
244
100
AcDbEntity
  8
0
 62
     0
100
AcDbLine
 10
61.60245286193139
 20
6.441234019383769
 30
0.0
 11
61.60245286193139
 21
6.441234019383769
 31
0.0
  0
LINE
  5
327
330
244
100
AcDbEntity
  8
0
 62
     0
100
AcDbLine
 10
62.93700895236241
 20
6.384846840047818
 30
0.0
 11
62.93700895236241
 21
6.384846840047818
 31
0.0
  0
LINE
  5
328
330
244
100
AcDbEntity
  8
0
 62
     0
100
AcDbLine
 10
62.09983206982525
 20
7.712006152204938
 30
0.0
 11
62.09983206982525
 21
7.712006152204938
 31
0.0
  0
LINE
  5
329
330
244
100
AcDbEntity
  8
0
 62
     0
100
AcDbLine
 10
62.6269517234583
 20
7.376193896988173
 30
0.0
 11
62.6269517234583
 21
7.376193896988173
 31
0.0
  0
LINE
  5
32A
330
244
100
AcDbEntity
  8
0
 62
     0
100
AcDbLine
 10
63.43438816025628
 20
7.655618972868995
 30
0.0
 11
63.43438816025628
 21
7.655618972868995
 31
0.0
  0
LINE
  5
32B
330
244
100
AcDbEntity
  8
0
 62
     0
100
AcDbLine
 10
62.58666888464646
 20
8.989494530130452
 30
0.0
 11
62.58666888464646
 21
8.989494530130452
 31
0.0
  0
LINE
  5
32C
330
244
100
AcDbEntity
  8
0
 62
     0
100
AcDbLine
 10
62.23632881693051
 20
11.59414222021307
 30
0.0
 11
62.23632881693051
 21
11.59414222021307
 31
0.0
  0
LINE
  5
32D
330
244
100
AcDbEntity
  8
0
 62
     0
100
AcDbLine
 10
61.39915193439335
 20
12.9213015323702
 30
0.0
 11
61.39915193439335
 21
12.9213015323702
 31
0.0
  0
LINE
  5
32E
330
244
100
AcDbEntity
  8
0
 62
     0
100
AcDbLine
 10
61.9262715880264
 20
12.58548927715343
 30
0.0
 11
61.9262715880264
 21
12.58548927715343
 31
0.0
  0
LINE
  5
32F
330
244
100
AcDbEntity
  8
0
 62
     0
100
AcDbLine
 10
63.57088490736153
 20
11.53775504087712
 30
0.0
 11
63.57088490736153
 21
11.53775504087712
 31
0.0
  0
LINE
  5
330
330
244
100
AcDbEntity
  8
0
 62
     0
100
AcDbLine
 10
62.73370802482438
 20
12.86491435303425
 30
0.0
 11
62.73370802482438
 21
12.86491435303425
 31
0.0
  0
LINE
  5
331
330
244
100
AcDbEntity
  8
0
 62
     0
100
AcDbLine
 10
63.26082767845743
 20
12.52910209781748
 30
0.0
 11
63.26082767845743
 21
12.52910209781748
 31
0.0
  0
LINE
  5
332
330
244
100
AcDbEntity
  8
0
 62
     0
100
AcDbLine
 10
61.88598874921456
 20
14.1987899102957
 30
0.0
 11
61.88598874921456
 21
14.1987899102957
 31
0.0
  0
LINE
  5
333
330
244
100
AcDbEntity
  8
0
 62
     0
100
AcDbLine
 10
61.57593152031045
 20
15.19013696723606
 30
0.0
 11
61.57593152031045
 21
15.19013696723606
 31
0.0
  0
LINE
  5
334
330
244
100
AcDbEntity
  8
0
 62
     0
100
AcDbLine
 10
63.22054483964558
 20
14.14240273095975
 30
0.0
 11
63.22054483964558
 21
14.14240273095975
 31
0.0
  0
LINE
  5
335
330
244
100
AcDbEntity
  8
0
 62
     0
100
AcDbLine
 10
62.38336795710843
 20
15.46956204311688
 30
0.0
 11
62.38336795710843
 21
15.46956204311688
 31
0.0
  0
LINE
  5
336
330
244
100
AcDbEntity
  8
0
 62
     0
100
AcDbLine
 10
62.91048761074148
 20
15.13374978790012
 30
0.0
 11
62.91048761074148
 21
15.13374978790012
 31
0.0
  0
LINE
  5
337
330
244
100
AcDbEntity
  8
0
 62
     0
100
AcDbLine
 10
62.87020477192964
 20
16.74705042104239
 30
0.0
 11
62.87020477192964
 21
16.74705042104239
 31
0.0
  0
LINE
  5
338
330
244
100
AcDbEntity
  8
0
 62
     0
100
AcDbLine
 10
45.87131566404229
 20
14.8754360623271
 30
0.0
 11
45.87131566404229
 21
14.8754360623271
 31
0.0
  0
LINE
  5
339
330
244
100
AcDbEntity
  8
0
 62
     0
100
AcDbLine
 10
61.64273570074325
 20
4.827933386241491
 30
0.0
 11
61.64273570074325
 21
4.827933386241491
 31
0.0
  0
LINE
  5
33A
330
244
100
AcDbEntity
  8
0
 62
     0
100
AcDbLine
 10
44.53675957361127
 20
14.93182324166305
 30
0.0
 11
44.53675957361127
 21
14.93182324166305
 31
0.0
  0
LINE
  5
33B
330
244
100
AcDbEntity
  8
0
 62
     0
100
AcDbLine
 10
45.38447884922109
 20
13.5979476844016
 30
0.0
 11
45.38447884922109
 21
13.5979476844016
 31
0.0
  0
LINE
  5
33C
330
244
100
AcDbEntity
  8
0
 62
     0
100
AcDbLine
 10
45.91159850285413
 20
13.26213542918483
 30
0.0
 11
45.91159850285413
 21
13.26213542918483
 31
0.0
  0
LINE
  5
33D
330
244
100
AcDbEntity
  8
0
 62
     0
100
AcDbLine
 10
44.57704241242312
 20
13.31852260852078
 30
0.0
 11
44.57704241242312
 21
13.31852260852078
 31
0.0
  0
LINE
  5
33E
330
244
100
AcDbEntity
  8
0
 62
     0
100
AcDbLine
 10
46.22165573175825
 20
12.27078837224447
 30
0.0
 11
46.22165573175825
 21
12.27078837224447
 31
0.0
  0
LINE
  5
33F
330
244
100
AcDbEntity
  8
0
 62
     0
100
AcDbLine
 10
44.88709964132723
 20
12.32717555158042
 30
0.0
 11
44.88709964132723
 21
12.32717555158042
 31
0.0
  0
LINE
  5
340
330
244
100
AcDbEntity
  8
0
 62
     0
100
AcDbLine
 10
45.73481891693704
 20
10.99329999431897
 30
0.0
 11
45.73481891693704
 21
10.99329999431897
 31
0.0
  0
LINE
  5
341
330
244
100
AcDbEntity
  8
0
 62
     0
100
AcDbLine
 10
46.2619385705701
 20
10.6574877391022
 30
0.0
 11
46.2619385705701
 21
10.6574877391022
 31
0.0
  0
LINE
  5
342
330
244
100
AcDbEntity
  8
0
 62
     0
100
AcDbLine
 10
44.40026282650602
 20
11.04968717365491
 30
0.0
 11
44.40026282650602
 21
11.04968717365491
 31
0.0
  0
LINE
  5
343
330
244
100
AcDbEntity
  8
0
 62
     0
100
AcDbLine
 10
44.92738248013907
 20
10.71387491843814
 30
0.0
 11
44.92738248013907
 21
10.71387491843814
 31
0.0
  0
LINE
  5
344
330
244
100
AcDbEntity
  8
0
 62
     0
100
AcDbLine
 10
46.08515898465299
 20
8.388652304236337
 30
0.0
 11
46.08515898465299
 21
8.388652304236337
 31
0.0
  0
LINE
  5
345
330
244
100
AcDbEntity
  8
0
 62
     0
100
AcDbLine
 10
44.75060289422197
 20
8.445039483572285
 30
0.0
 11
44.75060289422197
 21
8.445039483572285
 31
0.0
  0
LINE
  5
346
330
244
100
AcDbEntity
  8
0
 62
     0
100
AcDbLine
 10
45.27772254785502
 20
8.10922722835552
 30
0.0
 11
45.27772254785502
 21
8.10922722835552
 31
0.0
  0
LINE
  5
347
330
244
100
AcDbEntity
  8
0
 62
     0
100
AcDbLine
 10
45.58777977675912
 20
7.11788017141516
 30
0.0
 11
45.58777977675912
 21
7.11788017141516
 31
0.0
  0
LINE
  5
348
330
244
100
AcDbEntity
  8
0
 62
     0
100
AcDbLine
 10
46.43549905236894
 20
5.784004614153703
 30
0.0
 11
46.43549905236894
 21
5.784004614153703
 31
0.0
  0
LINE
  5
349
330
244
100
AcDbEntity
  8
0
 62
     0
100
AcDbLine
 10
45.10094296193792
 20
5.840391793489651
 30
0.0
 11
45.10094296193792
 21
5.840391793489651
 31
0.0
  0
LINE
  5
34A
330
244
100
AcDbEntity
  8
0
 62
     0
100
AcDbLine
 10
45.62806261557097
 20
5.504579538272886
 30
0.0
 11
45.62806261557097
 21
5.504579538272886
 31
0.0
  0
LINE
  5
34B
330
244
100
AcDbEntity
  8
0
 62
     0
100
AcDbLine
 10
44.29350652513995
 20
5.560966717608837
 30
0.0
 11
44.29350652513995
 21
5.560966717608837
 31
0.0
  0
LINE
  5
34C
330
244
100
AcDbEntity
  8
0
 62
     0
100
AcDbLine
 10
45.93811984447508
 20
4.51323248133253
 30
0.0
 11
45.93811984447508
 21
4.51323248133253
 31
0.0
  0
LINE
  5
34D
330
244
100
AcDbEntity
  8
0
 62
     0
100
AcDbLine
 10
44.60356375404406
 20
4.569619660668482
 30
0.0
 11
44.60356375404406
 21
4.569619660668482
 31
0.0
  0
LINE
  5
34E
330
244
100
AcDbEntity
  8
0
 62
     0
100
AcDbLine
 10
61.87026969831453
 20
4.429829039313415
 30
0.0
 11
61.87026969831453
 21
4.429829039313415
 31
0.0
  0
LINE
  5
34F
330
244
100
AcDbEntity
  8
0
 62
     0
100
AcDbLine
 10
61.9734880152819
 20
5.921488501637989
 30
0.0
 11
61.9734880152819
 21
5.921488501637989
 31
0.0
  0
LINE
  5
350
330
244
100
AcDbEntity
  8
0
 62
     0
100
AcDbLine
 10
63.3282351216705
 20
4.680091495144213
 30
0.0
 11
63.3282351216705
 21
4.680091495144213
 31
0.0
  0
LINE
  5
351
330
244
100
AcDbEntity
  8
0
 62
     0
100
AcDbLine
 10
61.87764145131053
 20
7.595557320018786
 30
0.0
 11
61.87764145131053
 21
7.595557320018786
 31
0.0
  0
LINE
  5
352
330
244
100
AcDbEntity
  8
0
 62
     0
100
AcDbLine
 10
62.47667928746875
 20
7.046640276331062
 30
0.0
 11
62.47667928746875
 21
7.046640276331062
 31
0.0
  0
LINE
  5
353
330
244
100
AcDbEntity
  8
0
 62
     0
100
AcDbLine
 10
63.43145343863787
 20
6.171750957468781
 30
0.0
 11
63.43145343863787
 21
6.171750957468781
 31
0.0
  0
LINE
  5
354
330
244
100
AcDbEntity
  8
0
 62
     0
100
AcDbLine
 10
61.9808597682779
 20
9.087216782343363
 30
0.0
 11
61.9808597682779
 21
9.087216782343363
 31
0.0
  0
LINE
  5
355
330
244
100
AcDbEntity
  8
0
 62
     0
100
AcDbLine
 10
63.3356068746665
 20
7.845819775849587
 30
0.0
 11
63.3356068746665
 21
7.845819775849587
 31
0.0
  0
LINE
  5
356
330
244
100
AcDbEntity
  8
0
 62
     0
100
AcDbLine
 10
61.88501320430652
 20
10.76128560072415
 30
0.0
 11
61.88501320430652
 21
10.76128560072415
 31
0.0
  0
LINE
  5
357
330
244
100
AcDbEntity
  8
0
 62
     0
100
AcDbLine
 10
63.43882519163385
 20
9.337479238174154
 30
0.0
 11
63.43882519163385
 21
9.337479238174154
 31
0.0
  0
LINE
  5
358
330
244
100
AcDbEntity
  8
0
 62
     0
100
AcDbLine
 10
61.98823152127387
 20
12.25294506304872
 30
0.0
 11
61.98823152127387
 21
12.25294506304872
 31
0.0
  0
LINE
  5
359
330
244
100
AcDbEntity
  8
0
 62
     0
100
AcDbLine
 10
63.34297862766248
 20
11.01154805655494
 30
0.0
 11
63.34297862766248
 21
11.01154805655494
 31
0.0
  0
LINE
  5
35A
330
244
100
AcDbEntity
  8
0
 62
     0
100
AcDbLine
 10
61.89238495730251
 20
13.92701388142952
 30
0.0
 11
61.89238495730251
 21
13.92701388142952
 31
0.0
  0
LINE
  5
35B
330
244
100
AcDbEntity
  8
0
 62
     0
100
AcDbLine
 10
62.49142279346074
 20
13.37809683774179
 30
0.0
 11
62.49142279346074
 21
13.37809683774179
 31
0.0
  0
LINE
  5
35C
330
244
100
AcDbEntity
  8
0
 62
     0
100
AcDbLine
 10
63.44619694462984
 20
12.50320751887951
 30
0.0
 11
63.44619694462984
 21
12.50320751887951
 31
0.0
  0
LINE
  5
35D
330
244
100
AcDbEntity
  8
0
 62
     0
100
AcDbLine
 10
61.99560327426987
 20
15.41867334375409
 30
0.0
 11
61.99560327426987
 21
15.41867334375409
 31
0.0
  0
LINE
  5
35E
330
244
100
AcDbEntity
  8
0
 62
     0
100
AcDbLine
 10
63.35035038065847
 20
14.17727633726031
 30
0.0
 11
63.35035038065847
 21
14.17727633726031
 31
0.0
  0
LINE
  5
35F
330
244
100
AcDbEntity
  8
0
 62
     0
100
AcDbLine
 10
62.49879454645673
 20
16.54382511844716
 30
0.0
 11
62.49879454645673
 21
16.54382511844716
 31
0.0
  0
LINE
  5
360
330
244
100
AcDbEntity
  8
0
 62
     0
100
AcDbLine
 10
63.45356869762584
 20
15.66893579958488
 30
0.0
 11
63.45356869762584
 21
15.66893579958488
 31
0.0
  0
LINE
  5
361
330
244
100
AcDbEntity
  8
0
 62
     0
100
AcDbLine
 10
45.01058121918113
 20
16.706403929183
 30
0.0
 11
45.01058121918113
 21
16.706403929183
 31
0.0
  0
LINE
  5
362
330
244
100
AcDbEntity
  8
0
 62
     0
100
AcDbLine
 10
45.96535537035024
 20
15.83151461032072
 30
0.0
 11
45.96535537035024
 21
15.83151461032072
 31
0.0
  0
LINE
  5
363
330
244
100
AcDbEntity
  8
0
 62
     0
100
AcDbLine
 10
44.50738994699427
 20
15.58125215448992
 30
0.0
 11
44.50738994699427
 21
15.58125215448992
 31
0.0
  0
LINE
  5
364
330
244
100
AcDbEntity
  8
0
 62
     0
100
AcDbLine
 10
45.86213705338287
 20
14.33985514799615
 30
0.0
 11
45.86213705338287
 21
14.33985514799615
 31
0.0
  0
LINE
  5
365
330
244
100
AcDbEntity
  8
0
 62
     0
100
AcDbLine
 10
46.4611748895411
 20
13.79093810430842
 30
0.0
 11
46.4611748895411
 21
13.79093810430842
 31
0.0
  0
LINE
  5
366
330
244
100
AcDbEntity
  8
0
 62
     0
100
AcDbLine
 10
44.40417163002691
 20
14.08959269216535
 30
0.0
 11
44.40417163002691
 21
14.08959269216535
 31
0.0
  0
LINE
  5
367
330
244
100
AcDbEntity
  8
0
 62
     0
100
AcDbLine
 10
45.00320946618514
 20
13.54067564847763
 30
0.0
 11
45.00320946618514
 21
13.54067564847763
 31
0.0
  0
LINE
  5
368
330
244
100
AcDbEntity
  8
0
 62
     0
100
AcDbLine
 10
45.95798361735424
 20
12.66578632961535
 30
0.0
 11
45.95798361735424
 21
12.66578632961535
 31
0.0
  0
LINE
  5
369
330
244
100
AcDbEntity
  8
0
 62
     0
100
AcDbLine
 10
44.50001819399829
 20
12.41552387378456
 30
0.0
 11
44.50001819399829
 21
12.41552387378456
 31
0.0
  0
LINE
  5
36A
330
244
100
AcDbEntity
  8
0
 62
     0
100
AcDbLine
 10
45.85476530038689
 20
11.17412686729078
 30
0.0
 11
45.85476530038689
 21
11.17412686729078
 31
0.0
  0
LINE
  5
36B
330
244
100
AcDbEntity
  8
0
 62
     0
100
AcDbLine
 10
46.45380313654511
 20
10.62520982360306
 30
0.0
 11
46.45380313654511
 21
10.62520982360306
 31
0.0
  0
LINE
  5
36C
330
244
100
AcDbEntity
  8
0
 62
     0
100
AcDbLine
 10
44.39679987703093
 20
10.92386441145998
 30
0.0
 11
44.39679987703093
 21
10.92386441145998
 31
0.0
  0
LINE
  5
36D
330
244
100
AcDbEntity
  8
0
 62
     0
100
AcDbLine
 10
44.4926464410023
 20
9.249795593079191
 30
0.0
 11
44.4926464410023
 21
9.249795593079191
 31
0.0
  0
LINE
  5
36E
330
244
100
AcDbEntity
  8
0
 62
     0
100
AcDbLine
 10
45.8473935473909
 20
8.008398586585416
 30
0.0
 11
45.8473935473909
 21
8.008398586585416
 31
0.0
  0
LINE
  5
36F
330
244
100
AcDbEntity
  8
0
 62
     0
100
AcDbLine
 10
46.44643138354912
 20
7.459481542897692
 30
0.0
 11
46.44643138354912
 21
7.459481542897692
 31
0.0
  0
LINE
  5
370
330
244
100
AcDbEntity
  8
0
 62
     0
100
AcDbLine
 10
44.38942812403493
 20
7.758136130754621
 30
0.0
 11
44.38942812403493
 21
7.758136130754621
 31
0.0
  0
LINE
  5
371
330
244
100
AcDbEntity
  8
0
 62
     0
100
AcDbLine
 10
44.98846596019316
 20
7.209219087066897
 30
0.0
 11
44.98846596019316
 21
7.209219087066897
 31
0.0
  0
LINE
  5
372
330
244
100
AcDbEntity
  8
0
 62
     0
100
AcDbLine
 10
45.94324011136227
 20
6.334329768204617
 30
0.0
 11
45.94324011136227
 21
6.334329768204617
 31
0.0
  0
LINE
  5
373
330
244
100
AcDbEntity
  8
0
 62
     0
100
AcDbLine
 10
44.4852746880063
 20
6.084067312373819
 30
0.0
 11
44.4852746880063
 21
6.084067312373819
 31
0.0
  0
LINE
  5
374
330
244
100
AcDbEntity
  8
0
 62
     0
100
AcDbLine
 10
45.8400217943949
 20
4.842670305880043
 30
0.0
 11
45.8400217943949
 21
4.842670305880043
 31
0.0
  0
LINE
  5
375
330
244
100
AcDbEntity
  8
0
 62
     0
100
AcDbLine
 10
46.43905963055313
 20
4.29375326219232
 30
0.0
 11
46.43905963055313
 21
4.29375326219232
 31
0.0
  0
LINE
  5
376
330
244
100
AcDbEntity
  8
0
 62
     0
100
AcDbLine
 10
44.38205637103894
 20
4.592407850049252
 30
0.0
 11
44.38205637103894
 21
4.592407850049252
 31
0.0
  0
ENDBLK
  5
378
330
244
100
AcDbEntity
  8
0
100
AcDbBlockEnd
  0
BLOCK
  5
BFB
330
BF1
100
AcDbEntity
  8
0
100
AcDbBlockBegin
  2
SPECSHEET_FLOWARROW
 70
     0
 10
0.0
 20
0.0
 30
0.0
  3
SPECSHEET_FLOWARROW
  1

  0
LINE
  5
BF2
330
BF1
100
AcDbEntity
  8
0
100
AcDbLine
 10
-0.3883432548078076
 20
-4.226471473879882
 30
0.0
 11
-0.3883432548079213
 21
-1.384666629104103
 31
0.0
  0
LINE
  5
BF3
330
BF1
100
AcDbEntity
  8
0
100
AcDbLine
 10
0.3883432548076939
 20
-4.226471473879882
 30
0.0
 11
0.3883432548077508
 21
-1.384666629103975
 31
0.0
  0
LINE
  5
BF4
330
BF1
100
AcDbEntity
  8
0
100
AcDbLine
 10
-0.3883432548079213
 20
-4.226471473879882
 30
0.0
 11
0.3883432548076939
 21
-4.226471473879882
 31
0.0
  0
LINE
  5
BF5
330
BF1
100
AcDbEntity
  8
0
100
AcDbLine
 10
0.0
 20
0.0
 30
0.0
 11
-1.359203679482106
 21
-1.359203679482106
 31
0.0
  0
LINE
  5
BF6
330
BF1
100
AcDbEntity
  8
0
100
AcDbLine
 10
-0.3883432548079213
 20
-1.384666629104174
 30
0.0
 11
-1.359203679482106
 21
-2.355527053778388
 31
0.0
  0
LINE
  5
BF7
330
BF1
100
AcDbEntity
  8
0
100
AcDbLine
 10
-1.359203679482106
 20
-2.355527053778374
 30
0.0
 11
-1.359203679482106
 21
-1.35920367948205
 31
0.0
  0
LINE
  5
BF8
330
BF1
100
AcDbEntity
  8
0
100
AcDbLine
 10
1.359203679482106
 20
-2.355527053778359
 30
0.0
 11
1.359203679482106
 21
-1.359203679482078
 31
0.0
  0
LINE
  5
BF9
330
BF1
100
AcDbEntity
  8
0
100
AcDbLine
 10
0.0
 20
0.0
 30
0.0
 11
1.35920367948205
 21
-1.359203679482106
 31
0.0
  0
LINE
  5
BFA
330
BF1
100
AcDbEntity
  8
0
100
AcDbLine
 10
0.3883432548077508
 20
-1.384666629103989
 30
0.0
 11
1.35920367948205
 21
-2.355527053778317
 31
0.0
  0
ENDBLK
  5
BFC
330
BF1
100
AcDbEntity
  8
0
100
AcDbBlockEnd
  0
ENDSEC
  0
SECTION
  2
ENTITIES
  0
ARC
  5
7E
330
1E
100
AcDbEntity
  8
OBJECT1
  6
CONTINUOUS
100
AcDbCircle
 10
3.086437926437868
 20
8.846563794746744
 30
0.0
 40
0.0159144273989545
100
AcDbArc
 50
270.0003279999999
 51
0.0
  0
ARC
  5
7F
330
1E
100
AcDbEntity
  8
OBJECT1
  6
CONTINUOUS
100
AcDbCircle
 10
3.029852790466113
 20
8.814735192558792
 30
0.0
 40
0.0159144273989545
100
AcDbArc
 50
89.99932899999995
 51
180.0
  0
LINE
  5
80
330
1E
100
AcDbEntity
  8
OBJECT2
  6
CONTINUOUS
100
AcDbLine
 10
2.938155628063046
 20
8.830649367347785
 30
0.0
 11
2.938155628063046
 21
8.767496877669394
 31
0.0
  0
LINE
  5
81
330
1E
100
AcDbEntity
  8
OBJECT2
  6
CONTINUOUS
100
AcDbLine
 10
2.786589905444868
 20
8.767496877669394
 30
0.0
 11
2.786589905444868
 21
8.830649367347785
 31
0.0
  0
ARC
  5
82
330
1E
100
AcDbEntity
  8
OBJECT1
  6
CONTINUOUS
100
AcDbCircle
 10
2.694892743041801
 20
8.814735697778715
 30
0.0
 40
0.0159141747889958
100
AcDbArc
 50
359.998265
 51
90.001312
  0
ARC
  5
83
330
1E
100
AcDbEntity
  8
OBJECT1
  6
CONTINUOUS
100
AcDbCircle
 10
2.638307607070046
 20
8.846563794743904
 30
0.0
 40
0.0159144273989545
100
AcDbArc
 50
180.0
 51
270.001083
  0
LINE
  5
87
330
1E
100
AcDbEntity
  8
OBJECT1
  6
CONTINUOUS
100
AcDbLine
 10
2.726721345229757
 20
8.767496877669394
 30
0.0
 11
2.799220529685522
 21
8.767496877669394
 31
0.0
  0
LINE
  5
8F
330
1E
100
AcDbEntity
  8
OBJECT1
  6
CONTINUOUS
100
AcDbLine
 10
2.710806917830796
 20
8.783411305068355
 30
0.0
 11
2.710806917830796
 21
8.814735192558792
 31
0.0
  0
ARC
  5
90
330
1E
100
AcDbEntity
  8
OBJECT1
  6
CONTINUOUS
100
AcDbCircle
 10
2.726721092619795
 20
8.783411305068355
 30
0.0
 40
0.0159144273989545
100
AcDbArc
 50
180.0
 51
270.00119
  0
ARC
  5
91
330
1E
100
AcDbEntity
  8
OBJECT1
  6
CONTINUOUS
100
AcDbCircle
 10
2.998024188278158
 20
8.783411305068355
 30
0.0
 40
0.0159144273989545
100
AcDbArc
 50
270.0002139999999
 51
0.0
  0
LINE
  5
92
330
1E
100
AcDbEntity
  8
OBJECT1
  6
CONTINUOUS
100
AcDbLine
 10
2.806798828446931
 20
8.658096304139771
 30
0.0
 11
2.806798828446931
 21
8.725331223360928
 31
0.0
  0
LINE
  5
93
330
1E
100
AcDbEntity
  8
OBJECT1
  6
CONTINUOUS
100
AcDbLine
 10
2.917947210280901
 20
8.658096304139771
 30
0.0
 11
2.917947210280901
 21
8.725331223360928
 31
0.0
  0
LINE
  5
94
330
1E
100
AcDbEntity
  8
OBJECT1
  6
CONTINUOUS
100
AcDbLine
 10
2.917947210280901
 20
8.658096304139771
 30
0.0
 11
2.806798828446931
 21
8.658096304139771
 31
0.0
  0
LINE
  5
95
330
1E
100
AcDbEntity
  8
OBJECT2
  6
CONTINUOUS
100
AcDbLine
 10
2.812909968568131
 20
8.756556340357514
 30
0.0
 11
2.911835817549743
 21
8.756556340357514
 31
0.0
  0
LINE
  5
96
330
1E
100
AcDbEntity
  8
OBJECT2
  6
CONTINUOUS
100
AcDbLine
 10
2.925525509042305
 20
8.767496877669394
 30
0.0
 11
2.799220529685522
 21
8.767496877669394
 31
0.0
  0
LINE
  5
97
330
1E
100
AcDbEntity
  8
OBJECT2
  6
CONTINUOUS
100
AcDbLine
 10
2.812909968568131
 20
8.734675013123787
 30
0.0
 11
2.911835817549743
 21
8.734675013123787
 31
0.0
  0
LINE
  5
98
330
1E
100
AcDbEntity
  8
OBJECT2
  6
CONTINUOUS
100
AcDbLine
 10
2.925525509042305
 20
8.745615803045634
 30
0.0
 11
2.799220529685522
 21
8.745615803045634
 31
0.0
  0
LINE
  5
99
330
1E
100
AcDbEntity
  8
OBJECT2
  6
CONTINUOUS
100
AcDbLine
 10
2.806798828446931
 20
8.725331223360928
 30
0.0
 11
2.917947210280901
 21
8.725331223360928
 31
0.0
  0
LINE
  5
9A
330
1E
100
AcDbEntity
  8
OBJECT1
  6
CONTINUOUS
100
AcDbLine
 10
2.799220529685522
 20
8.767496877669394
 30
0.0
 11
2.799220529685522
 21
8.725331223360928
 31
0.0
  0
LINE
  5
9B
330
1E
100
AcDbEntity
  8
OBJECT1
  6
CONTINUOUS
100
AcDbLine
 10
2.799220529685522
 20
8.725331223360928
 30
0.0
 11
2.806798828446931
 21
8.725331223360928
 31
0.0
  0
LINE
  5
9C
330
1E
100
AcDbEntity
  8
OBJECT1
  6
CONTINUOUS
100
AcDbLine
 10
2.925525509042305
 20
8.767496877669394
 30
0.0
 11
2.925525509042305
 21
8.725331223360928
 31
0.0
  0
LINE
  5
9D
330
1E
100
AcDbEntity
  8
OBJECT1
  6
CONTINUOUS
100
AcDbLine
 10
2.925525509042305
 20
8.725331223360928
 30
0.0
 11
2.917947210280901
 21
8.725331223360928
 31
0.0
  0
LINE
  5
9E
330
1E
100
AcDbEntity
  8
OBJECT1
  6
CONTINUOUS
100
AcDbLine
 10
2.925525509042305
 20
8.767496877669394
 30
0.0
 11
2.998024188278158
 21
8.767496877669394
 31
0.0
  0
LINE
  5
9F
330
1E
100
AcDbEntity
  8
OBJECT1
  6
CONTINUOUS
100
AcDbLine
 10
3.013938615677119
 20
8.783411305068355
 30
0.0
 11
3.013938615677119
 21
8.814735192558792
 31
0.0
  0
LINE
  5
A1
330
1E
100
AcDbEntity
  8
OBJECT1
  6
CONTINUOUS
100
AcDbLine
 10
2.714989254612241
 20
10.12132332295072
 30
0.0
 11
2.783306102286573
 21
10.12132332295072
 31
0.0
  0
LINE
  5
A3
330
1E
100
AcDbEntity
  8
OBJECT2
  6
CONTINUOUS
100
AcDbLine
 10
2.648603104852361
 20
9.805560874558779
 30
0.0
 11
3.076142933875475
 21
9.805560874558779
 31
0.0
  0
LINE
  5
A4
330
1E
100
AcDbEntity
  8
OBJECT2
  6
CONTINUOUS
100
AcDbLine
 10
2.694892490431847
 20
8.830649367347785
 30
0.0
 11
3.029853043076073
 21
8.830649367347785
 31
0.0
  0
LINE
  5
A5
330
1E
100
AcDbEntity
  8
OBJECT2
  6
CONTINUOUS
100
AcDbLine
 10
2.493562353337136
 20
9.580900944727078
 30
0.0
 11
3.231183432780738
 21
9.580900944727078
 31
0.0
  0
LINE
  5
A6
330
1E
100
AcDbEntity
  8
OBJECT2
  6
CONTINUOUS
100
AcDbLine
 10
2.545135076203116
 20
9.603472907587921
 30
0.0
 11
3.178425211378515
 21
9.603472654977974
 31
0.0
  0
LINE
  5
A7
330
1E
100
AcDbEntity
  8
OBJECT2
  6
CONTINUOUS
100
AcDbLine
 10
3.173080995091968
 20
9.600387276942241
 30
0.0
 11
2.551665043635864
 21
9.593531442662747
 31
0.0
  0
LINE
  5
A8
330
1E
100
AcDbEntity
  8
OBJECT2
  6
CONTINUOUS
100
AcDbLine
 10
3.123824326632457
 20
9.63504915242712
 30
0.0
 11
2.600921712095381
 21
9.63504915242712
 31
0.0
  0
LINE
  5
A9
330
1E
100
AcDbEntity
  8
OBJECT2
  6
CONTINUOUS
100
AcDbLine
 10
3.107909899233499
 20
9.666625144656363
 30
0.0
 11
2.616836139494337
 21
9.666625144656363
 31
0.0
  0
LINE
  5
AA
330
1E
100
AcDbEntity
  8
OBJECT2
  6
CONTINUOUS
100
AcDbLine
 10
3.184955431421219
 20
9.593531442662747
 30
0.0
 11
2.551665043635864
 21
9.593531442662747
 31
0.0
  0
LINE
  5
AB
330
1E
100
AcDbEntity
  8
OBJECT2
  6
CONTINUOUS
100
AcDbLine
 10
2.586580413214312
 20
9.492487459177329
 30
0.0
 11
3.16088763868985
 21
9.492487459177329
 31
0.0
  0
LINE
  5
AC
330
1E
100
AcDbEntity
  8
OBJECT2
  6
CONTINUOUS
100
AcDbLine
 10
3.10235235383682
 20
8.874856110122665
 30
0.0
 11
2.622393432281054
 21
8.874856110122665
 31
0.0
  0
LINE
  5
AF
330
1E
100
AcDbEntity
  8
OBJECT1
  6
CONTINUOUS
100
AcDbLine
 10
2.664478882927632
 20
9.820364070749345
 30
0.0
 11
2.683490055810448
 21
10.09195185783119
 31
0.0
  0
LWPOLYLINE
  5
BC
330
1E
100
AcDbEntity
  8
OBJECT1
  6
CONTINUOUS
100
AcDbPolyline
 90
        2
 70
     0
 43
0.0
 10
2.096701612739279
 20
9.100516416627097
 10
2.096701612739279
 20
9.451232927753718
  0
LINE
  5
C0
330
1E
100
AcDbEntity
  8
OBJECT2
  6
CONTINUOUS
100
AcDbLine
 10
2.427555623735239
 20
9.478218027829512
 30
0.0
 11
2.418587717590954
 21
9.073531316551299
 31
0.0
  0
LINE
  5
C1
330
1E
100
AcDbEntity
  8
OBJECT2
  6
CONTINUOUS
100
AcDbLine
 10
2.409619558836705
 20
9.057998330190002
 30
0.0
 11
2.418587717590954
 21
9.493751014190811
 31
0.0
  0
LINE
  5
C2
330
1E
100
AcDbEntity
  8
OBJECT2
  6
CONTINUOUS
100
AcDbLine
 10
2.409619558836705
 20
9.478218027829512
 30
0.0
 11
2.400651652692413
 21
9.073531316551299
 31
0.0
  0
LINE
  5
C3
330
1E
100
AcDbEntity
  8
OBJECT2
100
AcDbLine
 10
2.400651652692413
 20
9.493751014190811
 30
0.0
 11
2.400651652692413
 21
9.073531316551299
 31
0.0
  0
LWPOLYLINE
  5
C4
330
1E
100
AcDbEntity
  8
OBJECT2
  6
CONTINUOUS
100
AcDbPolyline
 90
        2
 70
     0
 43
0.0
 10
2.381732633121368
 20
9.415262003535605
 10
2.400651652692409
 20
9.325024598816016
  0
LINE
  5
C8
330
1E
100
AcDbEntity
  8
OBJECT2
100
AcDbLine
 10
2.224514886754269
 20
9.458365093762479
 30
0.0
 11
2.224514886754269
 21
9.093384250618342
 31
0.0
  0
LWPOLYLINE
  5
C9
330
1E
100
AcDbEntity
  8
OBJECT2
  6
CONTINUOUS
100
AcDbPolyline
 90
        2
 70
     0
 43
0.0
 10
2.243433906325304
 20
9.415262003535605
 10
2.224514886754263
 20
9.325024598816016
  0
LWPOLYLINE
  5
CD
330
1E
100
AcDbEntity
  8
OBJECT2
  6
CONTINUOUS
100
AcDbPolyline
 90
        2
 70
     0
 43
0.0
 10
2.381732633121368
 20
9.13648734084521
 10
2.243433906325304
 20
9.13648734084521
  0
LWPOLYLINE
  5
D1
330
1E
100
AcDbEntity
  8
OBJECT1
  6
CONTINUOUS
100
AcDbPolyline
 90
        2
 70
     0
 43
0.0
 10
2.381732633121368
 20
8.997255056587164
 10
2.243433906325304
 20
8.997255056587164
  0
LWPOLYLINE
  5
D6
330
1E
100
AcDbEntity
  8
OBJECT2
  6
CONTINUOUS
100
AcDbPolyline
 90
        2
 70
     0
 43
0.0
 10
2.243433906325304
 20
9.13648734084521
 10
2.224514886754263
 20
9.071057470069154
  0
LWPOLYLINE
  5
DB
330
1E
100
AcDbEntity
  8
OBJECT1
  6
CONTINUOUS
100
AcDbPolyline
 90
        2
 70
     0
 43
0.0
 10
2.224514886754263
 20
9.093384250618335
 10
2.10414387292234
 20
9.093384250618335
  0
LWPOLYLINE
  5
DF
330
1E
100
AcDbEntity
  8
OBJECT1
  6
CONTINUOUS
100
AcDbPolyline
 90
        2
 70
     0
 43
0.0
 10
2.10414387292234
 20
9.093384250618335
 10
2.096701612739279
 20
9.100516416627097
  0
LWPOLYLINE
  5
E3
330
1E
100
AcDbEntity
  8
OBJECT1
  6
CONTINUOUS
100
AcDbPolyline
 90
        2
 70
     0
 43
0.0
 10
2.224514886754263
 20
9.093384250618335
 10
2.224514886754263
 20
9.032605792456688
  0
LWPOLYLINE
  5
E7
330
1E
100
AcDbEntity
  8
OBJECT1
  6
CONTINUOUS
100
AcDbPolyline
 90
        2
 70
     0
 43
0.0
 10
2.243433906325304
 20
8.997255056587164
 10
2.224514886754263
 20
9.032605792456688
  0
LWPOLYLINE
  5
ED
330
1E
100
AcDbEntity
  8
OBJECT2
  6
CONTINUOUS
100
AcDbPolyline
 90
        2
 70
     0
 43
0.0
 10
2.243433906325304
 20
9.13648734084521
 10
2.224514886754263
 20
9.227034839739086
  0
LINE
  5
F1
330
1E
100
AcDbEntity
  8
OBJECT2
  6
CONTINUOUS
100
AcDbLine
 10
2.424379306114373
 20
9.063499669870859
 30
0.0
 11
2.430442197733459
 21
9.232191084640023
 31
0.0
  0
LWPOLYLINE
  5
F2
330
1E
100
AcDbEntity
  8
OBJECT2
  6
CONTINUOUS
100
AcDbPolyline
 90
        2
 70
     0
 43
0.0
 10
2.381732633121368
 20
9.13648734084521
 10
2.400651652692409
 20
9.071057470069154
  0
LINE
  5
F6
330
1E
100
AcDbEntity
  8
OBJECT2
  6
CONTINUOUS
100
AcDbLine
 10
2.633756080833947
 20
9.082169314089508
 30
0.0
 11
2.664273637336176
 21
9.116133986088334
 31
0.0
  0
LINE
  5
F7
330
1E
100
AcDbEntity
  8
OBJECT2
  6
CONTINUOUS
100
AcDbLine
 10
2.651194756723782
 20
9.124625217240534
 30
0.0
 11
2.603239029551637
 21
9.090660292631742
 31
0.0
  0
LINE
  5
F8
330
1E
100
AcDbEntity
  8
OBJECT1
  6
CONTINUOUS
100
AcDbLine
 10
2.444415317599702
 20
9.076944077093514
 30
0.0
 11
2.607236834758236
 21
9.076944077093514
 31
0.0
  0
LINE
  5
F9
330
1E
100
AcDbEntity
  8
OBJECT1
  6
CONTINUOUS
100
AcDbLine
 10
2.433162554378847
 20
9.072282918135336
 30
0.0
 11
2.424379306114373
 21
9.063499669870859
 31
0.0
  0
LINE
  5
FA
330
1E
100
AcDbEntity
  8
OBJECT1
  6
CONTINUOUS
100
AcDbLine
 10
2.400651652692413
 20
9.073531316551299
 30
0.0
 11
2.409619558836705
 21
9.057998330190002
 31
0.0
  0
LWPOLYLINE
  5
FB
330
1E
100
AcDbEntity
  8
OBJECT1
  6
CONTINUOUS
100
AcDbPolyline
 90
        2
 70
     0
 43
0.0
 10
2.400651652692409
 20
9.073531316551301
 10
2.400651652692409
 20
9.032605792456688
  0
LINE
  5
FF
330
1E
100
AcDbEntity
  8
OBJECT1
  6
CONTINUOUS
100
AcDbLine
 10
2.418587717590954
 20
9.073531316551299
 30
0.0
 11
2.424379306114373
 21
9.063499669870859
 31
0.0
  0
LINE
  5
100
330
1E
100
AcDbEntity
  8
OBJECT1
  6
CONTINUOUS
100
AcDbLine
 10
2.409619558836705
 20
9.057998330190002
 30
0.0
 11
2.418587717590954
 21
9.073531316551299
 31
0.0
  0
LWPOLYLINE
  5
101
330
1E
100
AcDbEntity
  8
OBJECT1
  6
CONTINUOUS
100
AcDbPolyline
 90
        2
 70
     0
 43
0.0
 10
2.381732633121368
 20
8.997255056587164
 10
2.400651652692409
 20
9.032605792456688
  0
ARC
  5
105
330
1E
100
AcDbEntity
  8
OBJECT1
  6
CONTINUOUS
100
AcDbCircle
 10
2.444415064989746
 20
9.061031165354311
 30
0.0
 40
0.0159129117392022
100
AcDbArc
 50
89.99896200000005
 51
135.001709
  0
LINE
  5
106
330
1E
100
AcDbEntity
  8
OBJECT1
  6
CONTINUOUS
100
AcDbLine
 10
2.622393179671094
 20
8.846563794743904
 30
0.0
 11
2.622393432281054
 21
9.061787226960746
 31
0.0
  0
LINE
  5
107
330
1E
100
AcDbEntity
  8
OBJECT1
  6
CONTINUOUS
100
AcDbLine
 10
2.638307859680006
 20
8.830649367347785
 30
0.0
 11
2.694892490431847
 21
8.830649367347785
 31
0.0
  0
ARC
  5
108
330
1E
100
AcDbEntity
  8
OBJECT1
  6
CONTINUOUS
100
AcDbCircle
 10
2.607237087368201
 20
9.061787479570703
 30
0.0
 40
0.0151563449128551
100
AcDbArc
 50
359.999084
 51
90.00140400000001
  0
LINE
  5
109
330
1E
100
AcDbEntity
  8
OBJECT2
  6
CONTINUOUS
100
AcDbLine
 10
2.550826252267954
 20
9.282553426888835
 30
0.0
 11
2.534122923967936
 21
9.301208419729874
 31
0.0
  0
LINE
  5
10A
330
1E
100
AcDbEntity
  8
OBJECT2
  6
CONTINUOUS
100
AcDbLine
 10
2.550825999657993
 20
9.269195917491977
 30
0.0
 11
2.534122923967936
 21
9.250540672040981
 31
0.0
  0
LINE
  5
10B
330
1E
100
AcDbEntity
  8
OBJECT2
  6
CONTINUOUS
100
AcDbLine
 10
2.464599358520834
 20
9.250540672040981
 30
0.0
 11
2.499370866727794
 21
9.27587441958045
 31
0.0
  0
LWPOLYLINE
  5
10C
330
1E
100
AcDbEntity
  8
OBJECT2
  6
CONTINUOUS
100
AcDbPolyline
 90
        2
 70
     0
 43
0.0
 10
2.381732633121368
 20
9.13648734084521
 10
2.400651652692409
 20
9.227034839739086
  0
LINE
  5
110
330
1E
100
AcDbEntity
  8
OBJECT2
  6
CONTINUOUS
100
AcDbLine
 10
2.534122923967936
 20
9.250540672040981
 30
0.0
 11
2.464599358520834
 21
9.250540672040981
 31
0.0
  0
LINE
  5
111
330
1E
100
AcDbEntity
  8
OBJECT2
  6
CONTINUOUS
100
AcDbLine
 10
2.499370866727794
 20
9.27587441958045
 30
0.0
 11
2.464599358520834
 21
9.301208419729874
 31
0.0
  0
LINE
  5
112
330
1E
100
AcDbEntity
  8
OBJECT2
  6
CONTINUOUS
100
AcDbLine
 10
2.534122923967936
 20
9.301208419729874
 30
0.0
 11
2.464599358520834
 21
9.301208419729874
 31
0.0
  0
LINE
  5
113
330
1E
100
AcDbEntity
  8
OBJECT2
  6
CONTINUOUS
100
AcDbLine
 10
2.734027835675586
 20
9.14585304251107
 30
0.0
 11
2.651194756723782
 21
9.124625217240534
 31
0.0
  0
LINE
  5
114
330
1E
100
AcDbEntity
  8
OBJECT2
  6
CONTINUOUS
100
AcDbLine
 10
2.664273637336176
 20
9.116133986088334
 30
0.0
 11
2.734027835675586
 21
9.14585304251107
 31
0.0
  0
LINE
  5
115
330
1E
100
AcDbEntity
  8
OBJECT2
  6
CONTINUOUS
100
AcDbLine
 10
2.603577021676395
 20
9.282553426888835
 30
0.0
 11
2.550826252267954
 21
9.282553426888835
 31
0.0
  0
LINE
  5
116
330
1E
100
AcDbEntity
  8
OBJECT2
  6
CONTINUOUS
100
AcDbLine
 10
2.603577021676395
 20
9.269195917491977
 30
0.0
 11
2.550825999657993
 21
9.269195917491977
 31
0.0
  0
LINE
  5
117
330
1E
100
AcDbEntity
  8
OBJECT2
  6
CONTINUOUS
100
AcDbLine
 10
2.603577021676395
 20
9.282553426888835
 30
0.0
 11
2.603577021676395
 21
9.269195917491977
 31
0.0
  0
LWPOLYLINE
  5
118
330
1E
100
AcDbEntity
  8
OBJECT2
  6
CONTINUOUS
100
AcDbPolyline
 90
        2
 70
     0
 43
0.0
 10
2.381732633121368
 20
9.415262003535605
 10
2.243433906325304
 20
9.415262003535605
  0
LWPOLYLINE
  5
11C
330
1E
100
AcDbEntity
  8
OBJECT1
  6
CONTINUOUS
100
AcDbPolyline
 90
        2
 70
     0
 43
0.0
 10
2.381732633121368
 20
9.554804381967942
 10
2.243433906325304
 20
9.554804381967942
  0
LWPOLYLINE
  5
120
330
1E
100
AcDbEntity
  8
OBJECT1
  6
CONTINUOUS
100
AcDbPolyline
 90
        2
 70
     0
 43
0.0
 10
2.243433906325304
 20
9.554804381967942
 10
2.224514886754263
 20
9.519453646098414
  0
LWPOLYLINE
  5
124
330
1E
100
AcDbEntity
  8
OBJECT1
  6
CONTINUOUS
100
AcDbPolyline
 90
        2
 70
     0
 43
0.0
 10
2.10414387292234
 20
9.458365093762481
 10
2.224514886754263
 20
9.458365093762481
  0
LWPOLYLINE
  5
128
330
1E
100
AcDbEntity
  8
OBJECT1
  6
CONTINUOUS
100
AcDbPolyline
 90
        2
 70
     0
 43
0.0
 10
2.096701612739279
 20
9.451232927753718
 10
2.10414387292234
 20
9.458365093762481
  0
LWPOLYLINE
  5
12C
330
1E
100
AcDbEntity
  8
OBJECT1
  6
CONTINUOUS
100
AcDbPolyline
 90
        2
 70
     0
 43
0.0
 10
2.224514886754263
 20
9.519453646098414
 10
2.224514886754263
 20
9.458365093762481
  0
LWPOLYLINE
  5
130
330
1E
100
AcDbEntity
  8
OBJECT2
  6
CONTINUOUS
100
AcDbPolyline
 90
        2
 70
     0
 43
0.0
 10
2.243433906325304
 20
9.415262003535605
 10
2.224514886754263
 20
9.480691874311649
  0
LINE
  5
134
330
1E
100
AcDbEntity
  8
OBJECT1
  6
CONTINUOUS
100
AcDbLine
 10
2.624919658173167
 20
9.789646194549863
 30
0.0
 11
2.624919658173167
 21
9.674708915945151
 31
0.0
  0
LINE
  5
135
330
1E
100
AcDbEntity
  8
OBJECT2
  6
CONTINUOUS
100
AcDbLine
 10
2.743646338768542
 20
9.805560874558779
 30
0.0
 11
2.743646338768542
 21
9.666625144656363
 31
0.0
  0
LINE
  5
136
330
1E
100
AcDbEntity
  8
OBJECT1
  6
CONTINUOUS
100
AcDbLine
 10
2.592846529545186
 20
9.630478427834161
 30
0.0
 11
2.539737559215284
 21
9.600417842747239
 31
0.0
  0
LINE
  5
137
330
1E
100
AcDbEntity
  8
OBJECT1
  6
CONTINUOUS
100
AcDbLine
 10
2.551665043635864
 20
9.593531442662747
 30
0.0
 11
2.539790607306613
 21
9.600387276942241
 31
0.0
  0
LINE
  5
138
330
1E
100
AcDbEntity
  8
OBJECT1
  6
CONTINUOUS
100
AcDbLine
 10
2.551665043635864
 20
9.593531442662747
 30
0.0
 11
2.506192851272816
 21
9.593531442662747
 31
0.0
  0
LINE
  5
139
330
1E
100
AcDbEntity
  8
OBJECT1
  6
CONTINUOUS
100
AcDbLine
 10
2.493562353337136
 20
9.580900944727078
 30
0.0
 11
2.493562353337136
 21
9.500065757938738
 31
0.0
  0
LWPOLYLINE
  5
13A
330
1E
100
AcDbEntity
  8
OBJECT1
  6
CONTINUOUS
100
AcDbPolyline
 90
        2
 70
     0
 43
0.0
 10
2.381732633121368
 20
9.554804381967942
 10
2.400651652692409
 20
9.519453646098414
  0
LINE
  5
13E
330
1E
100
AcDbEntity
  8
OBJECT1
  6
CONTINUOUS
100
AcDbLine
 10
2.430409863658745
 20
9.483161857331499
 30
0.0
 11
2.427555623735239
 21
9.478218027829512
 31
0.0
  0
LWPOLYLINE
  5
13F
330
1E
100
AcDbEntity
  8
OBJECT1
  6
CONTINUOUS
100
AcDbPolyline
 90
        2
 70
     0
 43
0.0
 10
2.400651652692409
 20
9.519453646098414
 10
2.400651652692409
 20
9.493751014190809
  0
LINE
  5
143
330
1E
100
AcDbEntity
  8
OBJECT1
  6
CONTINUOUS
100
AcDbLine
 10
2.409619558836705
 20
9.478218027829512
 30
0.0
 11
2.418587717590954
 21
9.493751014190811
 31
0.0
  0
LINE
  5
144
330
1E
100
AcDbEntity
  8
OBJECT1
  6
CONTINUOUS
100
AcDbLine
 10
2.418587717590954
 20
9.493751014190811
 30
0.0
 11
2.427555623735239
 21
9.478218027829512
 31
0.0
  0
LINE
  5
145
330
1E
100
AcDbEntity
  8
OBJECT1
  6
CONTINUOUS
100
AcDbLine
 10
2.400651652692413
 20
9.493751014190811
 30
0.0
 11
2.409619558836705
 21
9.478218027829512
 31
0.0
  0
LWPOLYLINE
  5
146
330
1E
100
AcDbEntity
  8
OBJECT2
  6
CONTINUOUS
100
AcDbPolyline
 90
        2
 70
     0
 43
0.0
 10
2.381732633121368
 20
9.415262003535605
 10
2.400651652692409
 20
9.480691874311649
  0
ARC
  5
14A
330
1E
100
AcDbEntity
  8
OBJECT1
  6
CONTINUOUS
100
AcDbCircle
 10
2.444415822819614
 20
9.490720199906171
 30
0.0
 40
0.0159149326188719
100
AcDbArc
 50
208.353022
 51
269.998238
  0
LINE
  5
14B
330
1E
100
AcDbEntity
  8
OBJECT1
  6
CONTINUOUS
100
AcDbLine
 10
2.444415570209656
 20
9.474805014677334
 30
0.0
 11
2.468301357465779
 21
9.474805014677334
 31
0.0
  0
ARC
  5
14C
330
1E
100
AcDbEntity
  8
OBJECT1
  6
CONTINUOUS
100
AcDbCircle
 10
2.468301610075741
 20
9.500065505328773
 30
0.0
 40
0.0252607432613976
100
AcDbArc
 50
269.999435
 51
0.0002749999999678
  0
LINE
  5
14D
330
1E
100
AcDbEntity
  8
OBJECT1
  6
CONTINUOUS
100
AcDbLine
 10
2.493562353337136
 20
9.580900944727078
 30
0.0
 11
2.506192851272816
 21
9.593531442662747
 31
0.0
  0
ARC
  5
14E
330
1E
100
AcDbEntity
  8
OBJECT1
  6
CONTINUOUS
100
AcDbCircle
 10
2.585007032086469
 20
9.644328274040542
 30
0.0
 40
0.0159146800089132
100
AcDbArc
 50
299.511143
 51
359.999675
  0
LINE
  5
14F
330
1E
100
AcDbEntity
  8
OBJECT1
  6
CONTINUOUS
100
AcDbLine
 10
2.600921712095381
 20
9.644328021430595
 30
0.0
 11
2.600921712095381
 21
9.650710717257407
 31
0.0
  0
LINE
  5
150
330
1E
100
AcDbEntity
  8
OBJECT1
  6
CONTINUOUS
100
AcDbLine
 10
2.616836139494337
 20
9.666625144656363
 30
0.0
 11
2.616836139494337
 21
9.666625144656363
 31
0.0
  0
ARC
  5
151
330
1E
100
AcDbEntity
  8
OBJECT1
  6
CONTINUOUS
100
AcDbCircle
 10
2.616836139494337
 20
9.674708915945151
 30
0.0
 40
0.008083518678834
100
AcDbArc
 50
270.000854
 51
359.99936
  0
ARC
  5
152
330
1E
100
AcDbEntity
  8
OBJECT1
  6
CONTINUOUS
100
AcDbCircle
 10
2.616835886884375
 20
9.650710969867361
 30
0.0
 40
0.0159144273989545
100
AcDbArc
 50
89.99932899999995
 51
180.000549
  0
ARC
  5
153
330
1E
100
AcDbEntity
  8
OBJECT1
  6
CONTINUOUS
100
AcDbCircle
 10
2.648603357462315
 20
9.821475301957736
 30
0.0
 40
0.0159144273989545
100
AcDbArc
 50
269.999786
 51
355.996076
  0
ARC
  5
154
330
1E
100
AcDbEntity
  8
OBJECT1
  6
CONTINUOUS
100
AcDbCircle
 10
2.640834085572119
 20
9.789646447159821
 30
0.0
 40
0.0159144273989545
100
AcDbArc
 50
89.99957300000001
 51
180.000427
  0
LINE
  5
155
330
1E
100
AcDbEntity
  8
OBJECT1
  6
CONTINUOUS
100
AcDbLine
 10
2.640834085572119
 20
9.805560874558779
 30
0.0
 11
2.648603104852361
 21
9.805560874558779
 31
0.0
  0
ARC
  5
158
330
1E
100
AcDbEntity
  8
OBJECT1
  6
CONTINUOUS
100
AcDbCircle
 10
2.714989254612241
 20
10.08974707811153
 30
0.0
 40
0.0315762448391954
100
AcDbArc
 50
90.00009199999999
 51
175.995834
  0
LINE
  5
15B
330
1E
100
AcDbEntity
  8
OBJECT1
  6
CONTINUOUS
100
AcDbLine
 10
3.060267155800204
 20
9.820364070749345
 30
0.0
 11
3.041255730307426
 21
10.09195211044114
 31
0.0
  0
LINE
  5
15C
330
1E
100
AcDbEntity
  8
OBJECT1
  6
CONTINUOUS
100
AcDbLine
 10
3.329701316679027
 20
9.482062498791172
 30
0.0
 11
3.329701316679027
 21
9.069686845589632
 31
0.0
  0
LINE
  5
15D
330
1E
100
AcDbEntity
  8
OBJECT2
  6
CONTINUOUS
100
AcDbLine
 10
3.297804257192266
 20
9.394917115234175
 30
0.0
 11
3.329701316679027
 21
9.440631686852613
 31
0.0
  0
LINE
  5
15E
330
1E
100
AcDbEntity
  8
OBJECT2
  6
CONTINUOUS
100
AcDbLine
 10
3.199128997289697
 20
9.394917115234175
 30
0.0
 11
3.182324625006199
 21
9.440631686852613
 31
0.0
  0
LINE
  5
15F
330
1E
100
AcDbEntity
  8
OBJECT2
  6
CONTINUOUS
100
AcDbLine
 10
3.199128997289697
 20
9.394917115234175
 30
0.0
 11
3.297804257192266
 21
9.394917115234175
 31
0.0
  0
LINE
  5
160
330
1E
100
AcDbEntity
  8
OBJECT2
  6
CONTINUOUS
100
AcDbLine
 10
3.199128997289697
 20
9.156832229146647
 30
0.0
 11
3.297804257192266
 21
9.156832229146647
 31
0.0
  0
LINE
  5
161
330
1E
100
AcDbEntity
  8
OBJECT1
  6
CONTINUOUS
100
AcDbLine
 10
3.199128997289697
 20
9.037789533492913
 30
0.0
 11
3.297804257192266
 21
9.037789533492913
 31
0.0
  0
LINE
  5
162
330
1E
100
AcDbEntity
  8
OBJECT2
  6
CONTINUOUS
100
AcDbLine
 10
3.199128997289697
 20
9.156832229146647
 30
0.0
 11
3.182324625006199
 21
9.111117404918243
 31
0.0
  0
LINE
  5
163
330
1E
100
AcDbEntity
  8
OBJECT2
  6
CONTINUOUS
100
AcDbLine
 10
3.073551029394096
 20
9.124625217240534
 30
0.0
 11
3.121507009176198
 21
9.090660292631742
 31
0.0
  0
LINE
  5
164
330
1E
100
AcDbEntity
  8
OBJECT2
  6
CONTINUOUS
100
AcDbLine
 10
3.090989705283927
 20
9.082169314089508
 30
0.0
 11
3.060472148781702
 21
9.116133986088334
 31
0.0
  0
LINE
  5
165
330
1E
100
AcDbEntity
  8
OBJECT1
  6
CONTINUOUS
100
AcDbLine
 10
3.10235235383682
 20
8.846563794746744
 30
0.0
 11
3.10235235383682
 21
9.061787226960746
 31
0.0
  0
LINE
  5
166
330
1E
100
AcDbEntity
  8
OBJECT1
  6
CONTINUOUS
100
AcDbLine
 10
3.086437926437868
 20
8.830649367347785
 30
0.0
 11
3.029853043076073
 21
8.830649367347785
 31
0.0
  0
LINE
  5
167
330
1E
100
AcDbEntity
  8
OBJECT1
  6
CONTINUOUS
100
AcDbLine
 10
3.117508951359639
 20
9.076944077093514
 30
0.0
 11
3.161459042416455
 21
9.076944077093514
 31
0.0
  0
ARC
  5
168
330
1E
100
AcDbEntity
  8
OBJECT1
  6
CONTINUOUS
100
AcDbCircle
 10
3.117508698749679
 20
9.061787732180661
 30
0.0
 40
0.0151563449128551
100
AcDbArc
 50
89.999084
 51
180.001821
  0
ARC
  5
169
330
1E
100
AcDbEntity
  8
OBJECT1
  6
CONTINUOUS
100
AcDbCircle
 10
3.161459547636376
 20
9.061030912744353
 30
0.0
 40
0.0159131643491609
100
AcDbArc
 50
37.25233500000007
 51
90.00173999999999
  0
LINE
  5
16A
330
1E
100
AcDbEntity
  8
OBJECT1
  6
CONTINUOUS
100
AcDbLine
 10
3.199128997289697
 20
9.037789533492913
 30
0.0
 11
3.174126168796151
 21
9.070663435690025
 31
0.0
  0
LINE
  5
16B
330
1E
100
AcDbEntity
  8
OBJECT2
  6
CONTINUOUS
100
AcDbLine
 10
2.990718203052246
 20
9.14585304251107
 30
0.0
 11
3.073551029394096
 21
9.124625217240534
 31
0.0
  0
LINE
  5
16C
330
1E
100
AcDbEntity
  8
OBJECT2
  6
CONTINUOUS
100
AcDbLine
 10
3.060472148781702
 20
9.116133986088334
 30
0.0
 11
2.990718203052246
 21
9.14585304251107
 31
0.0
  0
LINE
  5
16D
330
1E
100
AcDbEntity
  8
OBJECT2
  6
CONTINUOUS
100
AcDbLine
 10
3.155305969042114
 20
9.27587441958045
 30
0.0
 11
3.075041428150507
 21
9.253691728665977
 31
0.0
  0
LINE
  5
16E
330
1E
100
AcDbEntity
  8
OBJECT2
  6
CONTINUOUS
100
AcDbLine
 10
3.075041428150507
 20
9.253691728665977
 30
0.0
 11
3.088879906908752
 21
9.269863818222821
 31
0.0
  0
LINE
  5
16F
330
1E
100
AcDbEntity
  8
OBJECT2
  6
CONTINUOUS
100
AcDbLine
 10
3.199128997289697
 20
9.156832229146647
 30
0.0
 11
3.182324625006199
 21
9.202546800765077
 31
0.0
  0
LINE
  5
170
330
1E
100
AcDbEntity
  8
OBJECT2
  6
CONTINUOUS
100
AcDbLine
 10
3.155305969042114
 20
9.27587441958045
 30
0.0
 11
3.075041428150507
 21
9.298057363104881
 31
0.0
  0
LINE
  5
171
330
1E
100
AcDbEntity
  8
OBJECT2
  6
CONTINUOUS
100
AcDbLine
 10
3.043209794643054
 20
9.282553426888835
 30
0.0
 11
3.043209794643054
 21
9.269195917491977
 31
0.0
  0
LINE
  5
172
330
1E
100
AcDbEntity
  8
OBJECT2
  6
CONTINUOUS
100
AcDbLine
 10
3.075041428150507
 20
9.298057363104881
 30
0.0
 11
3.088879906908752
 21
9.281885273548036
 31
0.0
  0
LINE
  5
173
330
1E
100
AcDbEntity
  8
OBJECT2
  6
CONTINUOUS
100
AcDbLine
 10
3.043209794643054
 20
9.282553426888835
 30
0.0
 11
3.089387400315811
 21
9.282553426888835
 31
0.0
  0
LINE
  5
174
330
1E
100
AcDbEntity
  8
OBJECT2
  6
CONTINUOUS
100
AcDbLine
 10
3.043209794643054
 20
9.269195917491977
 30
0.0
 11
3.089387400315811
 21
9.269195917491977
 31
0.0
  0
LINE
  5
175
330
1E
100
AcDbEntity
  8
OBJECT2
  6
CONTINUOUS
100
AcDbLine
 10
3.199128997289697
 20
9.394917115234175
 30
0.0
 11
3.182324625006199
 21
9.349202291005779
 31
0.0
  0
LINE
  5
176
330
1E
100
AcDbEntity
  8
OBJECT2
  6
CONTINUOUS
100
AcDbLine
 10
3.297804257192266
 20
9.156832229146647
 30
0.0
 11
3.329701316679027
 21
9.111117404918243
 31
0.0
  0
LINE
  5
177
330
1E
100
AcDbEntity
  8
OBJECT1
  6
CONTINUOUS
100
AcDbLine
 10
3.329701316679027
 20
9.069686845589632
 30
0.0
 11
3.297804257192266
 21
9.037789533492913
 31
0.0
  0
LINE
  5
178
330
1E
100
AcDbEntity
  8
OBJECT2
  6
CONTINUOUS
100
AcDbLine
 10
3.297804257192266
 20
9.156832229146647
 30
0.0
 11
3.329701316679027
 21
9.202546800765077
 31
0.0
  0
LINE
  5
179
330
1E
100
AcDbEntity
  8
OBJECT2
  6
CONTINUOUS
100
AcDbLine
 10
3.297804257192266
 20
9.394917115234175
 30
0.0
 11
3.329701316679027
 21
9.349202291005779
 31
0.0
  0
ARC
  5
17A
330
1E
100
AcDbEntity
  8
OBJECT1
  6
CONTINUOUS
100
AcDbCircle
 10
3.246340030303549
 20
9.529116155800753
 30
0.0
 40
0.0151563449128551
100
AcDbArc
 50
180.0
 51
270.0004579999999
  0
LINE
  5
17B
330
1E
100
AcDbEntity
  8
OBJECT2
  6
CONTINUOUS
100
AcDbLine
 10
2.981099447349333
 20
9.805560874558779
 30
0.0
 11
2.981099447349333
 21
9.666625144656363
 31
0.0
  0
LINE
  5
17C
330
1E
100
AcDbEntity
  8
OBJECT1
  6
CONTINUOUS
100
AcDbLine
 10
3.099826127944707
 20
9.789646194549863
 30
0.0
 11
3.099826127944707
 21
9.674708915945151
 31
0.0
  0
LINE
  5
17D
330
1E
100
AcDbEntity
  8
OBJECT1
  6
CONTINUOUS
100
AcDbLine
 10
3.231183432780738
 20
9.580900944727078
 30
0.0
 11
3.231183432780738
 21
9.529116155800753
 31
0.0
  0
ARC
  5
17E
330
1E
100
AcDbEntity
  8
OBJECT1
  6
CONTINUOUS
100
AcDbCircle
 10
3.139738754031405
 20
9.644328274040542
 30
0.0
 40
0.0159146800089132
100
AcDbArc
 50
180.000214
 51
240.488922
  0
LINE
  5
17F
330
1E
100
AcDbEntity
  8
OBJECT1
  6
CONTINUOUS
100
AcDbLine
 10
3.107909899233499
 20
9.666625144656363
 30
0.0
 11
3.107909646623541
 21
9.666625144656363
 31
0.0
  0
ARC
  5
180
330
1E
100
AcDbEntity
  8
OBJECT1
  6
CONTINUOUS
100
AcDbCircle
 10
3.107909899233499
 20
9.674708915945151
 30
0.0
 40
0.008083518678834
100
AcDbArc
 50
180.0006409999999
 51
269.998505
  0
LINE
  5
181
330
1E
100
AcDbEntity
  8
OBJECT1
  6
CONTINUOUS
100
AcDbLine
 10
3.123824326632457
 20
9.644328021430595
 30
0.0
 11
3.123824326632457
 21
9.650710717257407
 31
0.0
  0
ARC
  5
182
330
1E
100
AcDbEntity
  8
OBJECT1
  6
CONTINUOUS
100
AcDbCircle
 10
3.107909646623541
 20
9.650710717257407
 30
0.0
 40
0.0159144273989545
100
AcDbArc
 50
0.0002140000001083
 51
89.99932899999995
  0
LINE
  5
183
330
1E
100
AcDbEntity
  8
OBJECT1
  6
CONTINUOUS
100
AcDbLine
 10
3.179012276922568
 20
9.603811657542557
 30
0.0
 11
3.131899509182654
 21
9.630478427834161
 31
0.0
  0
LINE
  5
184
330
1E
100
AcDbEntity
  8
OBJECT1
  6
CONTINUOUS
100
AcDbLine
 10
3.184955431421219
 20
9.593531442662747
 30
0.0
 11
3.173080995091968
 21
9.600387276942241
 31
0.0
  0
LINE
  5
185
330
1E
100
AcDbEntity
  8
OBJECT1
  6
CONTINUOUS
100
AcDbLine
 10
3.173080995091968
 20
9.600387276942241
 30
0.0
 11
3.179012276922568
 21
9.603811657542557
 31
0.0
  0
LINE
  5
186
330
1E
100
AcDbEntity
  8
OBJECT1
  6
CONTINUOUS
100
AcDbLine
 10
3.218552934845064
 20
9.593531442662747
 30
0.0
 11
3.231183432780738
 21
9.580900944727078
 31
0.0
  0
LINE
  5
187
330
1E
100
AcDbEntity
  8
OBJECT1
  6
CONTINUOUS
100
AcDbLine
 10
3.218552934845064
 20
9.593531442662747
 30
0.0
 11
3.184955431421219
 21
9.593531442662747
 31
0.0
  0
ARC
  5
188
330
1E
100
AcDbEntity
  8
OBJECT1
  6
CONTINUOUS
100
AcDbCircle
 10
3.076142428655559
 20
9.821474796737813
 30
0.0
 40
0.0159139221790371
100
AcDbArc
 50
184.0025479999999
 51
270.0015179999999
  0
ARC
  5
189
330
1E
100
AcDbEntity
  8
OBJECT1
  6
CONTINUOUS
100
AcDbCircle
 10
3.083911700545755
 20
9.789646194549863
 30
0.0
 40
0.0159144273989545
100
AcDbArc
 50
0.0002140000001083
 51
89.99932899999995
  0
LINE
  5
18A
330
1E
100
AcDbEntity
  8
OBJECT1
  6
CONTINUOUS
100
AcDbLine
 10
3.083911953155711
 20
9.805560874558779
 30
0.0
 11
3.076142933875475
 21
9.805560874558779
 31
0.0
  0
LINE
  5
18B
330
1E
100
AcDbEntity
  8
OBJECT1
  6
CONTINUOUS
100
AcDbLine
 10
3.297804257192266
 20
9.513959558277935
 30
0.0
 11
3.246340030303549
 21
9.513959558277935
 31
0.0
  0
LINE
  5
18C
330
1E
100
AcDbEntity
  8
OBJECT1
  6
CONTINUOUS
100
AcDbLine
 10
3.297804257192266
 20
9.513959558277935
 30
0.0
 11
3.329701316679027
 21
9.482062498791172
 31
0.0
  0
LINE
  5
18D
330
1E
100
AcDbEntity
  8
OBJECT1
  6
CONTINUOUS
100
AcDbLine
 10
2.916732750650078
 20
10.25443538286545
 30
0.0
 11
2.916732750650078
 21
10.28823585839113
 31
0.0
  0
LINE
  5
18E
330
1E
100
AcDbEntity
  8
OBJECT2
  6
CONTINUOUS
100
AcDbLine
 10
2.890152625574316
 20
10.28823585839113
 30
0.0
 11
2.890152625574316
 21
10.25443538286545
 31
0.0
  0
LINE
  5
18F
330
1E
100
AcDbEntity
  8
OBJECT2
  6
CONTINUOUS
100
AcDbLine
 10
2.836992122812846
 20
10.28823585839113
 30
0.0
 11
2.836992122812846
 21
10.25443538286545
 31
0.0
  0
LINE
  5
190
330
1E
100
AcDbEntity
  8
OBJECT1
  6
CONTINUOUS
100
AcDbLine
 10
2.810411997737084
 20
10.25443538286545
 30
0.0
 11
2.810411997737084
 21
10.28823585839113
 31
0.0
  0
ARC
  5
191
330
1E
100
AcDbEntity
  8
OBJECT1
  6
CONTINUOUS
100
AcDbCircle
 10
2.987763423845448
 20
10.10263018600642
 30
0.0
 40
0.0505219917427127
100
AcDbArc
 50
42.48646977536438
 51
90.0
  0
ARC
  5
192
330
1E
100
AcDbEntity
  8
OBJECT1
  6
CONTINUOUS
100
AcDbCircle
 10
3.009757036725554
 20
10.08974733072149
 30
0.0
 40
0.031575739619278
100
AcDbArc
 50
4.00363199999994
 51
90.00067100000002
  0
ARC
  5
193
330
1E
100
AcDbEntity
  8
OBJECT1
  6
CONTINUOUS
100
AcDbCircle
 10
2.783306102286573
 20
10.13723749773972
 30
0.0
 40
0.0159144273989545
100
AcDbArc
 50
269.9995649999999
 51
0.0005490000000334
  0
ARC
  5
194
330
1E
100
AcDbEntity
  8
OBJECT1
  6
CONTINUOUS
100
AcDbCircle
 10
2.941439936441259
 20
10.13723775034968
 30
0.0
 40
0.0159144273989545
100
AcDbArc
 50
180.000214
 51
269.9992449999999
  0
LINE
  5
195
330
1E
100
AcDbEntity
  8
OBJECT2
  6
CONTINUOUS
100
AcDbLine
 10
2.890152625574316
 20
10.16027426292509
 30
0.0
 11
2.901540787733045
 21
10.15315217774913
 31
0.0
  0
LINE
  5
196
330
1E
100
AcDbEntity
  8
OBJECT1
  6
CONTINUOUS
100
AcDbLine
 10
2.909610665474106
 20
10.19919034272467
 30
0.0
 11
2.894264610482256
 21
10.19919034272467
 31
0.0
  0
LINE
  5
197
330
1E
100
AcDbEntity
  8
OBJECT1
  6
CONTINUOUS
100
AcDbLine
 10
2.916732750650078
 20
10.25443538286545
 30
0.0
 11
2.894264610482256
 21
10.25443538286545
 31
0.0
  0
LINE
  5
198
330
1E
100
AcDbEntity
  8
OBJECT2
  6
CONTINUOUS
100
AcDbLine
 10
2.890152625574316
 20
10.19206825754871
 30
0.0
 11
2.901540787733045
 21
10.19919034272467
 31
0.0
  0
LINE
  5
199
330
1E
100
AcDbEntity
  8
OBJECT2
  6
CONTINUOUS
100
AcDbLine
 10
2.815134856964299
 20
10.15315243035787
 30
0.0
 11
2.909610862920009
 21
10.15315217774861
 31
0.0
  0
LINE
  5
19A
330
1E
100
AcDbEntity
  8
OBJECT2
  6
CONTINUOUS
100
AcDbLine
 10
2.783306102286573
 20
10.12132332295072
 30
0.0
 11
2.941439936441259
 21
10.12132332295072
 31
0.0
  0
ARC
  5
19B
330
1E
100
AcDbEntity
  8
OBJECT1
  6
CONTINUOUS
100
AcDbCircle
 10
2.815134704474523
 20
10.13723800295964
 30
0.0
 40
0.0159144273989545
100
AcDbArc
 50
89.99945099999999
 51
180.000488
  0
LINE
  5
19C
330
1E
100
AcDbEntity
  8
OBJECT1
  6
CONTINUOUS
100
AcDbLine
 10
2.810411997737084
 20
10.16027426292509
 30
0.0
 11
2.817534335523015
 21
10.15315217774913
 31
0.0
  0
LINE
  5
19D
330
1E
100
AcDbEntity
  8
OBJECT2
  6
CONTINUOUS
100
AcDbLine
 10
2.836992122812846
 20
10.16027426292509
 30
0.0
 11
2.825604213264073
 21
10.15315217774913
 31
0.0
  0
LINE
  5
19E
330
1E
100
AcDbEntity
  8
OBJECT1
  6
CONTINUOUS
100
AcDbLine
 10
2.79763848867816
 20
10.15315217774913
 30
0.0
 11
2.815134659518394
 21
10.15315217774913
 31
0.0
  0
LINE
  5
19F
330
1E
100
AcDbEntity
  8
OBJECT2
  6
CONTINUOUS
100
AcDbLine
 10
2.836992122812846
 20
10.19206825754871
 30
0.0
 11
2.825604213264073
 21
10.19919034272467
 31
0.0
  0
LINE
  5
1A0
330
1E
100
AcDbEntity
  8
OBJECT2
  6
CONTINUOUS
100
AcDbLine
 10
2.836992122812846
 20
10.19206825754871
 30
0.0
 11
2.836992122812846
 21
10.16027426292509
 31
0.0
  0
LINE
  5
1A1
330
1E
100
AcDbEntity
  8
OBJECT1
  6
CONTINUOUS
100
AcDbLine
 10
2.810411997737084
 20
10.25443538286545
 30
0.0
 11
2.832880390514864
 21
10.25443538286545
 31
0.0
  0
LINE
  5
1A2
330
1E
100
AcDbEntity
  8
OBJECT1
  6
CONTINUOUS
100
AcDbLine
 10
2.832880390514864
 20
10.19919034272467
 30
0.0
 11
2.817534335523015
 21
10.19919034272467
 31
0.0
  0
LINE
  5
1A3
330
1E
100
AcDbEntity
  8
OBJECT1
  6
CONTINUOUS
100
AcDbLine
 10
2.832880390514864
 20
10.19919034272467
 30
0.0
 11
2.832880390514864
 21
10.25443538286545
 31
0.0
  0
LINE
  5
1A4
330
1E
100
AcDbEntity
  8
OBJECT1
  6
CONTINUOUS
100
AcDbLine
 10
2.810411997737084
 20
10.16027426292509
 30
0.0
 11
2.810411997737084
 21
10.19206825754871
 31
0.0
  0
LINE
  5
1A5
330
1E
100
AcDbEntity
  8
OBJECT1
  6
CONTINUOUS
100
AcDbLine
 10
2.810411997737084
 20
10.19206825754871
 30
0.0
 11
2.817534335523015
 21
10.19919034272467
 31
0.0
  0
LINE
  5
1A6
330
1E
100
AcDbEntity
  8
OBJECT2
  6
CONTINUOUS
100
AcDbLine
 10
2.890152625574316
 20
10.16027426292509
 30
0.0
 11
2.873034006502175
 21
10.15315217774913
 31
0.0
  0
LINE
  5
1A7
330
1E
100
AcDbEntity
  8
OBJECT1
  6
CONTINUOUS
100
AcDbLine
 10
2.894264610482256
 20
10.19919034272467
 30
0.0
 11
2.894264610482256
 21
10.25443538286545
 31
0.0
  0
LINE
  5
1A8
330
1E
100
AcDbEntity
  8
OBJECT2
  6
CONTINUOUS
100
AcDbLine
 10
2.890152625574316
 20
10.19206825754871
 30
0.0
 11
2.890152625574316
 21
10.16027426292509
 31
0.0
  0
LINE
  5
1A9
330
1E
100
AcDbEntity
  8
OBJECT2
  6
CONTINUOUS
100
AcDbLine
 10
2.890152625574316
 20
10.19206825754871
 30
0.0
 11
2.873034006502175
 21
10.19919034272467
 31
0.0
  0
LINE
  5
1AA
330
1E
100
AcDbEntity
  8
OBJECT2
  6
CONTINUOUS
100
AcDbLine
 10
2.836992122812846
 20
10.16027426292509
 30
0.0
 11
2.854110741884989
 21
10.15315217774913
 31
0.0
  0
LINE
  5
1AB
330
1E
100
AcDbEntity
  8
OBJECT2
  6
CONTINUOUS
100
AcDbLine
 10
2.894264610482256
 20
10.25443538286545
 30
0.0
 11
2.832880390514864
 21
10.25443538286545
 31
0.0
  0
LINE
  5
1AC
330
1E
100
AcDbEntity
  8
OBJECT2
  6
CONTINUOUS
100
AcDbLine
 10
2.832880390514864
 20
10.23602036948519
 30
0.0
 11
2.894264610482256
 21
10.23602036948519
 31
0.0
  0
LINE
  5
1AD
330
1E
100
AcDbEntity
  8
OBJECT2
  6
CONTINUOUS
100
AcDbLine
 10
2.832880390514864
 20
10.21760535610493
 30
0.0
 11
2.894264610482256
 21
10.21760535610493
 31
0.0
  0
LINE
  5
1AE
330
1E
100
AcDbEntity
  8
OBJECT2
100
AcDbLine
 10
2.894264610482256
 20
10.19919034272467
 30
0.0
 11
2.832880390514864
 21
10.19919034272467
 31
0.0
  0
LINE
  5
1AF
330
1E
100
AcDbEntity
  8
OBJECT2
  6
CONTINUOUS
100
AcDbLine
 10
2.886080300429897
 20
10.22681298910004
 30
0.0
 11
2.841064700567226
 21
10.22681298910004
 31
0.0
  0
LINE
  5
1B0
330
1E
100
AcDbEntity
  8
OBJECT2
  6
CONTINUOUS
100
AcDbLine
 10
2.886080300429897
 20
10.24522800248031
 30
0.0
 11
2.841064700567226
 21
10.24522800248031
 31
0.0
  0
LINE
  5
1B1
330
1E
100
AcDbEntity
  8
OBJECT2
  6
CONTINUOUS
100
AcDbLine
 10
2.886080300429897
 20
10.20839797571978
 30
0.0
 11
2.841064700567226
 21
10.20839797571978
 31
0.0
  0
LINE
  5
1B2
330
1E
100
AcDbEntity
  8
OBJECT2
  6
CONTINUOUS
100
AcDbLine
 10
2.836992122812846
 20
10.19206825754871
 30
0.0
 11
2.854110741884989
 21
10.19919034272467
 31
0.0
  0
LINE
  5
1B3
330
1E
100
AcDbEntity
  8
OBJECT1
  6
CONTINUOUS
100
AcDbLine
 10
2.916732750650078
 20
10.16027426292509
 30
0.0
 11
2.909610665474106
 21
10.15315217774913
 31
0.0
  0
ARC
  5
1B4
330
1E
100
AcDbEntity
  8
OBJECT1
  6
CONTINUOUS
100
AcDbCircle
 10
2.909610829033395
 20
10.13723775034968
 30
0.0
 40
0.0159144273989545
100
AcDbArc
 50
0.0001529999999434
 51
89.99987799999997
  0
LINE
  5
1B5
330
1E
100
AcDbEntity
  8
OBJECT1
  6
CONTINUOUS
100
AcDbLine
 10
2.916732750650078
 20
10.19206825754871
 30
0.0
 11
2.916732750650078
 21
10.16027426292509
 31
0.0
  0
LINE
  5
1B6
330
1E
100
AcDbEntity
  8
OBJECT1
  6
CONTINUOUS
100
AcDbLine
 10
2.916732750650078
 20
10.19206825754871
 30
0.0
 11
2.909610665474106
 21
10.19919034272467
 31
0.0
  0
LINE
  5
1B7
330
1E
100
AcDbEntity
  8
OBJECT1
  6
CONTINUOUS
100
AcDbLine
 10
3.009756531505633
 20
10.12132332295072
 30
0.0
 11
2.941439936441259
 21
10.12132332295072
 31
0.0
  0
LINE
  5
1B8
330
1E
100
AcDbEntity
  8
OBJECT1
  6
CONTINUOUS
100
AcDbLine
 10
2.909610665474106
 20
10.15315217774913
 30
0.0
 11
2.987763423845448
 21
10.15315217774913
 31
0.0
  0
LINE
  5
1B9
330
1E
100
AcDbEntity
  8
OBJECT1
  6
CONTINUOUS
100
AcDbLine
 10
3.025020202535976
 20
10.13675355177322
 30
0.0
 11
3.171840679693756
 21
9.976451134301068
 31
0.0
  0
LINE
  5
1BB
330
1E
100
AcDbEntity
  8
OBJECT2
  6
CONTINUOUS
100
AcDbLine
 10
2.890152625574316
 20
10.28823585839113
 30
0.0
 11
2.901540787733045
 21
10.29535819617706
 31
0.0
  0
LINE
  5
1BC
330
1E
100
AcDbEntity
  8
OBJECT1
  6
CONTINUOUS
100
AcDbLine
 10
2.817534335523015
 20
10.29535819617706
 30
0.0
 11
2.909610665474106
 21
10.29535819617706
 31
0.0
  0
LINE
  5
1BD
330
1E
100
AcDbEntity
  8
OBJECT2
  6
CONTINUOUS
100
AcDbLine
 10
2.836992122812846
 20
10.28823585839113
 30
0.0
 11
2.825604213264073
 21
10.29535819617706
 31
0.0
  0
LINE
  5
1BE
330
1E
100
AcDbEntity
  8
OBJECT1
  6
CONTINUOUS
100
AcDbLine
 10
2.810411997737084
 20
10.28823585839113
 30
0.0
 11
2.817534335523015
 21
10.29535819617706
 31
0.0
  0
LINE
  5
1BF
330
1E
100
AcDbEntity
  8
OBJECT2
  6
CONTINUOUS
100
AcDbLine
 10
2.890152625574316
 20
10.28823585839113
 30
0.0
 11
2.873034006502175
 21
10.29535819617706
 31
0.0
  0
LINE
  5
1C0
330
1E
100
AcDbEntity
  8
OBJECT2
  6
CONTINUOUS
100
AcDbLine
 10
2.836992122812846
 20
10.28823585839113
 30
0.0
 11
2.854110741884989
 21
10.29535819617706
 31
0.0
  0
LINE
  5
1C1
330
1E
100
AcDbEntity
  8
OBJECT1
  6
CONTINUOUS
100
AcDbLine
 10
2.916732750650078
 20
10.28823585839113
 30
0.0
 11
2.909610665474106
 21
10.29535819617706
 31
0.0
  0
LINE
  5
7B7
330
1E
100
AcDbEntity
  8
OBJECT1
100
AcDbLine
 10
12.5973174358309
 20
11.88972428639498
 30
0.0
 11
12.5973174358309
 21
9.313906487898336
 31
0.0
  0
LINE
  5
7B8
330
1E
100
AcDbEntity
  8
OBJECT1
100
AcDbLine
 10
12.85823775696622
 20
11.88972428639498
 30
0.0
 11
12.85823775696622
 21
9.313906487898336
 31
0.0
  0
LINE
  5
7B9
330
1E
100
AcDbEntity
  8
OBJECT1
  6
CONTINUOUS
100
AcDbLine
 10
7.809699970910925
 20
11.41381529322029
 30
0.0
 11
7.80971008055093
 21
11.19620461813266
 31
0.0
  0
LINE
  5
7BA
330
1E
100
AcDbEntity
  8
OBJECT1
  6
CONTINUOUS
100
AcDbLine
 10
7.855381727226355
 20
11.41490511241284
 30
0.0
 11
7.855391836866365
 21
11.19620461813266
 31
0.0
  0
LINE
  5
7BB
330
1E
100
AcDbEntity
  8
OBJECT1
  6
CONTINUOUS
100
AcDbLine
 10
8.031568152392733
 20
11.16755322438197
 30
0.0
 11
8.03154759612472
 21
11.23889708494749
 31
0.0
  0
LINE
  5
7BC
330
1E
100
AcDbEntity
  8
OBJECT1
  6
CONTINUOUS
100
AcDbLine
 10
8.452803152608808
 20
11.23889708494749
 30
0.0
 11
8.452803152608808
 21
11.16759433691799
 31
0.0
  0
LINE
  5
7BD
330
1E
100
AcDbEntity
  8
OBJECT2
  6
CONTINUOUS
100
AcDbLine
 10
8.473834236711599
 20
10.74732581828641
 30
0.0
 11
8.010496292741926
 21
10.74732581828641
 31
0.0
  0
LINE
  5
7BE
330
1E
100
AcDbEntity
  8
OBJECT2
  6
CONTINUOUS
100
AcDbLine
 10
8.473844346351604
 20
10.9383626306444
 30
0.0
 11
8.049236096253798
 21
10.93838318691241
 31
0.0
  0
LINE
  5
7BF
330
1E
100
AcDbEntity
  8
OBJECT2
  6
CONTINUOUS
100
AcDbLine
 10
8.031568152392733
 20
11.16755322438197
 30
0.0
 11
8.466748390031961
 21
11.16755322438197
 31
0.0
  0
LINE
  5
7C0
330
1E
100
AcDbEntity
  8
OBJECT2
100
AcDbLine
 10
8.111501237177019
 20
10.61519653028663
 30
0.0
 11
8.372421558312343
 21
10.61519653028663
 31
0.0
  0
LINE
  5
7C1
330
1E
100
AcDbEntity
  8
OBJECT2
100
AcDbLine
 10
8.372421558312343
 20
10.55819004090374
 30
0.0
 11
8.111867521617154
 21
10.55819004090374
 31
0.0
  0
LINE
  5
7C2
330
1E
100
AcDbEntity
  8
OBJECT2
100
AcDbLine
 10
8.333464050479534
 20
10.58897814267175
 30
0.0
 11
8.150825029449958
 21
10.58897814267175
 31
0.0
  0
LINE
  5
7C3
330
1E
100
AcDbEntity
  8
OBJECT2
100
AcDbLine
 10
8.333464050479534
 20
10.52740219174569
 30
0.0
 11
8.150825029449958
 21
10.52740219174569
 31
0.0
  0
LINE
  5
7C4
330
1E
100
AcDbEntity
  8
OBJECT2
  6
CONTINUOUS
100
AcDbLine
 10
8.206911433582675
 20
10.61546376177077
 30
0.0
 11
8.130058624239254
 21
10.63652551178157
 31
0.0
  0
ARC
  5
7C5
330
1E
100
AcDbEntity
  8
OBJECT1
100
AcDbCircle
 10
8.176731191155873
 20
9.326991776694068
 30
0.0
 40
0.0665296036114963
100
AcDbArc
 50
191.3430976451167
 51
348.6569023548832
  0
LINE
  5
7C8
330
1E
100
AcDbEntity
  8
OBJECT1
100
AcDbLine
 10
8.11150111087204
 20
10.61519653028663
 30
0.0
 11
8.11150111087204
 21
9.313906487898336
 31
0.0
  0
ARC
  5
7C9
330
1E
100
AcDbEntity
  8
OBJECT1
  6
CONTINUOUS
100
AcDbCircle
 10
7.816416141754368
 20
10.62700391583668
 30
0.0
 40
0.0067060612034399
100
AcDbArc
 50
179.4851529999999
 51
270.1702269999998
  0
ARC
  5
7CA
330
1E
100
AcDbEntity
  8
OBJECT1
  6
CONTINUOUS
100
AcDbCircle
 10
7.848639271318898
 20
10.6270595188567
 30
0.0
 40
0.0067424559074586
100
AcDbArc
 50
269.9672239999998
 51
359.8648069999999
  0
LINE
  5
7CB
330
1E
100
AcDbEntity
  8
OBJECT1
  6
CONTINUOUS
100
AcDbLine
 10
8.017962261885754
 20
10.6365871805856
 30
0.0
 11
8.073825436650404
 21
10.61519653028663
 31
0.0
  0
LINE
  5
7CC
330
1E
100
AcDbEntity
  8
OBJECT2
  6
CONTINUOUS
100
AcDbLine
 10
8.073825436650404
 20
10.61519653028663
 30
0.0
 11
8.130058624239254
 21
10.63652551178157
 31
0.0
  0
LINE
  5
7CD
330
1E
100
AcDbEntity
  8
OBJECT1
  6
CONTINUOUS
100
AcDbLine
 10
7.816436024046378
 20
10.62029718065724
 30
0.0
 11
7.848635227462897
 21
10.62031773692525
 31
0.0
  0
LINE
  5
7CE
330
1E
100
AcDbEntity
  8
OBJECT1
  6
CONTINUOUS
100
AcDbLine
 10
8.111501237177019
 20
10.61519653028663
 30
0.0
 11
8.073825436650404
 21
10.61519653028663
 31
0.0
  0
LINE
  5
7CF
330
1E
100
AcDbEntity
  8
OBJECT1
  6
CONTINUOUS
100
AcDbLine
 10
7.816435898392482
 20
10.85249057057466
 30
0.0
 11
7.816425526554768
 21
10.94810074476685
 31
0.0
  0
LINE
  5
7D0
330
1E
100
AcDbEntity
  8
OBJECT1
  6
CONTINUOUS
100
AcDbLine
 10
7.848645723136614
 20
10.85249066224115
 30
0.0
 11
7.84864572313654
 21
10.97040783054483
 31
0.0
  0
LINE
  5
7D1
330
1E
100
AcDbEntity
  8
OBJECT1
  6
CONTINUOUS
100
AcDbLine
 10
7.873964930495891
 20
10.90138123051743
 30
0.0
 11
7.867290546164466
 21
10.92955949311589
 31
0.0
  0
LINE
  5
7D2
330
1E
100
AcDbEntity
  8
OBJECT1
  6
CONTINUOUS
100
AcDbLine
 10
7.892527577497408
 20
10.90136067424942
 30
0.0
 11
7.892558580393423
 21
10.93673767450756
 31
0.0
  0
LINE
  5
7D3
330
1E
100
AcDbEntity
  8
OBJECT1
  6
CONTINUOUS
100
AcDbLine
 10
7.909383380278061
 20
10.93671711823955
 30
0.0
 11
7.909403936546068
 21
10.89459361821794
 31
0.0
  0
ARC
  5
7D4
330
1E
100
AcDbEntity
  8
OBJECT2
  6
CONTINUOUS
100
AcDbCircle
 10
7.646812103195362
 20
11.02098467455078
 30
0.0
 40
0.3850236176695017
100
AcDbArc
 50
340.8395389999999
 51
19.16046099999988
  0
ARC
  5
7D5
330
1E
100
AcDbEntity
  8
OBJECT1
  6
CONTINUOUS
100
AcDbCircle
 10
7.848632868546892
 20
10.84573136915688
 30
0.0
 40
0.0067593053074673
100
AcDbArc
 50
0.1089779999999483
 51
89.8910370000001
  0
LINE
  5
7D6
330
1E
100
AcDbEntity
  8
OBJECT1
  6
CONTINUOUS
100
AcDbLine
 10
7.809699970910925
 20
10.62813349961326
 30
0.0
 11
7.80971008055093
 21
10.84574417470088
 31
0.0
  0
LINE
  5
7D7
330
1E
100
AcDbEntity
  8
OBJECT2
  6
CONTINUOUS
100
AcDbLine
 10
7.816435898392482
 20
10.85249057057466
 30
0.0
 11
7.848645723136645
 21
10.85249066224115
 31
0.0
  0
ARC
  5
7D8
330
1E
100
AcDbEntity
  8
OBJECT1
  6
CONTINUOUS
100
AcDbCircle
 10
7.816398618378359
 20
10.84580179964891
 30
0.0
 40
0.0066888748154311
100
AcDbArc
 50
89.68066399999985
 51
180.4927749999999
  0
LINE
  5
7D9
330
1E
100
AcDbEntity
  8
OBJECT1
  6
CONTINUOUS
100
AcDbLine
 10
8.010506402381929
 20
10.89461417448595
 30
0.0
 11
8.010496292741926
 21
10.74732581828641
 31
0.0
  0
LINE
  5
7DA
330
1E
100
AcDbEntity
  8
OBJECT1
  6
CONTINUOUS
100
AcDbLine
 10
7.855381727226355
 20
10.6270436804207
 30
0.0
 11
7.855391836866365
 21
10.84574417470088
 31
0.0
  0
LINE
  5
7DB
330
1E
100
AcDbEntity
  8
OBJECT1
  6
CONTINUOUS
100
AcDbLine
 10
8.017993264781768
 20
10.7463387804339
 30
0.0
 11
8.017962261885754
 21
10.6365871805856
 31
0.0
  0
LINE
  5
7DC
330
1E
100
AcDbEntity
  8
OBJECT2
  6
CONTINUOUS
100
AcDbLine
 10
8.130058624239254
 20
10.63652551178157
 30
0.0
 11
8.130068733879259
 21
10.74732581828641
 31
0.0
  0
LINE
  5
7DD
330
1E
100
AcDbEntity
  8
OBJECT1
  6
CONTINUOUS
100
AcDbLine
 10
7.873964930495891
 20
10.90138123051743
 30
0.0
 11
7.892527577497408
 21
10.90136067424942
 31
0.0
  0
LINE
  5
7DE
330
1E
100
AcDbEntity
  8
OBJECT1
  6
CONTINUOUS
100
AcDbLine
 10
7.909403936546068
 20
10.89459361821794
 30
0.0
 11
8.010506402381929
 21
10.89461417448595
 31
0.0
  0
LINE
  5
7DF
330
1E
100
AcDbEntity
  8
OBJECT1
  6
CONTINUOUS
100
AcDbLine
 10
7.867311102432479
 20
11.07152074300871
 30
0.0
 11
7.84864572313648
 21
11.07152074300871
 31
0.0
  0
ARC
  5
7E0
330
1E
100
AcDbEntity
  8
OBJECT1
  6
CONTINUOUS
100
AcDbCircle
 10
7.848632868546892
 20
11.19621742367666
 30
0.0
 40
0.0067593053074673
100
AcDbArc
 50
270.1089629999998
 51
359.8910219999999
  0
LINE
  5
7E1
330
1E
100
AcDbEntity
  8
OBJECT1
  6
CONTINUOUS
100
AcDbLine
 10
7.867290546164466
 20
10.97040783054483
 30
0.0
 11
7.84864572313654
 21
10.97040783054483
 31
0.0
  0
LINE
  5
7E2
330
1E
100
AcDbEntity
  8
OBJECT2
  6
CONTINUOUS
100
AcDbLine
 10
7.816425526554768
 20
10.94810074476685
 30
0.0
 11
7.816409705224888
 21
11.09394569026512
 31
0.0
  0
LINE
  5
7E3
330
1E
100
AcDbEntity
  8
OBJECT2
  6
CONTINUOUS
100
AcDbLine
 10
7.84864572313648
 20
11.07152074300871
 30
0.0
 11
7.84864572313648
 21
10.97040783054483
 31
0.0
  0
LINE
  5
7E4
330
1E
100
AcDbEntity
  8
OBJECT2
  6
CONTINUOUS
100
AcDbLine
 10
7.809998154427468
 20
11.07148856404214
 30
0.0
 11
7.816425526554768
 21
11.02099394510824
 31
0.0
  0
LINE
  5
7E5
330
1E
100
AcDbEntity
  8
OBJECT1
  6
CONTINUOUS
100
AcDbLine
 10
7.732188973139558
 20
11.09388748243764
 30
0.0
 11
7.732219639047576
 21
10.94801818270681
 31
0.0
  0
LINE
  5
7E6
330
1E
100
AcDbEntity
  8
OBJECT2
  6
CONTINUOUS
100
AcDbLine
 10
7.732188973139558
 20
11.02099394510824
 30
0.0
 11
7.738647348162867
 21
11.07148856404214
 31
0.0
  0
LINE
  5
7E7
330
1E
100
AcDbEntity
  8
OBJECT2
  6
CONTINUOUS
100
AcDbLine
 10
7.774312473161169
 20
10.97043765737031
 30
0.0
 11
7.809987707799468
 21
10.97047876990633
 31
0.0
  0
LINE
  5
7E8
330
1E
100
AcDbEntity
  8
OBJECT2
  6
CONTINUOUS
100
AcDbLine
 10
7.816425526554768
 20
11.02099394510824
 30
0.0
 11
7.809987707799468
 21
10.97047876990633
 31
0.0
  0
LINE
  5
7E9
330
1E
100
AcDbEntity
  8
OBJECT1
  6
CONTINUOUS
100
AcDbLine
 10
7.816425526554768
 20
10.94810074476685
 30
0.0
 11
7.810594623187776
 21
10.92662753240783
 31
0.0
  0
LINE
  5
7EA
330
1E
100
AcDbEntity
  8
OBJECT2
  6
CONTINUOUS
100
AcDbLine
 10
7.809987707799468
 20
10.97047876990633
 30
0.0
 11
7.816425526554768
 21
10.94810074476685
 31
0.0
  0
LINE
  5
7EB
330
1E
100
AcDbEntity
  8
OBJECT2
  6
CONTINUOUS
100
AcDbLine
 10
7.738657794790876
 20
10.97045821363831
 30
0.0
 11
7.732188973139558
 21
11.02099394510824
 31
0.0
  0
LINE
  5
7EC
330
1E
100
AcDbEntity
  8
OBJECT1
  6
CONTINUOUS
100
AcDbLine
 10
7.738030323134552
 20
10.92660697613982
 30
0.0
 11
7.732219639047576
 21
10.94801818270681
 31
0.0
  0
LINE
  5
7ED
330
1E
100
AcDbEntity
  8
OBJECT2
  6
CONTINUOUS
100
AcDbLine
 10
7.732219639047576
 20
10.94801818270681
 30
0.0
 11
7.738657794790876
 21
10.97045821363831
 31
0.0
  0
LINE
  5
7EE
330
1E
100
AcDbEntity
  8
OBJECT1
  6
CONTINUOUS
100
AcDbLine
 10
7.738030323134552
 20
10.92660697613982
 30
0.0
 11
7.810594623187776
 21
10.92662753240783
 31
0.0
  0
LINE
  5
7EF
330
1E
100
AcDbEntity
  8
OBJECT2
  6
CONTINUOUS
100
AcDbLine
 10
7.774312473161169
 20
10.97043765737031
 30
0.0
 11
7.738657794790876
 21
10.97045821363831
 31
0.0
  0
LINE
  5
7F0
330
1E
100
AcDbEntity
  8
OBJECT2
  6
CONTINUOUS
100
AcDbLine
 10
7.774312473161169
 20
11.07148856404214
 30
0.0
 11
7.809998154427468
 21
11.07148856404214
 31
0.0
  0
LINE
  5
7F1
330
1E
100
AcDbEntity
  8
OBJECT1
  6
CONTINUOUS
100
AcDbLine
 10
7.84864572313648
 20
11.07152074300871
 30
0.0
 11
7.848645723136407
 21
11.1894581305924
 31
0.0
  0
LINE
  5
7F2
330
1E
100
AcDbEntity
  8
OBJECT1
  6
CONTINUOUS
100
AcDbLine
 10
7.816409711539483
 20
11.09388748072201
 30
0.0
 11
7.816399343990712
 21
11.18945811840857
 31
0.0
  0
LINE
  5
7F3
330
1E
100
AcDbEntity
  8
OBJECT1
  6
CONTINUOUS
100
AcDbLine
 10
7.816425526554768
 20
11.09388748243764
 30
0.0
 11
7.810594623187776
 21
11.11533980154064
 31
0.0
  0
LINE
  5
7F4
330
1E
100
AcDbEntity
  8
OBJECT2
  6
CONTINUOUS
100
AcDbLine
 10
7.816425526554768
 20
11.09388748243764
 30
0.0
 11
7.809998154427468
 21
11.07148856404214
 31
0.0
  0
LINE
  5
7F5
330
1E
100
AcDbEntity
  8
OBJECT2
  6
CONTINUOUS
100
AcDbLine
 10
7.816435898392482
 20
11.18945822225889
 30
0.0
 11
7.848645723136645
 21
11.1894581305924
 31
0.0
  0
ARC
  5
7F6
330
1E
100
AcDbEntity
  8
OBJECT1
  6
CONTINUOUS
100
AcDbCircle
 10
7.816398618378359
 20
11.19614699318464
 30
0.0
 40
0.0066888748154311
100
AcDbArc
 50
179.507225
 51
270.3193359999999
  0
LINE
  5
7F7
330
1E
100
AcDbEntity
  8
OBJECT1
  6
CONTINUOUS
100
AcDbLine
 10
7.738050879402564
 20
11.11533980154064
 30
0.0
 11
7.732199082779565
 21
11.09396970750967
 31
0.0
  0
LINE
  5
7F8
330
1E
100
AcDbEntity
  8
OBJECT2
  6
CONTINUOUS
100
AcDbLine
 10
7.732199082779565
 20
11.09396970750967
 30
0.0
 11
7.738647348162867
 21
11.07148856404214
 31
0.0
  0
LINE
  5
7F9
330
1E
100
AcDbEntity
  8
OBJECT1
  6
CONTINUOUS
100
AcDbLine
 10
7.810594623187776
 20
11.11533980154064
 30
0.0
 11
7.738050879402564
 21
11.11533980154064
 31
0.0
  0
LINE
  5
7FA
330
1E
100
AcDbEntity
  8
OBJECT2
  6
CONTINUOUS
100
AcDbLine
 10
7.774312473161169
 20
11.07148856404214
 30
0.0
 11
7.738647348162867
 21
11.07148856404214
 31
0.0
  0
LINE
  5
7FB
330
1E
100
AcDbEntity
  8
OBJECT2
  6
CONTINUOUS
100
AcDbLine
 10
7.867290546164466
 20
10.97040783054483
 30
0.0
 11
7.867311102432479
 21
11.07152074300871
 31
0.0
  0
LINE
  5
7FC
330
1E
100
AcDbEntity
  8
OBJECT2
  6
CONTINUOUS
100
AcDbLine
 10
7.892558580393423
 20
11.10521111832599
 30
0.0
 11
7.892558580393423
 21
10.93673767450756
 31
0.0
  0
LINE
  5
7FD
330
1E
100
AcDbEntity
  8
OBJECT2
  6
CONTINUOUS
100
AcDbLine
 10
7.909383380278061
 20
10.93671711823955
 30
0.0
 11
7.909383380278061
 21
11.105231674594
 31
0.0
  0
LINE
  5
7FE
330
1E
100
AcDbEntity
  8
OBJECT2
  6
CONTINUOUS
100
AcDbLine
 10
7.873944374227877
 20
11.08414936831517
 30
0.0
 11
7.867311102432479
 21
11.0210052308188
 31
0.0
  0
LINE
  5
7FF
330
1E
100
AcDbEntity
  8
OBJECT2
  6
CONTINUOUS
100
AcDbLine
 10
7.873923817959869
 20
10.95777886825035
 30
0.0
 11
7.867311102432479
 21
11.0210052308188
 31
0.0
  0
LINE
  5
800
330
1E
100
AcDbEntity
  8
OBJECT2
  6
CONTINUOUS
100
AcDbLine
 10
7.873923817959869
 20
10.95777886825035
 30
0.0
 11
7.892558580393423
 21
10.95779942451837
 31
0.0
  0
LINE
  5
801
330
1E
100
AcDbEntity
  8
OBJECT2
  6
CONTINUOUS
100
AcDbLine
 10
7.873923817959869
 20
10.95777886825035
 30
0.0
 11
7.867290546164466
 21
10.92955949311589
 31
0.0
  0
LINE
  5
802
330
1E
100
AcDbEntity
  8
OBJECT1
  6
CONTINUOUS
100
AcDbLine
 10
7.867290546164466
 20
10.97040783054483
 30
0.0
 11
7.867290546164466
 21
10.92955949311589
 31
0.0
  0
LINE
  5
803
330
1E
100
AcDbEntity
  8
OBJECT1
  6
CONTINUOUS
100
AcDbLine
 10
7.892558580393423
 20
10.93673767450756
 30
0.0
 11
7.909383380278061
 21
10.93671711823955
 31
0.0
  0
LINE
  5
804
330
1E
100
AcDbEntity
  8
OBJECT1
  6
CONTINUOUS
100
AcDbLine
 10
8.031568152392733
 20
11.16755322438197
 30
0.0
 11
8.010506402381929
 21
11.16755322438197
 31
0.0
  0
LINE
  5
805
330
1E
100
AcDbEntity
  8
OBJECT1
  6
CONTINUOUS
100
AcDbLine
 10
7.9763324492844
 20
11.1473551746156
 30
0.0
 11
7.945840427076756
 21
11.19137086225819
 31
0.0
  0
LINE
  5
806
330
1E
100
AcDbEntity
  8
OBJECT1
  6
CONTINUOUS
100
AcDbLine
 10
8.010506402381929
 20
11.16755322438197
 30
0.0
 11
8.010506402381929
 21
11.1473551746156
 31
0.0
  0
LINE
  5
807
330
1E
100
AcDbEntity
  8
OBJECT1
  6
CONTINUOUS
100
AcDbLine
 10
8.010506402381929
 20
11.1473551746156
 30
0.0
 11
7.9763324492844
 21
11.1473551746156
 31
0.0
  0
LINE
  5
808
330
1E
100
AcDbEntity
  8
OBJECT2
  6
CONTINUOUS
100
AcDbLine
 10
7.976311893016388
 20
11.14731406207958
 30
0.0
 11
7.932583993125956
 21
11.1473551746156
 31
0.0
  0
LINE
  5
809
330
1E
100
AcDbEntity
  8
OBJECT2
  6
CONTINUOUS
100
AcDbLine
 10
8.010506402381929
 20
11.1473551746156
 30
0.0
 11
8.010506402381929
 21
11.1473551746156
 31
0.0
  0
LINE
  5
80A
330
1E
100
AcDbEntity
  8
OBJECT2
  6
CONTINUOUS
100
AcDbLine
 10
8.010506402381929
 20
11.1473551746156
 30
0.0
 11
8.010506402381929
 21
11.1473551746156
 31
0.0
  0
LINE
  5
80B
330
1E
100
AcDbEntity
  8
OBJECT1
  6
CONTINUOUS
100
AcDbLine
 10
7.909392407094179
 20
11.19137086225819
 30
0.0
 11
7.909383380278061
 21
11.105231674594
 31
0.0
  0
LINE
  5
80C
330
1E
100
AcDbEntity
  8
OBJECT2
  6
CONTINUOUS
100
AcDbLine
 10
7.873944374227877
 20
11.08414936831517
 30
0.0
 11
7.892558580393423
 21
11.08414936831517
 31
0.0
  0
LINE
  5
80D
330
1E
100
AcDbEntity
  8
OBJECT1
  6
CONTINUOUS
100
AcDbLine
 10
7.873964930495891
 20
11.14058845557214
 30
0.0
 11
7.892527577497408
 21
11.14058845557214
 31
0.0
  0
LINE
  5
80E
330
1E
100
AcDbEntity
  8
OBJECT1
  6
CONTINUOUS
100
AcDbLine
 10
7.873964930495891
 20
11.14058845557214
 30
0.0
 11
7.867280436524462
 21
11.11238929971767
 31
0.0
  0
LINE
  5
80F
330
1E
100
AcDbEntity
  8
OBJECT2
  6
CONTINUOUS
100
AcDbLine
 10
7.873944374227877
 20
11.08414936831517
 30
0.0
 11
7.867280436524462
 21
11.11238929971767
 31
0.0
  0
LINE
  5
810
330
1E
100
AcDbEntity
  8
OBJECT1
  6
CONTINUOUS
100
AcDbLine
 10
7.867311102432479
 20
11.07152074300871
 30
0.0
 11
7.867280436524462
 21
11.11238929971767
 31
0.0
  0
LINE
  5
811
330
1E
100
AcDbEntity
  8
OBJECT1
  6
CONTINUOUS
100
AcDbLine
 10
7.892527577497408
 20
11.14058845557214
 30
0.0
 11
7.892558580393423
 21
11.10521111832599
 31
0.0
  0
LINE
  5
812
330
1E
100
AcDbEntity
  8
OBJECT1
  6
CONTINUOUS
100
AcDbLine
 10
7.892558580393423
 20
11.10521111832599
 30
0.0
 11
7.909383380278061
 21
11.105231674594
 31
0.0
  0
LINE
  5
813
330
1E
100
AcDbEntity
  8
OBJECT1
  6
CONTINUOUS
100
AcDbLine
 10
7.945840427076756
 20
11.19137086225819
 30
0.0
 11
7.909392407094179
 21
11.19137086225819
 31
0.0
  0
LINE
  5
815
330
1E
100
AcDbEntity
  8
OBJECT1
100
AcDbLine
 10
8.372421432007365
 20
10.61519653028663
 30
0.0
 11
8.372421432007365
 21
9.313906487898336
 31
0.0
  0
ARC
  5
816
330
1E
100
AcDbEntity
  8
OBJECT2
100
AcDbCircle
 10
8.307191351723533
 20
9.300821199102601
 30
0.0
 40
0.0665296036114963
100
AcDbArc
 50
11.34309764511674
 51
168.6569023548832
  0
ARC
  5
817
330
1E
100
AcDbEntity
  8
OBJECT1
100
AcDbCircle
 10
8.307191351723533
 20
9.326991776694068
 30
0.0
 40
0.0665296036114963
100
AcDbArc
 50
191.3430976451167
 51
348.6569023548832
  0
LINE
  5
821
330
1E
100
AcDbEntity
  8
OBJECT2
  6
CONTINUOUS
100
AcDbLine
 10
8.41046364327909
 20
10.61519653028663
 30
0.0
 11
8.354282014854272
 21
10.63648439924555
 31
0.0
  0
LINE
  5
822
330
1E
100
AcDbEntity
  8
OBJECT2
  6
CONTINUOUS
100
AcDbLine
 10
8.277429205510852
 20
10.61544320550275
 30
0.0
 11
8.354282014854272
 21
10.63648439924555
 31
0.0
  0
LINE
  5
823
330
1E
100
AcDbEntity
  8
OBJECT1
  6
CONTINUOUS
100
AcDbLine
 10
8.41046364327909
 20
10.61519653028663
 30
0.0
 11
8.466388486847776
 21
10.6365871805856
 31
0.0
  0
LINE
  5
824
330
1E
100
AcDbEntity
  8
OBJECT1
  6
CONTINUOUS
100
AcDbLine
 10
8.41046364327909
 20
10.61519653028663
 30
0.0
 11
8.371941852000746
 21
10.61519653028663
 31
0.0
  0
LINE
  5
825
330
1E
100
AcDbEntity
  8
OBJECT1
  6
CONTINUOUS
100
AcDbLine
 10
8.473834236711599
 20
10.74732581828641
 30
0.0
 11
8.473844346351604
 21
10.9383626306444
 31
0.0
  0
LINE
  5
826
330
1E
100
AcDbEntity
  8
OBJECT2
  6
CONTINUOUS
100
AcDbLine
 10
8.354282014854272
 20
10.63648439924555
 30
0.0
 11
8.354312680762287
 21
10.74732581828641
 31
0.0
  0
LINE
  5
827
330
1E
100
AcDbEntity
  8
OBJECT1
  6
CONTINUOUS
100
AcDbLine
 10
8.466388486847776
 20
10.6365871805856
 30
0.0
 11
8.466388486847776
 21
10.74631822416588
 31
0.0
  0
LINE
  5
828
330
1E
100
AcDbEntity
  8
OBJECT1
  6
CONTINUOUS
100
AcDbLine
 10
8.466758499671964
 20
10.93918521835282
 30
0.0
 11
8.466748390031961
 21
11.16755322438197
 31
0.0
  0
ARC
  5
829
330
1E
100
AcDbEntity
  8
OBJECT1
100
AcDbCircle
 10
12.66254751611473
 20
9.326991776694068
 30
0.0
 40
0.0665296036114963
100
AcDbArc
 50
191.3430976451167
 51
348.6569023548832
  0
ARC
  5
82A
330
1E
100
AcDbEntity
  8
OBJECT2
100
AcDbCircle
 10
12.66254751611473
 20
9.300821199102601
 30
0.0
 40
0.0665296036114963
100
AcDbArc
 50
11.34309764511674
 51
168.6569023548832
  0
ARC
  5
82B
330
1E
100
AcDbEntity
  8
OBJECT1
100
AcDbCircle
 10
12.79300767668238
 20
9.326991776694068
 30
0.0
 40
0.0665296036114963
100
AcDbArc
 50
191.3430976451167
 51
348.6569023548832
  0
LINE
  5
82C
330
1E
100
AcDbEntity
  8
OBJECT2
100
AcDbLine
 10
8.111134826431907
 20
13.52685179840776
 30
0.0
 11
8.372055147567232
 21
13.52685179840776
 31
0.0
  0
LINE
  5
82D
330
1E
100
AcDbEntity
  8
OBJECT2
100
AcDbLine
 10
8.080865332909141
 20
13.6278950240633
 30
0.0
 11
8.402690925530137
 21
13.6278950240633
 31
0.0
  0
ARC
  5
82E
330
1E
100
AcDbEntity
  8
OBJECT1
100
AcDbCircle
 10
8.465154800461071
 20
13.66098692865479
 30
0.0
 40
0.3789144328504275
100
AcDbArc
 50
89.99993899999989
 51
180.000109
  0
LINE
  5
82F
330
1E
100
AcDbEntity
  8
OBJECT2
100
AcDbLine
 10
8.372055147567232
 20
13.46984530902487
 30
0.0
 11
8.11150111087204
 21
13.46984530902487
 31
0.0
  0
LINE
  5
830
330
1E
100
AcDbEntity
  8
OBJECT2
100
AcDbLine
 10
8.333097639734425
 20
13.43905720725686
 30
0.0
 11
8.150458618704846
 21
13.43905720725686
 31
0.0
  0
LINE
  5
831
330
1E
100
AcDbEntity
  8
OBJECT2
100
AcDbLine
 10
8.333097639734425
 20
13.50063315818291
 30
0.0
 11
8.150458618704846
 21
13.50063315818291
 31
0.0
  0
LINE
  5
832
330
1E
100
AcDbEntity
  8
OBJECT2
100
AcDbLine
 10
8.372421432007365
 20
12.6534197053036
 30
0.0
 11
8.111867395312177
 21
12.6534197053036
 31
0.0
  0
LINE
  5
833
330
1E
100
AcDbEntity
  8
OBJECT2
100
AcDbLine
 10
8.333463924174555
 20
12.6842078070716
 30
0.0
 11
8.150824903144984
 21
12.6842078070716
 31
0.0
  0
LINE
  5
834
330
1E
100
AcDbEntity
  8
OBJECT2
100
AcDbLine
 10
8.372421432007365
 20
12.59184400698749
 30
0.0
 11
8.111867395312177
 21
12.59184400698749
 31
0.0
  0
LINE
  5
835
330
1E
100
AcDbEntity
  8
OBJECT2
100
AcDbLine
 10
8.333463924174555
 20
12.62263185614555
 30
0.0
 11
8.150824903144984
 21
12.62263185614555
 31
0.0
  0
LINE
  5
836
330
1E
100
AcDbEntity
  8
OBJECT2
100
AcDbLine
 10
8.03975079183596
 20
12.44858147166792
 30
0.0
 11
8.443805466603308
 21
12.44858147166792
 31
0.0
  0
LINE
  5
837
330
1E
100
AcDbEntity
  8
OBJECT2
100
AcDbLine
 10
8.455460972706081
 20
12.38131612121032
 30
0.0
 11
8.006886404135132
 21
12.36907116771046
 31
0.0
  0
LINE
  5
838
330
1E
100
AcDbEntity
  8
OBJECT2
100
AcDbLine
 10
8.03975079183596
 20
12.38189507014579
 30
0.0
 11
8.443805466603308
 21
12.38189507014579
 31
0.0
  0
LINE
  5
839
330
1E
100
AcDbEntity
  8
OBJECT2
100
AcDbLine
 10
8.06506043544819
 20
12.13723906425166
 30
0.0
 11
8.241778129219634
 21
12.11691156234299
 31
0.0
  0
LINE
  5
83A
330
1E
100
AcDbEntity
  8
OBJECT2
100
AcDbLine
 10
8.06506043544819
 20
12.31027195849583
 30
0.0
 11
8.241778129219634
 21
12.33059946040452
 31
0.0
  0
LINE
  5
83B
330
1E
100
AcDbEntity
  8
OBJECT2
100
AcDbLine
 10
8.111134826431907
 20
11.88972428639498
 30
0.0
 11
8.372055147567232
 21
11.88972428639498
 31
0.0
  0
LINE
  5
83C
330
1E
100
AcDbEntity
  8
OBJECT2
100
AcDbLine
 10
8.372055147567232
 20
11.83271779701209
 30
0.0
 11
8.11150111087204
 21
11.83271779701209
 31
0.0
  0
LINE
  5
83D
330
1E
100
AcDbEntity
  8
OBJECT2
100
AcDbLine
 10
8.333097639734425
 20
11.86350564617013
 30
0.0
 11
8.150458618704846
 21
11.86350564617013
 31
0.0
  0
LINE
  5
83E
330
1E
100
AcDbEntity
  8
OBJECT2
100
AcDbLine
 10
8.333097639734425
 20
11.80192969524408
 30
0.0
 11
8.150458618704846
 21
11.80192969524408
 31
0.0
  0
LINE
  5
83F
330
1E
100
AcDbEntity
  8
OBJECT2
100
AcDbLine
 10
8.059622101242094
 20
12.0797503196461
 30
0.0
 11
8.448670427297063
 21
12.0797503196461
 31
0.0
  0
LINE
  5
840
330
1E
100
AcDbEntity
  8
OBJECT2
100
AcDbLine
 10
8.476669854304146
 20
12.11691156234299
 30
0.0
 11
8.031622647183263
 21
12.11691156234299
 31
0.0
  0
LINE
  5
841
330
1E
100
AcDbEntity
  8
OBJECT2
100
AcDbLine
 10
8.029098054704407
 20
12.33059946040452
 30
0.0
 11
8.454458203734866
 21
12.34342336283983
 31
0.0
  0
LINE
  5
842
330
1E
100
AcDbEntity
  8
OBJECT2
100
AcDbLine
 10
8.483152463450757
 20
12.33059946040452
 30
0.0
 11
8.029098054704407
 21
12.33059946040452
 31
0.0
  0
LINE
  5
843
330
1E
100
AcDbEntity
  8
OBJECT2
100
AcDbLine
 10
8.476669854304146
 20
12.35624726527515
 30
0.0
 11
8.006886404135132
 21
12.34342336283983
 31
0.0
  0
LINE
  5
844
330
1E
100
AcDbEntity
  8
OBJECT2
  6
CONTINUOUS
100
AcDbLine
 10
8.203229839680787
 20
11.37518143498941
 30
0.0
 11
8.126418142873387
 21
11.35409912871058
 31
0.0
  0
LINE
  5
845
330
1E
100
AcDbEntity
  8
OBJECT2
100
AcDbLine
 10
8.372055273872206
 20
11.3751426228534
 30
0.0
 11
8.111501237177019
 21
11.3751426228534
 31
0.0
  0
LINE
  5
846
330
1E
100
AcDbEntity
  8
OBJECT2
100
AcDbLine
 10
8.333097513429443
 20
11.40136101046828
 30
0.0
 11
8.150458745009832
 21
11.40136101046828
 31
0.0
  0
LINE
  5
847
330
1E
100
AcDbEntity
  8
OBJECT2
100
AcDbLine
 10
8.372055273872206
 20
11.43214911223629
 30
0.0
 11
8.111501237177019
 21
11.43214911223629
 31
0.0
  0
LINE
  5
848
330
1E
100
AcDbEntity
  8
OBJECT2
100
AcDbLine
 10
8.333097513429443
 20
11.46293696139433
 30
0.0
 11
8.150458745009832
 21
11.46293696139433
 31
0.0
  0
LINE
  5
849
330
1E
100
AcDbEntity
  8
OBJECT2
  6
CONTINUOUS
100
AcDbLine
 10
8.203229839680787
 20
11.22349167851958
 30
0.0
 11
8.126418142873387
 21
11.2445739847984
 31
0.0
  0
LINE
  5
84A
330
1E
100
AcDbEntity
  8
OBJECT2
100
AcDbLine
 10
8.029098054704407
 20
12.35624726527515
 30
0.0
 11
8.454458203734866
 21
12.36907116771046
 31
0.0
  0
LINE
  5
84B
330
1E
100
AcDbEntity
  8
OBJECT1
100
AcDbLine
 10
8.11150111087204
 20
13.52685179840776
 30
0.0
 11
8.11150111087204
 21
12.59184400698749
 31
0.0
  0
LINE
  5
84C
330
1E
100
AcDbEntity
  8
OBJECT1
100
AcDbLine
 10
8.029098054704407
 20
12.35624726527515
 30
0.0
 11
8.006886404135132
 21
12.36907116771046
 31
0.0
  0
LINE
  5
84D
330
1E
100
AcDbEntity
  8
OBJECT1
100
AcDbLine
 10
8.11150111087204
 20
11.88972428639498
 30
0.0
 11
8.11150111087204
 21
11.37514262284569
 31
0.0
  0
ARC
  5
84E
330
1E
100
AcDbEntity
  8
OBJECT1
  6
CONTINUOUS
100
AcDbCircle
 10
7.848639271318898
 20
11.41488927397685
 30
0.0
 40
0.0067424559074586
100
AcDbArc
 50
0.1351930000000299
 51
90.03277599999989
  0
LINE
  5
84F
330
1E
100
AcDbEntity
  8
OBJECT1
  6
CONTINUOUS
100
AcDbLine
 10
7.816436024046378
 20
11.42165161217631
 30
0.0
 11
7.848635227462897
 21
11.4216310559083
 31
0.0
  0
ARC
  5
850
330
1E
100
AcDbEntity
  8
OBJECT1
  6
CONTINUOUS
100
AcDbCircle
 10
7.816416141754368
 20
11.41494487699686
 30
0.0
 40
0.0067060612034399
100
AcDbArc
 50
89.82977300000014
 51
180.5148469999999
  0
LINE
  5
851
330
1E
100
AcDbEntity
  8
OBJECT2
  6
CONTINUOUS
100
AcDbLine
 10
8.126407696245387
 20
11.2445739847984
 30
0.0
 11
8.126418142873387
 21
11.35409912871058
 31
0.0
  0
LINE
  5
852
330
1E
100
AcDbEntity
  8
OBJECT1
  6
CONTINUOUS
100
AcDbLine
 10
8.010506402381929
 20
11.35210382276156
 30
0.0
 11
8.010516849009931
 21
11.24658951002744
 31
0.0
  0
LINE
  5
853
330
1E
100
AcDbEntity
  8
OBJECT1
  6
CONTINUOUS
100
AcDbLine
 10
8.03154759612472
 20
11.23889708494749
 30
0.0
 11
8.010516849009931
 21
11.24658951002744
 31
0.0
  0
LINE
  5
854
330
1E
100
AcDbEntity
  8
OBJECT2
  6
CONTINUOUS
100
AcDbLine
 10
8.126418142873387
 20
11.2445739847984
 30
0.0
 11
8.073825436650404
 21
11.22353279105561
 31
0.0
  0
LINE
  5
855
330
1E
100
AcDbEntity
  8
OBJECT1
  6
CONTINUOUS
100
AcDbLine
 10
8.010506402381929
 20
11.35210382276156
 30
0.0
 11
8.073825436650404
 21
11.37514032245338
 31
0.0
  0
LINE
  5
856
330
1E
100
AcDbEntity
  8
OBJECT2
  6
CONTINUOUS
100
AcDbLine
 10
8.126418142873387
 20
11.35409912871058
 30
0.0
 11
8.073825436650404
 21
11.37514032245338
 31
0.0
  0
LINE
  5
857
330
1E
100
AcDbEntity
  8
OBJECT1
  6
CONTINUOUS
100
AcDbLine
 10
8.111501237177019
 20
11.3751426228534
 30
0.0
 11
8.073825436650404
 21
11.37514032245338
 31
0.0
  0
LINE
  5
858
330
1E
100
AcDbEntity
  8
OBJECT1
100
AcDbLine
 10
8.059622101242094
 20
12.0797503196461
 30
0.0
 11
8.059622101242094
 21
11.88972428639498
 31
0.0
  0
LINE
  5
859
330
1E
100
AcDbEntity
  8
OBJECT1
100
AcDbLine
 10
8.059622101242094
 20
11.88972428639498
 30
0.0
 11
8.11150111087204
 21
11.88972428639498
 31
0.0
  0
LINE
  5
85A
330
1E
100
AcDbEntity
  8
OBJECT2
100
AcDbLine
 10
8.06506043544819
 20
12.13723906425166
 30
0.0
 11
8.06506043544819
 21
12.31027195849583
 31
0.0
  0
LINE
  5
85B
330
1E
100
AcDbEntity
  8
OBJECT1
100
AcDbLine
 10
7.899610111309768
 20
12.13723906425166
 30
0.0
 11
7.899610111309768
 21
12.31027195849583
 31
0.0
  0
LINE
  5
85C
330
1E
100
AcDbEntity
  8
OBJECT2
100
AcDbLine
 10
7.945451933347121
 20
12.11691156234299
 30
0.0
 11
8.06506043544819
 21
12.13723906425166
 31
0.0
  0
LINE
  5
85D
330
1E
100
AcDbEntity
  8
OBJECT1
100
AcDbLine
 10
8.031622647183263
 20
12.11691156234299
 30
0.0
 11
7.945451933347121
 21
12.11691156234299
 31
0.0
  0
LINE
  5
85E
330
1E
100
AcDbEntity
  8
OBJECT1
100
AcDbLine
 10
7.945451933347121
 20
12.11691156234299
 30
0.0
 11
7.899610111309768
 21
12.13723906425166
 31
0.0
  0
LINE
  5
85F
330
1E
100
AcDbEntity
  8
OBJECT1
100
AcDbLine
 10
8.031622647183263
 20
12.0797503196461
 30
0.0
 11
8.059622101242094
 21
12.0797503196461
 31
0.0
  0
LINE
  5
860
330
1E
100
AcDbEntity
  8
OBJECT1
100
AcDbLine
 10
8.031622647183263
 20
12.11691156234299
 30
0.0
 11
8.031622647183263
 21
12.0797503196461
 31
0.0
  0
LINE
  5
861
330
1E
100
AcDbEntity
  8
OBJECT2
100
AcDbLine
 10
7.945451933347121
 20
12.33059946040452
 30
0.0
 11
8.06506043544819
 21
12.31027195849583
 31
0.0
  0
LINE
  5
862
330
1E
100
AcDbEntity
  8
OBJECT1
100
AcDbLine
 10
8.029098054704407
 20
12.33059946040452
 30
0.0
 11
7.945451933347121
 21
12.33059946040452
 31
0.0
  0
LINE
  5
863
330
1E
100
AcDbEntity
  8
OBJECT1
100
AcDbLine
 10
8.029098054704407
 20
12.33059946040452
 30
0.0
 11
8.006886404135132
 21
12.34342336283983
 31
0.0
  0
LINE
  5
864
330
1E
100
AcDbEntity
  8
OBJECT1
100
AcDbLine
 10
8.029098054704407
 20
12.35624726527515
 30
0.0
 11
8.006886404135132
 21
12.34342336283983
 31
0.0
  0
LINE
  5
865
330
1E
100
AcDbEntity
  8
OBJECT1
100
AcDbLine
 10
7.945451933347121
 20
12.33059946040452
 30
0.0
 11
7.899610111309768
 21
12.31027195849583
 31
0.0
  0
LINE
  5
866
330
1E
100
AcDbEntity
  8
OBJECT1
100
AcDbLine
 10
8.017597774612127
 20
12.58329473869729
 30
0.0
 11
8.017597774612127
 21
12.44858147166792
 31
0.0
  0
LINE
  5
867
330
1E
100
AcDbEntity
  8
OBJECT1
100
AcDbLine
 10
8.017597774612127
 20
12.44858147166792
 30
0.0
 11
8.03975079183596
 21
12.44858147166792
 31
0.0
  0
LINE
  5
868
330
1E
100
AcDbEntity
  8
OBJECT1
100
AcDbLine
 10
8.029098054704407
 20
12.38189507014579
 30
0.0
 11
8.006886404135132
 21
12.36907116771046
 31
0.0
  0
LINE
  5
869
330
1E
100
AcDbEntity
  8
OBJECT1
100
AcDbLine
 10
8.029098054704407
 20
12.38189507014579
 30
0.0
 11
8.03975079183596
 21
12.38189507014579
 31
0.0
  0
LINE
  5
86A
330
1E
100
AcDbEntity
  8
OBJECT1
100
AcDbLine
 10
8.03975079183596
 20
12.44858147166792
 30
0.0
 11
8.03975079183596
 21
12.38189507014579
 31
0.0
  0
LINE
  5
86B
330
1E
100
AcDbEntity
  8
OBJECT1
100
AcDbLine
 10
8.017597774612127
 20
12.58329473869729
 30
0.0
 11
8.026147042902341
 21
12.59184400698749
 31
0.0
  0
LINE
  5
86C
330
1E
100
AcDbEntity
  8
OBJECT1
100
AcDbLine
 10
8.11150111087204
 20
12.59184400698749
 30
0.0
 11
8.026147042902341
 21
12.59184400698749
 31
0.0
  0
LINE
  5
86D
330
1E
100
AcDbEntity
  8
OBJECT1
100
AcDbLine
 10
8.086240367610646
 20
13.64190148844409
 30
0.0
 11
8.086240367610646
 21
13.6609861708249
 31
0.0
  0
LINE
  5
86E
330
1E
100
AcDbEntity
  8
OBJECT1
100
AcDbLine
 10
8.064950905510185
 20
13.6119808492743
 30
0.0
 11
8.064950905510185
 21
13.54276597319675
 31
0.0
  0
ARC
  5
86F
330
1E
100
AcDbEntity
  8
OBJECT1
100
AcDbCircle
 10
8.080864322469306
 20
13.5427657205868
 30
0.0
 40
0.0159134169591196
100
AcDbArc
 50
179.99826
 51
270.0034640000001
  0
ARC
  5
870
330
1E
100
AcDbEntity
  8
OBJECT1
100
AcDbCircle
 10
8.080863312029467
 20
13.61198236493406
 30
0.0
 40
0.0159124065192848
100
AcDbArc
 50
109.1170349999999
 51
180.0056379999999
  0
ARC
  5
871
330
1E
100
AcDbEntity
  8
OBJECT1
100
AcDbCircle
 10
8.070326950651523
 20
13.64201314204585
 30
0.0
 40
0.0159134169591196
100
AcDbArc
 50
289.3325959999998
 51
0.0004269999999875
  0
LINE
  5
872
330
1E
100
AcDbEntity
  8
OBJECT1
100
AcDbLine
 10
8.111134826431907
 20
13.52685179840776
 30
0.0
 11
8.080865332909141
 21
13.52685179840776
 31
0.0
  0
LINE
  5
873
330
1E
100
AcDbEntity
  8
OBJECT1
100
AcDbLine
 10
12.5973174358309
 20
13.52685179840776
 30
0.0
 11
12.5973174358309
 21
12.59184400698749
 31
0.0
  0
LINE
  5
874
330
1E
100
AcDbEntity
  8
OBJECT1
  6
CONTINUOUS
100
AcDbLine
 10
10.8366392249939
 20
13.4552021412403
 30
0.0
 11
10.83663947760386
 21
13.67042557345713
 31
0.0
  0
LINE
  5
875
330
1E
100
AcDbEntity
  8
OBJECT1
  6
CONTINUOUS
100
AcDbLine
 10
11.31659839915963
 20
13.45520214124314
 30
0.0
 11
11.31659839915963
 21
13.67042557345713
 31
0.0
  0
LINE
  5
876
330
1E
100
AcDbEntity
  8
OBJECT1
100
AcDbLine
 10
12.85823775696622
 20
13.52685179840776
 30
0.0
 11
12.85823775696622
 21
12.59184400698749
 31
0.0
  0
LINE
  5
877
330
1E
100
AcDbEntity
  8
OBJECT2
100
AcDbLine
 10
9.34023471927118
 20
13.38833353463153
 30
0.0
 11
9.615146627056532
 21
13.66324544241687
 31
0.0
  0
LINE
  5
878
330
1E
100
AcDbEntity
  8
OBJECT1
100
AcDbLine
 10
8.372421432007365
 20
13.52685179840776
 30
0.0
 11
8.372421432007365
 21
12.59184400698749
 31
0.0
  0
LINE
  5
879
330
1E
100
AcDbEntity
  8
OBJECT1
100
AcDbLine
 10
9.34023471927118
 20
13.38833353463153
 30
0.0
 11
9.128239012601802
 21
13.6003292413009
 31
0.0
  0
LINE
  5
87A
330
1E
100
AcDbEntity
  8
OBJECT2
100
AcDbLine
 10
9.401201680533972
 20
13.33148110684346
 30
0.0
 11
9.671999054844608
 21
13.60227848115408
 31
0.0
  0
LINE
  5
87B
330
1E
100
AcDbEntity
  8
OBJECT1
100
AcDbLine
 10
9.705525799632948
 20
13.56875173636575
 30
0.0
 11
9.60115315093766
 21
13.46437908767046
 31
0.0
  0
LINE
  5
87C
330
1E
100
AcDbEntity
  8
OBJECT2
100
AcDbLine
 10
9.604299711266948
 20
13.53457913757644
 30
0.0
 11
9.637826456055291
 21
13.50105239278809
 31
0.0
  0
ARC
  5
87D
330
1E
100
AcDbEntity
  8
OBJECT1
  6
CONTINUOUS
100
AcDbCircle
 10
10.9409671379426
 20
13.39204965156476
 30
0.0
 40
0.0159144273989545
100
AcDbArc
 50
180.0
 51
270.0011900000002
  0
LINE
  5
87E
330
1E
100
AcDbEntity
  8
OBJECT2
  6
CONTINUOUS
100
AcDbLine
 10
11.31659839915963
 20
13.48349445661905
 30
0.0
 11
10.83663947760386
 21
13.48349445661905
 31
0.0
  0
LINE
  5
87F
330
1E
100
AcDbEntity
  8
OBJECT2
  6
CONTINUOUS
100
AcDbLine
 10
10.90913853575465
 20
13.43928771384419
 30
0.0
 11
11.24409908839888
 21
13.43928771384419
 31
0.0
  0
LINE
  5
880
330
1E
100
AcDbEntity
  8
OBJECT1
100
AcDbLine
 10
8.454458203734866
 20
12.36907116771046
 30
0.0
 11
8.476669854304146
 21
12.35624726527515
 31
0.0
  0
LINE
  5
881
330
1E
100
AcDbEntity
  8
OBJECT1
100
AcDbLine
 10
8.372055147567232
 20
11.88972428639498
 30
0.0
 11
8.372055147567232
 21
11.37514262284569
 31
0.0
  0
LINE
  5
882
330
1E
100
AcDbEntity
  8
OBJECT1
  6
CONTINUOUS
100
AcDbLine
 10
8.473844346351604
 20
11.35210382276156
 30
0.0
 11
8.473854792979608
 21
11.24658951002744
 31
0.0
  0
LINE
  5
883
330
1E
100
AcDbEntity
  8
OBJECT1
  6
CONTINUOUS
100
AcDbLine
 10
8.473854792979608
 20
11.24658951002744
 30
0.0
 11
8.473854792979608
 21
11.35212437902958
 31
0.0
  0
LINE
  5
884
330
1E
100
AcDbEntity
  8
OBJECT2
  6
CONTINUOUS
100
AcDbLine
 10
8.357963608756165
 20
11.24459454106642
 30
0.0
 11
8.357963608756165
 21
11.35407857244257
 31
0.0
  0
LINE
  5
885
330
1E
100
AcDbEntity
  8
OBJECT2
  6
CONTINUOUS
100
AcDbLine
 10
8.357963608756165
 20
11.2445945410664
 30
0.0
 11
8.410494646175102
 21
11.22351223478759
 31
0.0
  0
LINE
  5
886
330
1E
100
AcDbEntity
  8
OBJECT2
  6
CONTINUOUS
100
AcDbLine
 10
8.281090243144724
 20
11.22351223478759
 30
0.0
 11
8.357963608756165
 21
11.2445945410664
 31
0.0
  0
LINE
  5
887
330
1E
100
AcDbEntity
  8
OBJECT1
  6
CONTINUOUS
100
AcDbLine
 10
8.452803152608808
 20
11.23889708494749
 30
0.0
 11
8.473854792979608
 21
11.24658951002744
 31
0.0
  0
LINE
  5
888
330
1E
100
AcDbEntity
  8
OBJECT2
  6
CONTINUOUS
100
AcDbLine
 10
8.357963608756165
 20
11.35407857244257
 30
0.0
 11
8.410494646175102
 21
11.37516087872139
 31
0.0
  0
LINE
  5
889
330
1E
100
AcDbEntity
  8
OBJECT2
  6
CONTINUOUS
100
AcDbLine
 10
8.281090243144724
 20
11.37516087872139
 30
0.0
 11
8.357963608756165
 21
11.35407857244257
 31
0.0
  0
LINE
  5
88A
330
1E
100
AcDbEntity
  8
OBJECT1
  6
CONTINUOUS
100
AcDbLine
 10
8.410494646175102
 20
11.37516087872139
 30
0.0
 11
8.371941852000746
 21
11.3751585247741
 31
0.0
  0
LINE
  5
88B
330
1E
100
AcDbEntity
  8
OBJECT1
  6
CONTINUOUS
100
AcDbLine
 10
8.473854792979608
 20
11.35212437902958
 30
0.0
 11
8.410494646175102
 21
11.37516087872139
 31
0.0
  0
LINE
  5
88C
330
1E
100
AcDbEntity
  8
OBJECT1
100
AcDbLine
 10
8.423934157197177
 20
12.0797503196461
 30
0.0
 11
8.423934157197177
 21
11.88972428639498
 31
0.0
  0
LINE
  5
88D
330
1E
100
AcDbEntity
  8
OBJECT1
100
AcDbLine
 10
8.372421432007365
 20
11.88972428639498
 30
0.0
 11
8.423934157197177
 21
11.88972428639498
 31
0.0
  0
LINE
  5
88E
330
1E
100
AcDbEntity
  8
OBJECT1
100
AcDbLine
 10
8.454458203734866
 20
12.33059946040452
 30
0.0
 11
8.538104325092151
 21
12.33059946040452
 31
0.0
  0
LINE
  5
88F
330
1E
100
AcDbEntity
  8
OBJECT1
100
AcDbLine
 10
8.451933611256013
 20
12.11691156234299
 30
0.0
 11
8.538104325092151
 21
12.11691156234299
 31
0.0
  0
LINE
  5
890
330
1E
100
AcDbEntity
  8
OBJECT2
100
AcDbLine
 10
8.538104325092151
 20
12.11691156234299
 30
0.0
 11
8.418495822991083
 21
12.13723906425166
 31
0.0
  0
LINE
  5
891
330
1E
100
AcDbEntity
  8
OBJECT2
100
AcDbLine
 10
8.538104325092151
 20
12.33059946040452
 30
0.0
 11
8.418495822991083
 21
12.31027195849583
 31
0.0
  0
LINE
  5
892
330
1E
100
AcDbEntity
  8
OBJECT2
100
AcDbLine
 10
8.418495822991083
 20
12.13723906425166
 30
0.0
 11
8.418495822991083
 21
12.31027195849583
 31
0.0
  0
LINE
  5
893
330
1E
100
AcDbEntity
  8
OBJECT2
100
AcDbLine
 10
8.418495822991083
 20
12.13723906425166
 30
0.0
 11
8.241778129219634
 21
12.11691156234299
 31
0.0
  0
LINE
  5
894
330
1E
100
AcDbEntity
  8
OBJECT1
100
AcDbLine
 10
8.451933611256013
 20
12.11691156234299
 30
0.0
 11
8.451933611256013
 21
12.0797503196461
 31
0.0
  0
LINE
  5
895
330
1E
100
AcDbEntity
  8
OBJECT1
100
AcDbLine
 10
8.451933611256013
 20
12.0797503196461
 30
0.0
 11
8.423934157197177
 21
12.0797503196461
 31
0.0
  0
LINE
  5
896
330
1E
100
AcDbEntity
  8
OBJECT2
100
AcDbLine
 10
8.418495822991083
 20
12.31027195849583
 30
0.0
 11
8.241778129219634
 21
12.33059946040452
 31
0.0
  0
LINE
  5
897
330
1E
100
AcDbEntity
  8
OBJECT1
100
AcDbLine
 10
8.454458203734866
 20
12.34342336283983
 30
0.0
 11
8.476669854304146
 21
12.33059946040452
 31
0.0
  0
LINE
  5
898
330
1E
100
AcDbEntity
  8
OBJECT1
100
AcDbLine
 10
8.454458203734866
 20
12.34342336283983
 30
0.0
 11
8.476669854304146
 21
12.35624726527515
 31
0.0
  0
LINE
  5
899
330
1E
100
AcDbEntity
  8
OBJECT1
100
AcDbLine
 10
8.583946147129507
 20
12.13723906425166
 30
0.0
 11
8.583946147129507
 21
12.31027195849583
 31
0.0
  0
LINE
  5
89A
330
1E
100
AcDbEntity
  8
OBJECT1
100
AcDbLine
 10
8.538104325092151
 20
12.11691156234299
 30
0.0
 11
8.583946147129507
 21
12.13723906425166
 31
0.0
  0
LINE
  5
89B
330
1E
100
AcDbEntity
  8
OBJECT1
100
AcDbLine
 10
8.538104325092151
 20
12.33059946040452
 30
0.0
 11
8.583946147129507
 21
12.31027195849583
 31
0.0
  0
LINE
  5
89C
330
1E
100
AcDbEntity
  8
OBJECT2
100
AcDbLine
 10
9.60115315093766
 20
13.46437908767046
 30
0.0
 11
9.539101074017599
 21
13.4023270107504
 31
0.0
  0
LINE
  5
89D
330
1E
100
AcDbEntity
  8
OBJECT1
100
AcDbLine
 10
9.539101074017599
 20
13.4023270107504
 30
0.0
 11
9.572189548344363
 21
13.36923853642364
 31
0.0
  0
LINE
  5
89E
330
1E
100
AcDbEntity
  8
OBJECT1
100
AcDbLine
 10
8.465958483827142
 20
12.58329473869729
 30
0.0
 11
8.465958483827142
 21
12.44858147166792
 31
0.0
  0
LINE
  5
89F
330
1E
100
AcDbEntity
  8
OBJECT1
100
AcDbLine
 10
8.465958483827142
 20
12.44858147166792
 30
0.0
 11
8.443805466603308
 21
12.44858147166792
 31
0.0
  0
LINE
  5
8A0
330
1E
100
AcDbEntity
  8
OBJECT1
100
AcDbLine
 10
8.454458203734866
 20
12.36907116771046
 30
0.0
 11
8.465564029019502
 21
12.37548311892815
 31
0.0
  0
LINE
  5
8A1
330
1E
100
AcDbEntity
  8
OBJECT1
100
AcDbLine
 10
8.454458203734866
 20
12.38189507014579
 30
0.0
 11
8.465564029019502
 21
12.37548311892815
 31
0.0
  0
LINE
  5
8A2
330
1E
100
AcDbEntity
  8
OBJECT1
100
AcDbLine
 10
8.443805466603308
 20
12.38189507014579
 30
0.0
 11
8.454458203734866
 21
12.38189507014579
 31
0.0
  0
LINE
  5
8A3
330
1E
100
AcDbEntity
  8
OBJECT1
100
AcDbLine
 10
8.443805466603308
 20
12.44858147166792
 30
0.0
 11
8.443805466603308
 21
12.38189507014579
 31
0.0
  0
LINE
  5
8A4
330
1E
100
AcDbEntity
  8
OBJECT1
100
AcDbLine
 10
8.465958483827142
 20
12.58329473869729
 30
0.0
 11
8.457409215536934
 21
12.59184400698749
 31
0.0
  0
LINE
  5
8A5
330
1E
100
AcDbEntity
  8
OBJECT1
100
AcDbLine
 10
8.457409215536934
 20
12.59184400698749
 30
0.0
 11
8.372421432007365
 21
12.59184400698749
 31
0.0
  0
LINE
  5
8A6
330
1E
100
AcDbEntity
  8
OBJECT2
100
AcDbLine
 10
9.46890102411163
 20
13.39918045042112
 30
0.0
 11
9.50242776889997
 21
13.36565370563277
 31
0.0
  0
LINE
  5
8A7
330
1E
100
AcDbEntity
  8
OBJECT1
100
AcDbLine
 10
9.332871007455496
 20
13.38096982281585
 30
0.0
 11
9.391780701980934
 21
13.32206012829042
 31
0.0
  0
LINE
  5
8A8
330
1E
100
AcDbEntity
  8
OBJECT1
100
AcDbLine
 10
9.434728425322312
 20
13.29795436205511
 30
0.0
 11
9.539101074017603
 21
13.4023270107504
 31
0.0
  0
LINE
  5
8A9
330
1E
100
AcDbEntity
  8
OBJECT1
100
AcDbLine
 10
9.391780701980934
 20
13.32206012829042
 30
0.0
 11
9.401201680533972
 21
13.33148110684346
 31
0.0
  0
LINE
  5
8AA
330
1E
100
AcDbEntity
  8
OBJECT1
100
AcDbLine
 10
9.401201680533972
 20
13.33148110684346
 30
0.0
 11
9.434728425322312
 21
13.29795436205511
 31
0.0
  0
LINE
  5
8AB
330
1E
100
AcDbEntity
  8
OBJECT1
100
AcDbLine
 10
9.332871007455496
 20
13.38096982281585
 30
0.0
 11
9.34023471927118
 21
13.38833353463153
 31
0.0
  0
LINE
  5
8AC
330
1E
100
AcDbEntity
  8
OBJECT1
100
AcDbLine
 10
9.604130529634399
 20
13.40117951771368
 30
0.0
 11
9.572189548344363
 21
13.36923853642364
 31
0.0
  0
LINE
  5
8AD
330
1E
100
AcDbEntity
  8
OBJECT2
100
AcDbLine
 10
9.570127112477628
 20
13.43335304921043
 30
0.0
 11
9.602940729649773
 21
13.40053943203829
 31
0.0
  0
LINE
  5
8AE
330
1E
100
AcDbEntity
  8
OBJECT1
100
AcDbLine
 10
9.633966768109806
 20
13.43156547049831
 30
0.0
 11
9.60115315093766
 21
13.46437908767046
 31
0.0
  0
LINE
  5
8AF
330
1E
100
AcDbEntity
  8
OBJECT1
100
AcDbLine
 10
9.600039795053762
 20
13.39763849744227
 30
0.0
 11
9.633966768109806
 21
13.43156547049831
 31
0.0
  0
LINE
  5
8B0
330
1E
100
AcDbEntity
  8
OBJECT1
  6
CONTINUOUS
100
AcDbLine
 10
10.85255390500281
 20
13.43928771384419
 30
0.0
 11
10.90913853575465
 21
13.43928771384419
 31
0.0
  0
ARC
  5
8B1
330
1E
100
AcDbEntity
  8
OBJECT1
  6
CONTINUOUS
100
AcDbCircle
 10
10.85255365239286
 20
13.4552021412403
 30
0.0
 40
0.0159144273989545
100
AcDbArc
 50
180.0
 51
270.001083
  0
ARC
  5
8B2
330
1E
100
AcDbEntity
  8
OBJECT1
  6
CONTINUOUS
100
AcDbCircle
 10
10.90913878836461
 20
13.42337404427511
 30
0.0
 40
0.0159141747889958
100
AcDbArc
 50
359.998265
 51
90.001312
  0
LINE
  5
8B3
330
1E
100
AcDbEntity
  8
OBJECT1
  6
CONTINUOUS
100
AcDbLine
 10
10.92505296315361
 20
13.39204965156476
 30
0.0
 11
10.92505296315361
 21
13.42337353905518
 31
0.0
  0
LINE
  5
8B4
330
1E
100
AcDbEntity
  8
OBJECT2
100
AcDbLine
 10
12.94064081313386
 20
12.35624726527515
 30
0.0
 11
12.51528066410339
 21
12.36907116771046
 31
0.0
  0
LINE
  5
8B5
330
1E
100
AcDbEntity
  8
OBJECT1
100
AcDbLine
 10
12.51528066410339
 20
12.36907116771046
 30
0.0
 11
12.49306901353412
 21
12.35624726527515
 31
0.0
  0
LINE
  5
8B6
330
1E
100
AcDbEntity
  8
OBJECT1
100
AcDbLine
 10
12.94064081313386
 20
12.35624726527515
 30
0.0
 11
12.96285246370313
 21
12.36907116771046
 31
0.0
  0
LINE
  5
8B7
330
1E
100
AcDbEntity
  8
OBJECT1
100
AcDbLine
 10
12.94064081313386
 20
12.33059946040452
 30
0.0
 11
13.02428693449114
 21
12.33059946040452
 31
0.0
  0
LINE
  5
8B8
330
1E
100
AcDbEntity
  8
OBJECT2
100
AcDbLine
 10
13.02428693449114
 20
12.33059946040452
 30
0.0
 11
12.90467843239007
 21
12.31027195849583
 31
0.0
  0
LINE
  5
8B9
330
1E
100
AcDbEntity
  8
OBJECT1
100
AcDbLine
 10
12.938116220655
 20
12.11691156234299
 30
0.0
 11
13.02428693449114
 21
12.11691156234299
 31
0.0
  0
LINE
  5
8BA
330
1E
100
AcDbEntity
  8
OBJECT2
100
AcDbLine
 10
13.02428693449114
 20
12.11691156234299
 30
0.0
 11
12.90467843239007
 21
12.13723906425166
 31
0.0
  0
LINE
  5
8BB
330
1E
100
AcDbEntity
  8
OBJECT1
100
AcDbLine
 10
12.54580471064109
 20
12.0797503196461
 30
0.0
 11
12.54580471064109
 21
11.88972428639498
 31
0.0
  0
LINE
  5
8BC
330
1E
100
AcDbEntity
  8
OBJECT1
100
AcDbLine
 10
12.91011676659617
 20
12.0797503196461
 30
0.0
 11
12.91011676659617
 21
11.88972428639498
 31
0.0
  0
LINE
  5
8BD
330
1E
100
AcDbEntity
  8
OBJECT2
100
AcDbLine
 10
12.59768372027103
 20
11.83271779701209
 30
0.0
 11
12.85823775696622
 21
11.83271779701209
 31
0.0
  0
LINE
  5
8BE
330
1E
100
AcDbEntity
  8
OBJECT2
100
AcDbLine
 10
12.85860404140636
 20
11.88972428639498
 30
0.0
 11
12.59768372027103
 21
11.88972428639498
 31
0.0
  0
LINE
  5
8BF
330
1E
100
AcDbEntity
  8
OBJECT2
100
AcDbLine
 10
12.63664122810384
 20
11.80192969524408
 30
0.0
 11
12.81928024913342
 21
11.80192969524408
 31
0.0
  0
LINE
  5
8C0
330
1E
100
AcDbEntity
  8
OBJECT2
100
AcDbLine
 10
12.63664122810384
 20
11.86350564617013
 30
0.0
 11
12.81928024913342
 21
11.86350564617013
 31
0.0
  0
LINE
  5
8C1
330
1E
100
AcDbEntity
  8
OBJECT1
100
AcDbLine
 10
12.5973174358309
 20
11.88972428639498
 30
0.0
 11
12.54580471064109
 21
11.88972428639498
 31
0.0
  0
LINE
  5
8C2
330
1E
100
AcDbEntity
  8
OBJECT1
100
AcDbLine
 10
12.91011676659617
 20
11.88972428639498
 30
0.0
 11
12.85823775696622
 21
11.88972428639498
 31
0.0
  0
LINE
  5
8C3
330
1E
100
AcDbEntity
  8
OBJECT2
100
AcDbLine
 10
12.55124304484718
 20
12.31027195849583
 30
0.0
 11
12.72796073861863
 21
12.33059946040452
 31
0.0
  0
LINE
  5
8C4
330
1E
100
AcDbEntity
  8
OBJECT2
100
AcDbLine
 10
12.55124304484718
 20
12.13723906425166
 30
0.0
 11
12.72796073861863
 21
12.11691156234299
 31
0.0
  0
LINE
  5
8C5
330
1E
100
AcDbEntity
  8
OBJECT2
100
AcDbLine
 10
12.49306901353412
 20
12.11691156234299
 30
0.0
 11
12.938116220655
 21
12.11691156234299
 31
0.0
  0
LINE
  5
8C6
330
1E
100
AcDbEntity
  8
OBJECT2
100
AcDbLine
 10
12.91011676659617
 20
12.0797503196461
 30
0.0
 11
12.52106844054119
 21
12.0797503196461
 31
0.0
  0
LINE
  5
8C7
330
1E
100
AcDbEntity
  8
OBJECT2
100
AcDbLine
 10
12.49306901353412
 20
12.35624726527515
 30
0.0
 11
12.96285246370313
 21
12.34342336283983
 31
0.0
  0
LINE
  5
8C8
330
1E
100
AcDbEntity
  8
OBJECT2
100
AcDbLine
 10
12.4865864043875
 20
12.33059946040452
 30
0.0
 11
12.94064081313386
 21
12.33059946040452
 31
0.0
  0
LINE
  5
8C9
330
1E
100
AcDbEntity
  8
OBJECT2
100
AcDbLine
 10
12.94064081313386
 20
12.33059946040452
 30
0.0
 11
12.51528066410339
 21
12.34342336283983
 31
0.0
  0
LINE
  5
8CA
330
1E
100
AcDbEntity
  8
OBJECT2
100
AcDbLine
 10
12.55124304484718
 20
12.13723906425166
 30
0.0
 11
12.55124304484718
 21
12.31027195849583
 31
0.0
  0
LINE
  5
8CB
330
1E
100
AcDbEntity
  8
OBJECT1
100
AcDbLine
 10
12.38579272070876
 20
12.13723906425166
 30
0.0
 11
12.38579272070876
 21
12.31027195849583
 31
0.0
  0
LINE
  5
8CC
330
1E
100
AcDbEntity
  8
OBJECT2
100
AcDbLine
 10
12.43163454274611
 20
12.11691156234299
 30
0.0
 11
12.55124304484718
 21
12.13723906425166
 31
0.0
  0
LINE
  5
8CD
330
1E
100
AcDbEntity
  8
OBJECT1
100
AcDbLine
 10
12.51780525658225
 20
12.11691156234299
 30
0.0
 11
12.43163454274611
 21
12.11691156234299
 31
0.0
  0
LINE
  5
8CE
330
1E
100
AcDbEntity
  8
OBJECT1
100
AcDbLine
 10
12.43163454274611
 20
12.11691156234299
 30
0.0
 11
12.38579272070876
 21
12.13723906425166
 31
0.0
  0
LINE
  5
8CF
330
1E
100
AcDbEntity
  8
OBJECT1
100
AcDbLine
 10
12.51780525658225
 20
12.11691156234299
 30
0.0
 11
12.51780525658225
 21
12.0797503196461
 31
0.0
  0
LINE
  5
8D0
330
1E
100
AcDbEntity
  8
OBJECT1
100
AcDbLine
 10
12.51780525658225
 20
12.0797503196461
 30
0.0
 11
12.54580471064109
 21
12.0797503196461
 31
0.0
  0
LINE
  5
8D1
330
1E
100
AcDbEntity
  8
OBJECT2
100
AcDbLine
 10
12.43163454274611
 20
12.33059946040452
 30
0.0
 11
12.55124304484718
 21
12.31027195849583
 31
0.0
  0
LINE
  5
8D2
330
1E
100
AcDbEntity
  8
OBJECT1
100
AcDbLine
 10
12.51528066410339
 20
12.33059946040452
 30
0.0
 11
12.43163454274611
 21
12.33059946040452
 31
0.0
  0
LINE
  5
8D3
330
1E
100
AcDbEntity
  8
OBJECT1
100
AcDbLine
 10
12.43163454274611
 20
12.33059946040452
 30
0.0
 11
12.38579272070876
 21
12.31027195849583
 31
0.0
  0
LINE
  5
8D4
330
1E
100
AcDbEntity
  8
OBJECT1
100
AcDbLine
 10
12.51528066410339
 20
12.34342336283983
 30
0.0
 11
12.49306901353412
 21
12.35624726527515
 31
0.0
  0
LINE
  5
8D5
330
1E
100
AcDbEntity
  8
OBJECT1
100
AcDbLine
 10
12.51528066410339
 20
12.34342336283983
 30
0.0
 11
12.49306901353412
 21
12.33059946040452
 31
0.0
  0
LINE
  5
8D6
330
1E
100
AcDbEntity
  8
OBJECT2
100
AcDbLine
 10
12.90467843239007
 20
12.13723906425166
 30
0.0
 11
12.90467843239007
 21
12.31027195849583
 31
0.0
  0
LINE
  5
8D7
330
1E
100
AcDbEntity
  8
OBJECT2
100
AcDbLine
 10
12.90467843239007
 20
12.13723906425166
 30
0.0
 11
12.72796073861863
 21
12.11691156234299
 31
0.0
  0
LINE
  5
8D8
330
1E
100
AcDbEntity
  8
OBJECT1
100
AcDbLine
 10
12.938116220655
 20
12.11691156234299
 30
0.0
 11
12.938116220655
 21
12.0797503196461
 31
0.0
  0
LINE
  5
8D9
330
1E
100
AcDbEntity
  8
OBJECT1
100
AcDbLine
 10
12.938116220655
 20
12.0797503196461
 30
0.0
 11
12.91011676659617
 21
12.0797503196461
 31
0.0
  0
LINE
  5
8DA
330
1E
100
AcDbEntity
  8
OBJECT2
100
AcDbLine
 10
12.90467843239007
 20
12.31027195849583
 30
0.0
 11
12.72796073861863
 21
12.33059946040452
 31
0.0
  0
LINE
  5
8DB
330
1E
100
AcDbEntity
  8
OBJECT1
100
AcDbLine
 10
12.94064081313386
 20
12.35624726527515
 30
0.0
 11
12.96285246370313
 21
12.34342336283983
 31
0.0
  0
LINE
  5
8DC
330
1E
100
AcDbEntity
  8
OBJECT1
100
AcDbLine
 10
12.94064081313386
 20
12.33059946040452
 30
0.0
 11
12.96285246370313
 21
12.34342336283983
 31
0.0
  0
LINE
  5
8DD
330
1E
100
AcDbEntity
  8
OBJECT1
100
AcDbLine
 10
13.0701287565285
 20
12.13723906425166
 30
0.0
 11
13.0701287565285
 21
12.31027195849583
 31
0.0
  0
LINE
  5
8DE
330
1E
100
AcDbEntity
  8
OBJECT1
100
AcDbLine
 10
13.02428693449114
 20
12.11691156234299
 30
0.0
 11
13.0701287565285
 21
12.13723906425166
 31
0.0
  0
LINE
  5
8DF
330
1E
100
AcDbEntity
  8
OBJECT1
100
AcDbLine
 10
13.02428693449114
 20
12.33059946040452
 30
0.0
 11
13.0701287565285
 21
12.31027195849583
 31
0.0
  0
LINE
  5
8E0
330
1E
100
AcDbEntity
  8
OBJECT1
  6
CONTINUOUS
100
AcDbLine
 10
11.30068397176067
 20
13.43928771384419
 30
0.0
 11
11.24409908839888
 21
13.43928771384419
 31
0.0
  0
LINE
  5
8EC
330
1E
100
AcDbEntity
  8
OBJECT2
  6
CONTINUOUS
100
AcDbLine
 10
11.13977155436511
 20
13.37613522416579
 30
0.0
 11
11.01346657500833
 21
13.37613522416579
 31
0.0
  0
LINE
  5
8ED
330
1E
100
AcDbEntity
  8
OBJECT2
  6
CONTINUOUS
100
AcDbLine
 10
11.00083595076768
 20
13.37613522416579
 30
0.0
 11
11.00083595076768
 21
13.43928771384419
 31
0.0
  0
LINE
  5
8EE
330
1E
100
AcDbEntity
  8
OBJECT1
  6
CONTINUOUS
100
AcDbLine
 10
10.94096739055256
 20
13.37613522416579
 30
0.0
 11
11.01346657500833
 21
13.37613522416579
 31
0.0
  0
LINE
  5
8EF
330
1E
100
AcDbEntity
  8
OBJECT1
  6
CONTINUOUS
100
AcDbLine
 10
11.13977155436511
 20
13.37613522416579
 30
0.0
 11
11.21227023360097
 21
13.37613522416579
 31
0.0
  0
LINE
  5
8F0
330
1E
100
AcDbEntity
  8
OBJECT2
  6
CONTINUOUS
100
AcDbLine
 10
11.15240167338585
 20
13.43928771384419
 30
0.0
 11
11.15240167338585
 21
13.37613522416579
 31
0.0
  0
ARC
  5
8F1
330
1E
100
AcDbEntity
  8
OBJECT1
  6
CONTINUOUS
100
AcDbCircle
 10
11.24409883578892
 20
13.42337353905518
 30
0.0
 40
0.0159144273989545
100
AcDbArc
 50
89.99932899999995
 51
180.0
  0
LINE
  5
8F2
330
1E
100
AcDbEntity
  8
OBJECT1
  6
CONTINUOUS
100
AcDbLine
 10
11.22818466099992
 20
13.39204965156476
 30
0.0
 11
11.22818466099992
 21
13.42337353905518
 31
0.0
  0
ARC
  5
8F3
330
1E
100
AcDbEntity
  8
OBJECT1
  6
CONTINUOUS
100
AcDbCircle
 10
11.21227023360097
 20
13.39204965156476
 30
0.0
 40
0.0159144273989545
100
AcDbArc
 50
270.0002139999998
 51
0.0
  0
ARC
  5
8F4
330
1E
100
AcDbEntity
  8
OBJECT1
  6
CONTINUOUS
100
AcDbCircle
 10
11.30068397176067
 20
13.45520214124314
 30
0.0
 40
0.0159144273989545
100
AcDbArc
 50
270.0003279999998
 51
0.0
  0
LINE
  5
8F5
330
1E
100
AcDbEntity
  8
OBJECT2
100
AcDbLine
 10
12.9299880760023
 20
12.38189507014579
 30
0.0
 11
12.52593340123495
 21
12.38189507014579
 31
0.0
  0
LINE
  5
8F6
330
1E
100
AcDbEntity
  8
OBJECT2
100
AcDbLine
 10
12.51427789513218
 20
12.38131612121032
 30
0.0
 11
12.96285246370313
 21
12.36907116771046
 31
0.0
  0
LINE
  5
8F7
330
1E
100
AcDbEntity
  8
OBJECT2
100
AcDbLine
 10
12.9299880760023
 20
12.44858147166792
 30
0.0
 11
12.52593340123495
 21
12.44858147166792
 31
0.0
  0
LINE
  5
8F8
330
1E
100
AcDbEntity
  8
OBJECT2
100
AcDbLine
 10
12.5973174358309
 20
12.59184400698749
 30
0.0
 11
12.85787147252609
 21
12.59184400698749
 31
0.0
  0
LINE
  5
8F9
330
1E
100
AcDbEntity
  8
OBJECT2
100
AcDbLine
 10
12.63627494366371
 20
12.62263185614555
 30
0.0
 11
12.81891396469328
 21
12.62263185614555
 31
0.0
  0
LINE
  5
8FA
330
1E
100
AcDbEntity
  8
OBJECT1
100
AcDbLine
 10
12.50378038401112
 20
12.58329473869729
 30
0.0
 11
12.50378038401112
 21
12.44858147166792
 31
0.0
  0
LINE
  5
8FB
330
1E
100
AcDbEntity
  8
OBJECT1
100
AcDbLine
 10
12.52593340123495
 20
12.44858147166792
 30
0.0
 11
12.52593340123495
 21
12.38189507014579
 31
0.0
  0
LINE
  5
8FC
330
1E
100
AcDbEntity
  8
OBJECT1
100
AcDbLine
 10
12.52593340123495
 20
12.38189507014579
 30
0.0
 11
12.51528066410339
 21
12.38189507014579
 31
0.0
  0
LINE
  5
8FD
330
1E
100
AcDbEntity
  8
OBJECT1
100
AcDbLine
 10
12.51528066410339
 20
12.38189507014579
 30
0.0
 11
12.50417483881876
 21
12.37548311892815
 31
0.0
  0
LINE
  5
8FE
330
1E
100
AcDbEntity
  8
OBJECT1
100
AcDbLine
 10
12.51528066410339
 20
12.36907116771046
 30
0.0
 11
12.50417483881876
 21
12.37548311892815
 31
0.0
  0
LINE
  5
8FF
330
1E
100
AcDbEntity
  8
OBJECT1
100
AcDbLine
 10
12.50378038401112
 20
12.44858147166792
 30
0.0
 11
12.52593340123495
 21
12.44858147166792
 31
0.0
  0
LINE
  5
900
330
1E
100
AcDbEntity
  8
OBJECT1
100
AcDbLine
 10
12.51232965230133
 20
12.59184400698749
 30
0.0
 11
12.5973174358309
 21
12.59184400698749
 31
0.0
  0
LINE
  5
901
330
1E
100
AcDbEntity
  8
OBJECT1
100
AcDbLine
 10
12.50378038401112
 20
12.58329473869729
 30
0.0
 11
12.51232965230133
 21
12.59184400698749
 31
0.0
  0
LINE
  5
902
330
1E
100
AcDbEntity
  8
OBJECT1
100
AcDbLine
 10
12.95214109322614
 20
12.58329473869729
 30
0.0
 11
12.95214109322614
 21
12.44858147166792
 31
0.0
  0
LINE
  5
903
330
1E
100
AcDbEntity
  8
OBJECT1
100
AcDbLine
 10
12.9299880760023
 20
12.44858147166792
 30
0.0
 11
12.9299880760023
 21
12.38189507014579
 31
0.0
  0
LINE
  5
904
330
1E
100
AcDbEntity
  8
OBJECT1
100
AcDbLine
 10
12.94064081313386
 20
12.38189507014579
 30
0.0
 11
12.9299880760023
 21
12.38189507014579
 31
0.0
  0
LINE
  5
905
330
1E
100
AcDbEntity
  8
OBJECT1
100
AcDbLine
 10
12.95214109322614
 20
12.44858147166792
 30
0.0
 11
12.9299880760023
 21
12.44858147166792
 31
0.0
  0
LINE
  5
906
330
1E
100
AcDbEntity
  8
OBJECT1
100
AcDbLine
 10
12.94064081313386
 20
12.38189507014579
 30
0.0
 11
12.96285246370313
 21
12.36907116771046
 31
0.0
  0
LINE
  5
907
330
1E
100
AcDbEntity
  8
OBJECT1
100
AcDbLine
 10
12.85823775696622
 20
12.59184400698749
 30
0.0
 11
12.94359182493592
 21
12.59184400698749
 31
0.0
  0
LINE
  5
908
330
1E
100
AcDbEntity
  8
OBJECT1
100
AcDbLine
 10
12.95214109322614
 20
12.58329473869729
 30
0.0
 11
12.94359182493592
 21
12.59184400698749
 31
0.0
  0
LINE
  5
909
330
1E
100
AcDbEntity
  8
OBJECT2
100
AcDbLine
 10
12.5973174358309
 20
12.6534197053036
 30
0.0
 11
12.85787147252609
 21
12.6534197053036
 31
0.0
  0
LINE
  5
90A
330
1E
100
AcDbEntity
  8
OBJECT2
100
AcDbLine
 10
12.63627494366371
 20
12.6842078070716
 30
0.0
 11
12.81891396469328
 21
12.6842078070716
 31
0.0
  0
LINE
  5
90B
330
1E
100
AcDbEntity
  8
OBJECT2
100
AcDbLine
 10
12.59768372027103
 20
13.46984530902487
 30
0.0
 11
12.85823775696622
 21
13.46984530902487
 31
0.0
  0
LINE
  5
90C
330
1E
100
AcDbEntity
  8
OBJECT2
100
AcDbLine
 10
12.63664122810384
 20
13.50063315818291
 30
0.0
 11
12.81928024913342
 21
13.50063315818291
 31
0.0
  0
LINE
  5
90D
330
1E
100
AcDbEntity
  8
OBJECT2
100
AcDbLine
 10
12.63664122810384
 20
13.43905720725686
 30
0.0
 11
12.81928024913342
 21
13.43905720725686
 31
0.0
  0
LINE
  5
90E
330
1E
100
AcDbEntity
  8
OBJECT1
  6
CONTINUOUS
100
AcDbLine
 10
10.92923529993505
 20
14.72996166944712
 30
0.0
 11
10.99755214760937
 21
14.72996166944712
 31
0.0
  0
LINE
  5
90F
330
1E
100
AcDbEntity
  8
OBJECT2
  6
CONTINUOUS
100
AcDbLine
 10
10.80082645853712
 20
14.10112580567372
 30
0.0
 11
11.37513368401266
 21
14.10112580567372
 31
0.0
  0
LINE
  5
910
330
1E
100
AcDbEntity
  8
OBJECT2
  6
CONTINUOUS
100
AcDbLine
 10
11.33807037195526
 20
14.24368749892351
 30
0.0
 11
10.81516775741819
 21
14.24368749892351
 31
0.0
  0
LINE
  5
911
330
1E
100
AcDbEntity
  8
OBJECT2
  6
CONTINUOUS
100
AcDbLine
 10
11.32215594455631
 20
14.27526349115275
 30
0.0
 11
10.83108218481714
 21
14.27526349115275
 31
0.0
  0
LINE
  5
912
330
1E
100
AcDbEntity
  8
OBJECT2
  6
CONTINUOUS
100
AcDbLine
 10
10.70780839865994
 20
14.18953929122346
 30
0.0
 11
11.44542947810355
 21
14.18953929122346
 31
0.0
  0
LINE
  5
913
330
1E
100
AcDbEntity
  8
OBJECT2
  6
CONTINUOUS
100
AcDbLine
 10
10.75938112152593
 20
14.21211125408432
 30
0.0
 11
11.39267125670132
 21
14.21211100147436
 31
0.0
  0
LINE
  5
914
330
1E
100
AcDbEntity
  8
OBJECT2
  6
CONTINUOUS
100
AcDbLine
 10
11.38732704041478
 20
14.20902562343863
 30
0.0
 11
10.76591108895867
 21
14.20216978915914
 31
0.0
  0
LINE
  5
915
330
1E
100
AcDbEntity
  8
OBJECT2
  6
CONTINUOUS
100
AcDbLine
 10
11.39920147674403
 20
14.20216978915914
 30
0.0
 11
10.76591108895867
 21
14.20216978915914
 31
0.0
  0
LINE
  5
916
330
1E
100
AcDbEntity
  8
OBJECT2
  6
CONTINUOUS
100
AcDbLine
 10
10.86284915017516
 20
14.41419922105518
 30
0.0
 11
11.29038897919828
 21
14.41419922105518
 31
0.0
  0
LINE
  5
917
330
1E
100
AcDbEntity
  8
OBJECT2
  6
CONTINUOUS
100
AcDbLine
 10
10.9482738809984
 20
13.75449138900747
 30
0.0
 11
10.86544080204659
 21
13.73326356373693
 31
0.0
  0
LINE
  5
918
330
1E
100
AcDbEntity
  8
OBJECT2
  6
CONTINUOUS
100
AcDbLine
 10
10.87851968265898
 20
13.72477233258474
 30
0.0
 11
10.9482738809984
 21
13.75449138900747
 31
0.0
  0
LINE
  5
919
330
1E
100
AcDbEntity
  8
OBJECT1
  6
CONTINUOUS
100
AcDbLine
 10
10.87872492825043
 20
14.42900241724574
 30
0.0
 11
10.89773610113326
 21
14.70059020432758
 31
0.0
  0
LINE
  5
91A
330
1E
100
AcDbEntity
  8
OBJECT1
100
AcDbLine
 10
9.653649737079931
 20
14.05065389038415
 30
0.0
 11
9.549306755554304
 21
14.05065389038415
 31
0.0
  0
ARC
  5
91B
330
1E
100
AcDbEntity
  8
OBJECT2
100
AcDbCircle
 10
9.538188941651949
 20
13.86509913623268
 30
0.0
 40
0.1751728140930096
100
AcDbArc
 50
182.3046557628443
 51
287.9205004415497
  0
LINE
  5
91C
330
1E
100
AcDbEntity
  8
OBJECT1
100
AcDbLine
 10
8.931622032819538
 20
14.01464061824381
 30
0.0
 11
8.599404615629353
 21
14.01464061824381
 31
0.0
  0
LINE
  5
91D
330
1E
100
AcDbEntity
  8
OBJECT1
100
AcDbLine
 10
8.931622032819538
 20
13.75420000342008
 30
0.0
 11
8.599420517550072
 21
13.75420000342008
 31
0.0
  0
LINE
  5
91E
330
1E
100
AcDbEntity
  8
OBJECT2
100
AcDbLine
 10
8.498360126924012
 20
14.04533323344743
 30
0.0
 11
8.498360126924012
 21
13.72350764082644
 31
0.0
  0
LINE
  5
91F
330
1E
100
AcDbEntity
  8
OBJECT2
100
AcDbLine
 10
8.687198954170295
 20
13.79267780494129
 30
0.0
 11
8.687198954170295
 21
13.97531682597086
 31
0.0
  0
LINE
  5
920
330
1E
100
AcDbEntity
  8
OBJECT2
100
AcDbLine
 10
8.625623003244239
 20
13.79267780494129
 30
0.0
 11
8.625623003244239
 21
13.97531682597086
 31
0.0
  0
LINE
  5
921
330
1E
100
AcDbEntity
  8
OBJECT2
100
AcDbLine
 10
8.656411105012246
 20
13.75372029710848
 30
0.0
 11
8.656411105012246
 21
14.01427433380367
 31
0.0
  0
LINE
  5
922
330
1E
100
AcDbEntity
  8
OBJECT2
100
AcDbLine
 10
8.599404615629353
 20
14.01464061824381
 30
0.0
 11
8.599404615629353
 21
13.75372029710848
 31
0.0
  0
LINE
  5
923
330
1E
100
AcDbEntity
  8
OBJECT2
100
AcDbLine
 10
8.843827694278594
 20
13.79267780494129
 30
0.0
 11
8.843827694278594
 21
13.97531682597086
 31
0.0
  0
LINE
  5
924
330
1E
100
AcDbEntity
  8
OBJECT2
100
AcDbLine
 10
8.874615543436647
 20
13.75372029710848
 30
0.0
 11
8.874615543436647
 21
14.01427433380367
 31
0.0
  0
LINE
  5
925
330
1E
100
AcDbEntity
  8
OBJECT1
100
AcDbLine
 10
8.514274554322966
 20
13.70759321342748
 30
0.0
 11
8.583490188230399
 21
13.70759321342748
 31
0.0
  0
LINE
  5
926
330
1E
100
AcDbEntity
  8
OBJECT1
100
AcDbLine
 10
8.397315890828625
 20
13.64190148844409
 30
0.0
 11
8.397315890828625
 21
13.66578702309027
 31
0.0
  0
LINE
  5
927
330
1E
100
AcDbEntity
  8
OBJECT1
100
AcDbLine
 10
8.418605352929089
 20
13.54276597319675
 30
0.0
 11
8.418605352929089
 21
13.6119808492743
 31
0.0
  0
LINE
  5
928
330
1E
100
AcDbEntity
  8
OBJECT1
100
AcDbLine
 10
8.372055147567232
 20
13.52685179840776
 30
0.0
 11
8.402690925530137
 21
13.52685179840776
 31
0.0
  0
ARC
  5
929
330
1E
100
AcDbEntity
  8
OBJECT1
100
AcDbCircle
 10
8.402691430750051
 20
13.54276546797684
 30
0.0
 40
0.0159136695690784
100
AcDbArc
 50
269.9982679999999
 51
0.0026089999999966
  0
ARC
  5
92A
330
1E
100
AcDbEntity
  8
OBJECT1
100
AcDbCircle
 10
8.402693451629723
 20
13.61198236493406
 30
0.0
 40
0.0159124065192848
100
AcDbArc
 50
359.9943539999999
 51
70.88461300000005
  0
ARC
  5
92B
330
1E
100
AcDbEntity
  8
OBJECT1
100
AcDbCircle
 10
8.413229307787744
 20
13.6420128894359
 30
0.0
 40
0.0159131643491609
100
AcDbArc
 50
179.9986879999999
 51
250.6671139999998
  0
ARC
  5
92C
330
1E
100
AcDbEntity
  8
OBJECT1
100
AcDbCircle
 10
8.514275564762805
 20
13.72350865126627
 30
0.0
 40
0.0159154378387894
100
AcDbArc
 50
199.235529
 51
269.9965359999998
  0
LINE
  5
92D
330
1E
100
AcDbEntity
  8
OBJECT1
100
AcDbLine
 10
8.484319054978879
 20
13.72893951276865
 30
0.0
 11
8.460468380507016
 21
13.72893951276865
 31
0.0
  0
ARC
  5
92E
330
1E
100
AcDbEntity
  8
OBJECT1
100
AcDbCircle
 10
8.484220789704938
 20
13.71302432753981
 30
0.0
 40
0.0159149326188719
100
AcDbArc
 50
19.230621
 51
89.99652099999996
  0
ARC
  5
92F
330
1E
100
AcDbEntity
  8
OBJECT1
100
AcDbCircle
 10
8.4604678752871
 20
13.66578752831018
 30
0.0
 40
0.0631519844584734
100
AcDbArc
 50
89.99957300000001
 51
180.000437
  0
LINE
  5
930
330
1E
100
AcDbEntity
  8
OBJECT1
100
AcDbLine
 10
8.599404615629353
 20
13.75420000342008
 30
0.0
 11
8.599404615629353
 21
13.72350764082644
 31
0.0
  0
ARC
  5
931
330
1E
100
AcDbEntity
  8
OBJECT1
100
AcDbCircle
 10
8.583490188230399
 20
13.72350738821648
 30
0.0
 40
0.0159141747889958
100
AcDbArc
 50
270.0
 51
0.0008700000000639
  0
LINE
  5
932
330
1E
100
AcDbEntity
  8
OBJECT1
100
AcDbLine
 10
8.514274554322966
 20
14.06124740823642
 30
0.0
 11
8.583490188230399
 21
14.06124740823642
 31
0.0
  0
ARC
  5
933
330
1E
100
AcDbEntity
  8
OBJECT1
100
AcDbCircle
 10
8.514275564762805
 20
14.04533222300759
 30
0.0
 40
0.0159154378387894
100
AcDbArc
 50
90.00347900000004
 51
160.7650759999999
  0
LINE
  5
934
330
1E
100
AcDbEntity
  8
OBJECT1
100
AcDbLine
 10
8.484319054978879
 20
14.03990110889526
 30
0.0
 11
8.465155305680989
 21
14.03990110889526
 31
0.0
  0
ARC
  5
935
330
1E
100
AcDbEntity
  8
OBJECT1
100
AcDbCircle
 10
8.484220789704938
 20
14.05581578890417
 30
0.0
 40
0.0159146800089132
100
AcDbArc
 50
270.0034640000001
 51
340.7708129999999
  0
LINE
  5
936
330
1E
100
AcDbEntity
  8
OBJECT1
100
AcDbLine
 10
8.599404615629353
 20
14.01464061824381
 30
0.0
 11
8.599404615629353
 21
14.04533323344743
 31
0.0
  0
ARC
  5
937
330
1E
100
AcDbEntity
  8
OBJECT1
100
AcDbCircle
 10
8.583490693450317
 20
14.04533348605738
 30
0.0
 40
0.0159139221790371
100
AcDbArc
 50
359.9987029999999
 51
90.00173999999992
  0
LINE
  5
938
330
1E
100
AcDbEntity
  8
OBJECT2
100
AcDbLine
 10
9.363157819753658
 20
13.85805490708464
 30
0.0
 11
9.138557976275041
 21
13.63345507057277
 31
0.0
  0
LINE
  5
939
330
1E
100
AcDbEntity
  8
OBJECT2
100
AcDbLine
 10
8.905403645204659
 20
13.79267780494129
 30
0.0
 11
8.905403645204659
 21
13.97531682597086
 31
0.0
  0
LINE
  5
93A
330
1E
100
AcDbEntity
  8
OBJECT2
100
AcDbLine
 10
8.931622032819538
 20
14.01464061824381
 30
0.0
 11
8.931622032819538
 21
13.75420000342008
 31
0.0
  0
LINE
  5
93B
330
1E
100
AcDbEntity
  8
OBJECT2
100
AcDbLine
 10
8.941206021820264
 20
13.79551429296521
 30
0.0
 11
8.931622032819538
 21
13.83709246658928
 31
0.0
  0
LINE
  5
93C
330
1E
100
AcDbEntity
  8
OBJECT2
100
AcDbLine
 10
9.033119229089646
 20
13.79551429296521
 30
0.0
 11
9.04270321809037
 21
13.83709246658928
 31
0.0
  0
LINE
  5
93D
330
1E
100
AcDbEntity
  8
OBJECT1
100
AcDbLine
 10
9.124410991867899
 20
13.64287196441461
 30
0.0
 11
9.072487080278815
 21
13.69479587623866
 31
0.0
  0
ARC
  5
93E
330
1E
100
AcDbEntity
  8
OBJECT1
100
AcDbCircle
 10
9.140020951506883
 20
13.61211118020599
 30
0.0
 40
0.0166621777906245
100
AcDbArc
 50
145.2833265231431
 51
224.9999999999993
  0
ARC
  5
93F
330
1E
100
AcDbEntity
  8
OBJECT1
100
AcDbCircle
 10
9.112629052962811
 20
13.63109002550953
 30
0.0
 40
0.0166621777906245
100
AcDbArc
 50
325.2833265231421
 51
45.00000000000017
  0
ARC
  5
940
330
1E
100
AcDbEntity
  8
OBJECT1
100
AcDbCircle
 10
9.043032233016102
 20
13.66534102897595
 30
0.0
 40
0.0416554444765613
100
AcDbArc
 50
45.00000000000015
 51
90.0
  0
LINE
  5
941
330
1E
100
AcDbEntity
  8
OBJECT2
100
AcDbLine
 10
9.033119229089646
 20
13.79551429296521
 30
0.0
 11
8.941206021820264
 21
13.79551429296521
 31
0.0
  0
LINE
  5
942
330
1E
100
AcDbEntity
  8
OBJECT2
100
AcDbLine
 10
9.033119229089646
 20
13.79551429296521
 30
0.0
 11
9.04270321809037
 21
13.76820590057035
 31
0.0
  0
LINE
  5
943
330
1E
100
AcDbEntity
  8
OBJECT1
100
AcDbLine
 10
8.931622032819538
 20
13.75420000342008
 30
0.0
 11
8.931622032819538
 21
13.70699647345252
 31
0.0
  0
LINE
  5
944
330
1E
100
AcDbEntity
  8
OBJECT1
100
AcDbLine
 10
8.931622032819538
 20
13.70699647345252
 30
0.0
 11
9.043032233016102
 21
13.70699647345252
 31
0.0
  0
LINE
  5
945
330
1E
100
AcDbEntity
  8
OBJECT2
100
AcDbLine
 10
8.941206021820264
 20
13.79551429296521
 30
0.0
 11
8.931622032819538
 21
13.76820590057035
 31
0.0
  0
LINE
  5
946
330
1E
100
AcDbEntity
  8
OBJECT2
100
AcDbLine
 10
9.32853991297099
 20
13.90366867731971
 30
0.0
 11
9.205955894008695
 21
14.02625269601953
 31
0.0
  0
LINE
  5
947
330
1E
100
AcDbEntity
  8
OBJECT1
100
AcDbLine
 10
9.549306755554304
 20
14.05065389038415
 30
0.0
 11
9.147046199546331
 21
14.05065389038415
 31
0.0
  0
LINE
  5
948
330
1E
100
AcDbEntity
  8
OBJECT2
100
AcDbLine
 10
8.941206021820264
 20
13.97254993199059
 30
0.0
 11
8.931622032819538
 21
13.93097175836651
 31
0.0
  0
LINE
  5
949
330
1E
100
AcDbEntity
  8
OBJECT2
100
AcDbLine
 10
9.033119229089646
 20
13.97254993199059
 30
0.0
 11
9.04270321809037
 21
13.93097175836651
 31
0.0
  0
LINE
  5
94A
330
1E
100
AcDbEntity
  8
OBJECT1
100
AcDbLine
 10
9.147046199546331
 20
14.05065389038415
 30
0.0
 11
9.04270321809037
 21
14.05065389038415
 31
0.0
  0
LINE
  5
94B
330
1E
100
AcDbEntity
  8
OBJECT2
100
AcDbLine
 10
9.033119229089646
 20
13.97254993199059
 30
0.0
 11
8.941206021820264
 21
13.97254993199059
 31
0.0
  0
LINE
  5
94C
330
1E
100
AcDbEntity
  8
OBJECT2
100
AcDbLine
 10
9.033119229089646
 20
13.97254993199059
 30
0.0
 11
9.04270321809037
 21
13.99985832438544
 31
0.0
  0
LINE
  5
94D
330
1E
100
AcDbEntity
  8
OBJECT1
100
AcDbLine
 10
9.04270321809037
 20
14.05065389038415
 30
0.0
 11
9.033918043953137
 21
14.06106775150329
 31
0.0
  0
LINE
  5
94E
330
1E
100
AcDbEntity
  8
OBJECT1
100
AcDbLine
 10
8.931622032819538
 20
14.06106775150329
 30
0.0
 11
8.931622032819538
 21
14.01464061824381
 31
0.0
  0
LINE
  5
94F
330
1E
100
AcDbEntity
  8
OBJECT1
100
AcDbLine
 10
8.931622032819538
 20
14.06106775150329
 30
0.0
 11
9.033918043953137
 21
14.06106775150329
 31
0.0
  0
LINE
  5
950
330
1E
100
AcDbEntity
  8
OBJECT2
100
AcDbLine
 10
8.941206021820264
 20
13.97254993199059
 30
0.0
 11
8.931622032819538
 21
13.99985832438544
 31
0.0
  0
ARC
  5
951
330
1E
100
AcDbEntity
  8
OBJECT2
100
AcDbCircle
 10
9.147046199546331
 20
13.96734300143103
 30
0.0
 40
0.0833108889531227
100
AcDbArc
 50
45.00000006134134
 51
90.0
  0
LINE
  5
952
330
1E
100
AcDbEntity
  8
OBJECT2
100
AcDbLine
 10
9.367813042654606
 20
13.90366867731971
 30
0.0
 11
9.490397060965808
 21
14.02625269589339
 31
0.0
  0
ARC
  5
953
330
1E
100
AcDbEntity
  8
OBJECT2
100
AcDbCircle
 10
9.348176477812797
 20
13.92330524216152
 30
0.0
 40
0.0277702963177076
100
AcDbArc
 50
225.0
 51
314.9999999999998
  0
ARC
  5
954
330
1E
100
AcDbEntity
  8
OBJECT2
100
AcDbCircle
 10
9.549306755554304
 20
13.96734300143103
 30
0.0
 40
0.0833108889531227
100
AcDbArc
 50
90.0
 51
135.0000000613411
  0
LINE
  5
955
330
1E
100
AcDbEntity
  8
OBJECT2
  6
CONTINUOUS
100
AcDbLine
 10
10.62386560415951
 20
13.66663667668639
 30
0.0
 11
10.63283376291376
 21
14.10238936068719
 31
0.0
  0
LINE
  5
956
330
1E
100
AcDbEntity
  8
OBJECT2
100
AcDbLine
 10
10.61489769801521
 20
14.10238936068719
 30
0.0
 11
10.61489769801521
 21
13.68216966304769
 31
0.0
  0
ARC
  5
957
330
1E
100
AcDbEntity
  8
OBJECT1
  6
CONTINUOUS
100
AcDbCircle
 10
10.68254765539854
 20
14.10870385182517
 30
0.0
 40
0.0252607432613976
100
AcDbArc
 50
269.9994349999999
 51
0.0002749999999943
  0
LINE
  5
958
330
1E
100
AcDbEntity
  8
OBJECT1
  6
CONTINUOUS
100
AcDbLine
 10
10.61489769801521
 20
14.10238936068719
 30
0.0
 11
10.62386560415951
 21
14.08685637432591
 31
0.0
  0
LINE
  5
959
330
1E
100
AcDbEntity
  8
OBJECT1
  6
CONTINUOUS
100
AcDbLine
 10
10.62386560415951
 20
14.08685637432591
 30
0.0
 11
10.63283376291376
 21
14.10238936068719
 31
0.0
  0
LINE
  5
95A
330
1E
100
AcDbEntity
  8
OBJECT1
  6
CONTINUOUS
100
AcDbLine
 10
10.63283376291376
 20
14.10238936068719
 30
0.0
 11
10.64180166905805
 21
14.08685637432591
 31
0.0
  0
LWPOLYLINE
  5
95B
330
1E
100
AcDbEntity
  8
OBJECT1
  6
CONTINUOUS
100
AcDbPolyline
 90
        2
 70
     0
 43
0.0
 10
10.43876093207707
 20
14.12809199259481
 10
10.43876093207707
 20
14.06700344025886
  0
LINE
  5
95C
330
1E
100
AcDbEntity
  8
OBJECT1
100
AcDbLine
 10
10.31094765806209
 20
14.01464061824381
 30
0.0
 11
9.764730922350764
 21
14.01464061824381
 31
0.0
  0
LINE
  5
95D
330
1E
100
AcDbEntity
  8
OBJECT1
100
AcDbLine
 10
10.31094765806209
 20
13.75420000342008
 30
0.0
 11
9.764730922350764
 21
13.75420000342008
 31
0.0
  0
LINE
  5
95E
330
1E
100
AcDbEntity
  8
OBJECT2
100
AcDbLine
 10
9.852525260891708
 20
13.79304434199139
 30
0.0
 11
9.852525260891708
 21
13.97568311041101
 31
0.0
  0
LINE
  5
95F
330
1E
100
AcDbEntity
  8
OBJECT2
100
AcDbLine
 10
9.790949309965645
 20
13.79304434199139
 30
0.0
 11
9.790949309965645
 21
13.97568311041101
 31
0.0
  0
LINE
  5
960
330
1E
100
AcDbEntity
  8
OBJECT2
100
AcDbLine
 10
9.821737411733653
 20
13.75408658154863
 30
0.0
 11
9.821737411733653
 21
14.01464061824381
 31
0.0
  0
LINE
  5
961
330
1E
100
AcDbEntity
  8
OBJECT2
100
AcDbLine
 10
10.22315331952115
 20
13.79304434199139
 30
0.0
 11
10.22315331952115
 21
13.97568311041101
 31
0.0
  0
LINE
  5
962
330
1E
100
AcDbEntity
  8
OBJECT2
100
AcDbLine
 10
9.764730922350764
 20
13.75408658154863
 30
0.0
 11
9.764730922350764
 21
14.01464061824381
 31
0.0
  0
LINE
  5
963
330
1E
100
AcDbEntity
  8
OBJECT2
100
AcDbLine
 10
9.75514693335004
 20
13.79551429296521
 30
0.0
 11
9.764730922350764
 21
13.83709246658928
 31
0.0
  0
LINE
  5
964
330
1E
100
AcDbEntity
  8
OBJECT2
100
AcDbLine
 10
9.66323372608066
 20
13.79551429296521
 30
0.0
 11
9.653649737079931
 21
13.83709246658928
 31
0.0
  0
LINE
  5
965
330
1E
100
AcDbEntity
  8
OBJECT1
100
AcDbLine
 10
9.62251033887221
 20
13.67060915423257
 30
0.0
 11
9.681420033397643
 21
13.61169945970712
 31
0.0
  0
LINE
  5
966
330
1E
100
AcDbEntity
  8
OBJECT1
100
AcDbLine
 10
9.671999054844608
 20
13.60227848115408
 30
0.0
 11
9.681420033397643
 21
13.61169945970712
 31
0.0
  0
LINE
  5
967
330
1E
100
AcDbEntity
  8
OBJECT1
100
AcDbLine
 10
9.671999054844608
 20
13.60227848115408
 30
0.0
 11
9.705525799632948
 21
13.56875173636575
 31
0.0
  0
LINE
  5
968
330
1E
100
AcDbEntity
  8
OBJECT1
100
AcDbLine
 10
9.764730922350764
 20
13.70699647345252
 30
0.0
 11
9.604917309021562
 21
13.70699647345252
 31
0.0
  0
LINE
  5
969
330
1E
100
AcDbEntity
  8
OBJECT2
100
AcDbLine
 10
9.66323372608066
 20
13.79551429296521
 30
0.0
 11
9.75514693335004
 21
13.79551429296521
 31
0.0
  0
LINE
  5
96A
330
1E
100
AcDbEntity
  8
OBJECT2
100
AcDbLine
 10
9.66323372608066
 20
13.79551429296521
 30
0.0
 11
9.653649737079931
 21
13.76820590057035
 31
0.0
  0
LINE
  5
96B
330
1E
100
AcDbEntity
  8
OBJECT1
100
AcDbLine
 10
9.615146627056532
 20
13.66324544241687
 30
0.0
 11
9.622510338872213
 21
13.67060915423255
 31
0.0
  0
ARC
  5
96C
330
1E
100
AcDbEntity
  8
OBJECT1
100
AcDbCircle
 10
9.604917309021562
 20
13.69311132529366
 30
0.0
 40
0.0138851481588538
100
AcDbArc
 50
90.0
 51
225.0
  0
LINE
  5
96D
330
1E
100
AcDbEntity
  8
OBJECT1
100
AcDbLine
 10
9.615146627056532
 20
13.66324544241687
 30
0.0
 11
9.595099026600657
 21
13.68329304287275
 31
0.0
  0
LINE
  5
96E
330
1E
100
AcDbEntity
  8
OBJECT2
100
AcDbLine
 10
9.75514693335004
 20
13.79551429296521
 30
0.0
 11
9.764730922350764
 21
13.76820590057035
 31
0.0
  0
LINE
  5
96F
330
1E
100
AcDbEntity
  8
OBJECT1
100
AcDbLine
 10
9.764730922350764
 20
13.75420000342008
 30
0.0
 11
9.764730922350764
 21
13.70699647345252
 31
0.0
  0
LINE
  5
970
330
1E
100
AcDbEntity
  8
OBJECT2
100
AcDbLine
 10
9.75514693335004
 20
13.97254993199059
 30
0.0
 11
9.764730922350764
 21
13.93097175836651
 31
0.0
  0
LINE
  5
971
330
1E
100
AcDbEntity
  8
OBJECT2
100
AcDbLine
 10
9.66323372608066
 20
13.97254993199059
 30
0.0
 11
9.653649737079931
 21
13.93097175836651
 31
0.0
  0
LINE
  5
972
330
1E
100
AcDbEntity
  8
OBJECT2
100
AcDbLine
 10
9.66323372608066
 20
13.97254993199059
 30
0.0
 11
9.75514693335004
 21
13.97254993199059
 31
0.0
  0
LINE
  5
973
330
1E
100
AcDbEntity
  8
OBJECT1
100
AcDbLine
 10
9.764730922350764
 20
14.06106775150329
 30
0.0
 11
9.662434911217165
 21
14.06106775150329
 31
0.0
  0
LINE
  5
974
330
1E
100
AcDbEntity
  8
OBJECT2
100
AcDbLine
 10
9.66323372608066
 20
13.97254993199059
 30
0.0
 11
9.653649737079931
 21
13.99985832438544
 31
0.0
  0
LINE
  5
975
330
1E
100
AcDbEntity
  8
OBJECT1
100
AcDbLine
 10
9.653649737079931
 20
14.05065389038415
 30
0.0
 11
9.662434911217165
 21
14.06106775150329
 31
0.0
  0
LINE
  5
976
330
1E
100
AcDbEntity
  8
OBJECT2
100
AcDbLine
 10
9.75514693335004
 20
13.97254993199059
 30
0.0
 11
9.764730922350764
 21
13.99985832438544
 31
0.0
  0
LINE
  5
977
330
1E
100
AcDbEntity
  8
OBJECT1
100
AcDbLine
 10
9.764730922350764
 20
14.06106775150329
 30
0.0
 11
9.764730922350764
 21
14.01464061824381
 31
0.0
  0
LWPOLYLINE
  5
978
330
1E
100
AcDbEntity
  8
OBJECT2
  6
CONTINUOUS
100
AcDbPolyline
 90
        2
 70
     0
 43
0.0
 10
10.59597867844418
 20
13.74512568734161
 10
10.61489769801521
 20
13.83567318623548
  0
LINE
  5
979
330
1E
100
AcDbEntity
  8
OBJECT2
  6
CONTINUOUS
100
AcDbLine
 10
10.64180166905805
 20
14.08685637432591
 30
0.0
 11
10.63283376291376
 21
13.68216966304769
 31
0.0
  0
LINE
  5
97A
330
1E
100
AcDbEntity
  8
OBJECT2
  6
CONTINUOUS
100
AcDbLine
 10
10.62386560415951
 20
14.08685637432591
 30
0.0
 11
10.61489769801521
 21
13.68216966304769
 31
0.0
  0
LINE
  5
97B
330
1E
100
AcDbEntity
  8
OBJECT2
  6
CONTINUOUS
100
AcDbLine
 10
10.63862535143718
 20
13.67213801636726
 30
0.0
 11
10.64468824305626
 21
13.84082943113642
 31
0.0
  0
LINE
  5
97C
330
1E
100
AcDbEntity
  8
OBJECT2
100
AcDbLine
 10
10.2539411686792
 20
13.75408658154863
 30
0.0
 11
10.2539411686792
 21
14.01464061824381
 31
0.0
  0
LINE
  5
97D
330
1E
100
AcDbEntity
  8
OBJECT2
100
AcDbLine
 10
10.31094765806209
 20
13.75408658154863
 30
0.0
 11
10.31094765806209
 21
14.01464061824381
 31
0.0
  0
LINE
  5
97E
330
1E
100
AcDbEntity
  8
OBJECT2
100
AcDbLine
 10
10.43876093207708
 20
14.06700344025887
 30
0.0
 11
10.43876093207708
 21
13.70202259711473
 31
0.0
  0
LINE
  5
97F
330
1E
100
AcDbEntity
  8
OBJECT2
100
AcDbLine
 10
10.28472927044721
 20
13.79304434199139
 30
0.0
 11
10.28472927044721
 21
13.97568311041101
 31
0.0
  0
LWPOLYLINE
  5
980
330
1E
100
AcDbEntity
  8
OBJECT2
  6
CONTINUOUS
100
AcDbPolyline
 90
        2
 70
     0
 43
0.0
 10
10.45767995164811
 20
13.74512568734161
 10
10.43876093207707
 20
13.83567318623548
  0
LWPOLYLINE
  5
981
330
1E
100
AcDbEntity
  8
OBJECT2
  6
CONTINUOUS
100
AcDbPolyline
 90
        2
 70
     0
 43
0.0
 10
10.59597867844418
 20
13.74512568734161
 10
10.45767995164811
 20
13.74512568734161
  0
LWPOLYLINE
  5
982
330
1E
100
AcDbEntity
  8
OBJECT1
  6
CONTINUOUS
100
AcDbPolyline
 90
        2
 70
     0
 43
0.0
 10
10.59597867844418
 20
13.60589340308356
 10
10.45767995164811
 20
13.60589340308356
  0
LWPOLYLINE
  5
983
330
1E
100
AcDbEntity
  8
OBJECT1
  6
CONTINUOUS
100
AcDbPolyline
 90
        2
 70
     0
 43
0.0
 10
10.43876093207707
 20
13.70202259711472
 10
10.43876093207707
 20
13.64124413895309
  0
LWPOLYLINE
  5
984
330
1E
100
AcDbEntity
  8
OBJECT1
  6
CONTINUOUS
100
AcDbPolyline
 90
        2
 70
     0
 43
0.0
 10
10.45767995164811
 20
13.60589340308356
 10
10.43876093207707
 20
13.64124413895309
  0
LWPOLYLINE
  5
985
330
1E
100
AcDbEntity
  8
OBJECT1
  6
CONTINUOUS
100
AcDbPolyline
 90
        2
 70
     0
 43
0.0
 10
10.43876093207707
 20
13.70202259711472
 10
10.31838991824515
 20
13.70202259711472
  0
LWPOLYLINE
  5
986
330
1E
100
AcDbEntity
  8
OBJECT1
  6
CONTINUOUS
100
AcDbPolyline
 90
        2
 70
     0
 43
0.0
 10
10.31094765806209
 20
13.70915476312348
 10
10.31094765806209
 20
13.75423587403422
  0
LWPOLYLINE
  5
987
330
1E
100
AcDbEntity
  8
OBJECT1
  6
CONTINUOUS
100
AcDbPolyline
 90
        2
 70
     0
 43
0.0
 10
10.31838991824515
 20
13.70202259711472
 10
10.31094765806209
 20
13.70915476312348
  0
LWPOLYLINE
  5
988
330
1E
100
AcDbEntity
  8
OBJECT2
  6
CONTINUOUS
100
AcDbPolyline
 90
        2
 70
     0
 43
0.0
 10
10.45767995164811
 20
13.74512568734161
 10
10.43876093207707
 20
13.67969581656555
  0
LWPOLYLINE
  5
989
330
1E
100
AcDbEntity
  8
OBJECT1
  6
CONTINUOUS
100
AcDbPolyline
 90
        2
 70
     0
 43
0.0
 10
10.61489769801521
 20
13.68216966304769
 10
10.61489769801521
 20
13.64124413895309
  0
LWPOLYLINE
  5
98A
330
1E
100
AcDbEntity
  8
OBJECT1
  6
CONTINUOUS
100
AcDbPolyline
 90
        2
 70
     0
 43
0.0
 10
10.59597867844418
 20
13.60589340308356
 10
10.61489769801521
 20
13.64124413895309
  0
LINE
  5
98B
330
1E
100
AcDbEntity
  8
OBJECT1
  6
CONTINUOUS
100
AcDbLine
 10
10.65866136292251
 20
13.68558242358991
 30
0.0
 11
10.82148288008105
 21
13.68558242358991
 31
0.0
  0
LINE
  5
98C
330
1E
100
AcDbEntity
  8
OBJECT1
  6
CONTINUOUS
100
AcDbLine
 10
10.61489769801521
 20
13.68216966304769
 30
0.0
 11
10.62386560415951
 21
13.66663667668639
 31
0.0
  0
LINE
  5
98D
330
1E
100
AcDbEntity
  8
OBJECT1
  6
CONTINUOUS
100
AcDbLine
 10
10.64740859970165
 20
13.68092126463172
 30
0.0
 11
10.63862535143718
 21
13.67213801636726
 31
0.0
  0
LINE
  5
98E
330
1E
100
AcDbEntity
  8
OBJECT1
  6
CONTINUOUS
100
AcDbLine
 10
10.63283376291376
 20
13.68216966304769
 30
0.0
 11
10.63862535143718
 21
13.67213801636726
 31
0.0
  0
LINE
  5
98F
330
1E
100
AcDbEntity
  8
OBJECT1
  6
CONTINUOUS
100
AcDbLine
 10
10.62386560415951
 20
13.66663667668639
 30
0.0
 11
10.63283376291376
 21
13.68216966304769
 31
0.0
  0
ARC
  5
990
330
1E
100
AcDbEntity
  8
OBJECT1
  6
CONTINUOUS
100
AcDbCircle
 10
10.65866111031255
 20
13.66966951185071
 30
0.0
 40
0.0159129117392022
100
AcDbArc
 50
89.99896200000007
 51
135.001709
  0
LWPOLYLINE
  5
991
330
1E
100
AcDbEntity
  8
OBJECT2
  6
CONTINUOUS
100
AcDbPolyline
 90
        2
 70
     0
 43
0.0
 10
10.59597867844418
 20
13.74512568734161
 10
10.61489769801521
 20
13.67969581656555
  0
LINE
  5
992
330
1E
100
AcDbEntity
  8
OBJECT2
  6
CONTINUOUS
100
AcDbLine
 10
10.86544080204659
 20
13.73326356373693
 30
0.0
 11
10.81748507487445
 21
13.69929863912814
 31
0.0
  0
LINE
  5
993
330
1E
100
AcDbEntity
  8
OBJECT2
  6
CONTINUOUS
100
AcDbLine
 10
10.84800212615676
 20
13.69080766058589
 30
0.0
 11
10.87851968265898
 21
13.72477233258474
 31
0.0
  0
ARC
  5
994
330
1E
100
AcDbEntity
  8
OBJECT1
  6
CONTINUOUS
100
AcDbCircle
 10
10.821483132691
 20
13.6704258260671
 30
0.0
 40
0.0151563449128551
100
AcDbArc
 50
359.9990839999999
 51
90.00140400000011
  0
LWPOLYLINE
  5
995
330
1E
100
AcDbEntity
  8
OBJECT2
  6
CONTINUOUS
100
AcDbPolyline
 90
        2
 70
     0
 43
0.0
 10
10.59597867844418
 20
14.02390035003199
 10
10.45767995164811
 20
14.02390035003199
  0
LWPOLYLINE
  5
996
330
1E
100
AcDbEntity
  8
OBJECT2
  6
CONTINUOUS
100
AcDbPolyline
 90
        2
 70
     0
 43
0.0
 10
10.45767995164811
 20
14.02390035003199
 10
10.43876093207707
 20
13.93366294531242
  0
LWPOLYLINE
  5
997
330
1E
100
AcDbEntity
  8
OBJECT1
  6
CONTINUOUS
100
AcDbPolyline
 90
        2
 70
     0
 43
0.0
 10
10.31838991824515
 20
14.06700344025886
 10
10.43876093207707
 20
14.06700344025886
  0
LWPOLYLINE
  5
998
330
1E
100
AcDbEntity
  8
OBJECT1
  6
CONTINUOUS
100
AcDbPolyline
 90
        2
 70
     0
 43
0.0
 10
10.31094765806209
 20
14.0598712742501
 10
10.31838991824515
 20
14.06700344025886
  0
LWPOLYLINE
  5
999
330
1E
100
AcDbEntity
  8
OBJECT1
  6
CONTINUOUS
100
AcDbPolyline
 90
        2
 70
     0
 43
0.0
 10
10.31094765806209
 20
14.01479016333938
 10
10.31094765806209
 20
14.0598712742501
  0
LWPOLYLINE
  5
99A
330
1E
100
AcDbEntity
  8
OBJECT2
  6
CONTINUOUS
100
AcDbPolyline
 90
        2
 70
     0
 43
0.0
 10
10.45767995164811
 20
14.02390035003199
 10
10.43876093207707
 20
14.08933022080804
  0
LWPOLYLINE
  5
99B
330
1E
100
AcDbEntity
  8
OBJECT2
  6
CONTINUOUS
100
AcDbPolyline
 90
        2
 70
     0
 43
0.0
 10
10.59597867844418
 20
14.02390035003199
 10
10.61489769801521
 20
13.93366294531242
  0
LINE
  5
99C
330
1E
100
AcDbEntity
  8
OBJECT2
  6
CONTINUOUS
100
AcDbLine
 10
10.7650720449808
 20
13.87783426398837
 30
0.0
 11
10.74836896929074
 21
13.85917901853737
 31
0.0
  0
LINE
  5
99D
330
1E
100
AcDbEntity
  8
OBJECT2
  6
CONTINUOUS
100
AcDbLine
 10
10.76507229759076
 20
13.89119177338522
 30
0.0
 11
10.74836896929074
 21
13.90984676622627
 31
0.0
  0
LINE
  5
99E
330
1E
100
AcDbEntity
  8
OBJECT2
  6
CONTINUOUS
100
AcDbLine
 10
10.67884540384364
 20
13.85917901853737
 30
0.0
 11
10.7136169120506
 21
13.88451276607684
 31
0.0
  0
LINE
  5
99F
330
1E
100
AcDbEntity
  8
OBJECT2
  6
CONTINUOUS
100
AcDbLine
 10
10.74836896929074
 20
13.85917901853737
 30
0.0
 11
10.67884540384364
 21
13.85917901853737
 31
0.0
  0
LINE
  5
9A0
330
1E
100
AcDbEntity
  8
OBJECT2
  6
CONTINUOUS
100
AcDbLine
 10
10.74836896929074
 20
13.90984676622627
 30
0.0
 11
10.67884540384364
 21
13.90984676622627
 31
0.0
  0
LINE
  5
9A1
330
1E
100
AcDbEntity
  8
OBJECT2
  6
CONTINUOUS
100
AcDbLine
 10
10.7136169120506
 20
13.88451276607684
 30
0.0
 11
10.67884540384364
 21
13.90984676622627
 31
0.0
  0
LINE
  5
9A2
330
1E
100
AcDbEntity
  8
OBJECT2
  6
CONTINUOUS
100
AcDbLine
 10
10.8178230669992
 20
13.89119177338522
 30
0.0
 11
10.8178230669992
 21
13.87783426398837
 31
0.0
  0
LINE
  5
9A3
330
1E
100
AcDbEntity
  8
OBJECT2
  6
CONTINUOUS
100
AcDbLine
 10
10.8178230669992
 20
13.87783426398837
 30
0.0
 11
10.7650720449808
 21
13.87783426398837
 31
0.0
  0
LINE
  5
9A4
330
1E
100
AcDbEntity
  8
OBJECT2
  6
CONTINUOUS
100
AcDbLine
 10
10.8178230669992
 20
13.89119177338522
 30
0.0
 11
10.76507229759076
 21
13.89119177338522
 31
0.0
  0
LINE
  5
9A5
330
1E
100
AcDbEntity
  8
OBJECT1
  6
CONTINUOUS
100
AcDbLine
 10
10.65866161553247
 20
14.08344336117374
 30
0.0
 11
10.68254740278859
 21
14.08344336117374
 31
0.0
  0
LINE
  5
9A6
330
1E
100
AcDbEntity
  8
OBJECT1
  6
CONTINUOUS
100
AcDbLine
 10
10.64465590898155
 20
14.09180020382789
 30
0.0
 11
10.64180166905805
 21
14.08685637432591
 31
0.0
  0
ARC
  5
9A7
330
1E
100
AcDbEntity
  8
OBJECT1
  6
CONTINUOUS
100
AcDbCircle
 10
10.65866186814242
 20
14.09935854640255
 30
0.0
 40
0.0159149326188719
100
AcDbArc
 50
208.3530219999999
 51
269.9982379999999
  0
LWPOLYLINE
  5
9A8
330
1E
100
AcDbEntity
  8
OBJECT2
  6
CONTINUOUS
100
AcDbPolyline
 90
        2
 70
     0
 43
0.0
 10
10.59597867844418
 20
14.02390035003199
 10
10.61489769801521
 20
14.08933022080804
  0
LINE
  5
9A9
330
1E
100
AcDbEntity
  8
OBJECT1
  6
CONTINUOUS
100
AcDbLine
 10
10.83916570349597
 20
14.39828454104626
 30
0.0
 11
10.83916570349597
 21
14.28334726244155
 31
0.0
  0
LWPOLYLINE
  5
9AA
330
1E
100
AcDbEntity
  8
OBJECT1
  6
CONTINUOUS
100
AcDbPolyline
 90
        2
 70
     0
 43
0.0
 10
10.59597867844418
 20
14.16344272846434
 10
10.45767995164811
 20
14.16344272846434
  0
LWPOLYLINE
  5
9AB
330
1E
100
AcDbEntity
  8
OBJECT1
  6
CONTINUOUS
100
AcDbPolyline
 90
        2
 70
     0
 43
0.0
 10
10.45767995164811
 20
14.16344272846434
 10
10.43876093207707
 20
14.12809199259481
  0
ARC
  5
9AC
330
1E
100
AcDbEntity
  8
OBJECT1
  6
CONTINUOUS
100
AcDbCircle
 10
10.79925307740927
 20
14.25296662053693
 30
0.0
 40
0.0159146800089132
100
AcDbArc
 50
299.5111429999999
 51
359.9996749999999
  0
LINE
  5
9AD
330
1E
100
AcDbEntity
  8
OBJECT1
  6
CONTINUOUS
100
AcDbLine
 10
10.80709257486799
 20
14.23911677433055
 30
0.0
 11
10.75398360453809
 21
14.20905618924364
 31
0.0
  0
LINE
  5
9AE
330
1E
100
AcDbEntity
  8
OBJECT1
  6
CONTINUOUS
100
AcDbLine
 10
10.76591108895867
 20
14.20216978915914
 30
0.0
 11
10.75403665262942
 21
14.20902562343863
 31
0.0
  0
LINE
  5
9AF
330
1E
100
AcDbEntity
  8
OBJECT1
  6
CONTINUOUS
100
AcDbLine
 10
10.76591108895867
 20
14.20216978915914
 30
0.0
 11
10.72043889659562
 21
14.20216978915914
 31
0.0
  0
LINE
  5
9B0
330
1E
100
AcDbEntity
  8
OBJECT1
  6
CONTINUOUS
100
AcDbLine
 10
10.70780839865994
 20
14.18953929122346
 30
0.0
 11
10.70780839865994
 21
14.10870410443512
 31
0.0
  0
LWPOLYLINE
  5
9B1
330
1E
100
AcDbEntity
  8
OBJECT1
  6
CONTINUOUS
100
AcDbPolyline
 90
        2
 70
     0
 43
0.0
 10
10.61489769801521
 20
14.12809199259481
 10
10.61489769801521
 20
14.10238936068719
  0
LINE
  5
9B2
330
1E
100
AcDbEntity
  8
OBJECT1
  6
CONTINUOUS
100
AcDbLine
 10
10.70780839865994
 20
14.18953929122346
 30
0.0
 11
10.72043889659562
 21
14.20216978915914
 31
0.0
  0
LWPOLYLINE
  5
9B3
330
1E
100
AcDbEntity
  8
OBJECT1
  6
CONTINUOUS
100
AcDbPolyline
 90
        2
 70
     0
 43
0.0
 10
10.59597867844418
 20
14.16344272846434
 10
10.61489769801521
 20
14.12809199259481
  0
ARC
  5
9B4
330
1E
100
AcDbEntity
  8
OBJECT1
  6
CONTINUOUS
100
AcDbCircle
 10
10.83108218481714
 20
14.28334726244155
 30
0.0
 40
0.008083518678834
100
AcDbArc
 50
270.0008539999999
 51
359.99936
  0
ARC
  5
9B5
330
1E
100
AcDbEntity
  8
OBJECT1
  6
CONTINUOUS
100
AcDbCircle
 10
10.83108193220718
 20
14.25934931636375
 30
0.0
 40
0.0159144273989545
100
AcDbArc
 50
89.99932899999995
 51
180.000549
  0
LINE
  5
9B6
330
1E
100
AcDbEntity
  8
OBJECT1
  6
CONTINUOUS
100
AcDbLine
 10
10.81516775741819
 20
14.25296636792698
 30
0.0
 11
10.81516775741819
 21
14.2593490637538
 31
0.0
  0
LINE
  5
9B7
330
1E
100
AcDbEntity
  8
OBJECT1
  6
CONTINUOUS
100
AcDbLine
 10
10.83108218481714
 20
14.27526349115275
 30
0.0
 11
10.83108218481714
 21
14.27526349115275
 31
0.0
  0
ARC
  5
9B8
330
1E
100
AcDbEntity
  8
OBJECT1
  6
CONTINUOUS
100
AcDbCircle
 10
10.86284940278512
 20
14.43011364845413
 30
0.0
 40
0.0159144273989545
100
AcDbArc
 50
269.9997859999999
 51
355.996076
  0
ARC
  5
9B9
330
1E
100
AcDbEntity
  8
OBJECT1
  6
CONTINUOUS
100
AcDbCircle
 10
10.85508013089493
 20
14.39828479365621
 30
0.0
 40
0.0159144273989545
100
AcDbArc
 50
89.99957300000001
 51
180.000427
  0
LINE
  5
9BA
330
1E
100
AcDbEntity
  8
OBJECT1
  6
CONTINUOUS
100
AcDbLine
 10
10.85508013089493
 20
14.41419922105518
 30
0.0
 11
10.86284915017516
 21
14.41419922105518
 31
0.0
  0
ARC
  5
9BB
330
1E
100
AcDbEntity
  8
OBJECT1
  6
CONTINUOUS
100
AcDbCircle
 10
10.92923529993505
 20
14.69838542460793
 30
0.0
 40
0.0315762448391954
100
AcDbArc
 50
90.00009199999984
 51
175.995834
  0
LINE
  5
9BC
330
1E
100
AcDbEntity
  8
OBJECT1
  6
CONTINUOUS
100
AcDbLine
 10
11.27451320112301
 20
14.42900241724574
 30
0.0
 11
11.25550177563023
 21
14.70059045693754
 31
0.0
  0
LINE
  5
9BD
330
1E
100
AcDbEntity
  8
OBJECT1
  6
CONTINUOUS
100
AcDbLine
 10
11.23926624785878
 20
14.74539189826961
 30
0.0
 11
11.38608672501657
 21
14.58508948079746
 31
0.0
  0
LINE
  5
9BE
330
1E
100
AcDbEntity
  8
OBJECT1
100
AcDbLine
 10
11.54394736200184
 20
13.75420000342008
 30
0.0
 11
12.37033425220891
 21
13.75420000342008
 31
0.0
  0
LINE
  5
9BF
330
1E
100
AcDbEntity
  8
OBJECT1
100
AcDbLine
 10
11.54394736200184
 20
14.01464061824381
 30
0.0
 11
12.37033425220891
 21
14.01464061824381
 31
0.0
  0
LINE
  5
9C0
330
1E
100
AcDbEntity
  8
OBJECT1
  6
CONTINUOUS
100
AcDbLine
 10
11.51205030251508
 20
14.12259790477434
 30
0.0
 11
11.54394736200184
 21
14.09070084528758
 31
0.0
  0
LINE
  5
9C1
330
1E
100
AcDbEntity
  8
OBJECT2
  6
CONTINUOUS
100
AcDbLine
 10
11.41337504261251
 20
13.76547057564303
 30
0.0
 11
11.396570670329
 21
13.81118514726146
 31
0.0
  0
LINE
  5
9C2
330
1E
100
AcDbEntity
  8
OBJECT2
100
AcDbLine
 10
11.60095385138473
 20
14.01479016333938
 30
0.0
 11
11.60095385138473
 21
13.75423587403422
 31
0.0
  0
LINE
  5
9C3
330
1E
100
AcDbEntity
  8
OBJECT2
100
AcDbLine
 10
11.57016600222668
 20
13.97583240289661
 30
0.0
 11
11.57016600222668
 21
13.79319363447698
 31
0.0
  0
LINE
  5
9C4
330
1E
100
AcDbEntity
  8
OBJECT2
100
AcDbLine
 10
11.54394736200184
 20
14.01464061824381
 30
0.0
 11
11.54394736200184
 21
13.75420000342008
 31
0.0
  0
LINE
  5
9C5
330
1E
100
AcDbEntity
  8
OBJECT2
  6
CONTINUOUS
100
AcDbLine
 10
11.51205030251508
 20
13.76547057564303
 30
0.0
 11
11.54394736200184
 21
13.81118514726146
 31
0.0
  0
LINE
  5
9C6
330
1E
100
AcDbEntity
  8
OBJECT2
  6
CONTINUOUS
100
AcDbLine
 10
11.27471819410451
 20
13.72477233258474
 30
0.0
 11
11.20496424837506
 21
13.75449138900747
 31
0.0
  0
LINE
  5
9C7
330
1E
100
AcDbEntity
  8
OBJECT2
  6
CONTINUOUS
100
AcDbLine
 10
11.20496424837506
 20
13.75449138900747
 30
0.0
 11
11.2877970747169
 21
13.73326356373693
 31
0.0
  0
LINE
  5
9C8
330
1E
100
AcDbEntity
  8
OBJECT1
  6
CONTINUOUS
100
AcDbLine
 10
11.54394736200184
 20
13.67832519208602
 30
0.0
 11
11.51205030251508
 21
13.64642787998931
 31
0.0
  0
LINE
  5
9C9
330
1E
100
AcDbEntity
  8
OBJECT1
  6
CONTINUOUS
100
AcDbLine
 10
11.41337504261251
 20
13.64642787998931
 30
0.0
 11
11.38837221411896
 21
13.67930178218641
 31
0.0
  0
LINE
  5
9CA
330
1E
100
AcDbEntity
  8
OBJECT1
  6
CONTINUOUS
100
AcDbLine
 10
11.41337504261251
 20
13.64642787998931
 30
0.0
 11
11.51205030251508
 21
13.64642787998931
 31
0.0
  0
LINE
  5
9CB
330
1E
100
AcDbEntity
  8
OBJECT2
  6
CONTINUOUS
100
AcDbLine
 10
11.41337504261251
 20
13.76547057564303
 30
0.0
 11
11.51205030251508
 21
13.76547057564303
 31
0.0
  0
LINE
  5
9CC
330
1E
100
AcDbEntity
  8
OBJECT2
  6
CONTINUOUS
100
AcDbLine
 10
11.41337504261251
 20
13.76547057564303
 30
0.0
 11
11.396570670329
 21
13.71975575141464
 31
0.0
  0
LINE
  5
9CD
330
1E
100
AcDbEntity
  8
OBJECT2
  6
CONTINUOUS
100
AcDbLine
 10
11.2877970747169
 20
13.73326356373693
 30
0.0
 11
11.33575305449901
 21
13.69929863912814
 31
0.0
  0
ARC
  5
9CE
330
1E
100
AcDbEntity
  8
OBJECT1
  6
CONTINUOUS
100
AcDbCircle
 10
11.33175474407249
 20
13.67042607867706
 30
0.0
 40
0.0151563449128551
100
AcDbArc
 50
89.9990839999999
 51
180.0018209999999
  0
LINE
  5
9CF
330
1E
100
AcDbEntity
  8
OBJECT1
  6
CONTINUOUS
100
AcDbLine
 10
11.33175499668245
 20
13.68558242358991
 30
0.0
 11
11.37570508773927
 21
13.68558242358991
 31
0.0
  0
ARC
  5
9D0
330
1E
100
AcDbEntity
  8
OBJECT1
  6
CONTINUOUS
100
AcDbCircle
 10
11.37570559295918
 20
13.66966925924074
 30
0.0
 40
0.0159131643491609
100
AcDbArc
 50
37.25233500000002
 51
90.00173999999992
  0
LINE
  5
9D1
330
1E
100
AcDbEntity
  8
OBJECT2
  6
CONTINUOUS
100
AcDbLine
 10
11.30523575060674
 20
13.69080766058589
 30
0.0
 11
11.27471819410451
 21
13.72477233258474
 31
0.0
  0
LINE
  5
9D2
330
1E
100
AcDbEntity
  8
OBJECT2
  6
CONTINUOUS
100
AcDbLine
 10
11.51205030251508
 20
13.76547057564303
 30
0.0
 11
11.54394736200184
 21
13.71975575141464
 31
0.0
  0
LINE
  5
9D3
330
1E
100
AcDbEntity
  8
OBJECT1
  6
CONTINUOUS
100
AcDbLine
 10
11.54394736200184
 20
13.75420000342008
 30
0.0
 11
11.54394736200184
 21
13.67832519208602
 31
0.0
  0
LINE
  5
9D4
330
1E
100
AcDbEntity
  8
OBJECT2
  6
CONTINUOUS
100
AcDbLine
 10
11.25745583996586
 20
13.87783426398837
 30
0.0
 11
11.30363344563861
 21
13.87783426398837
 31
0.0
  0
LINE
  5
9D5
330
1E
100
AcDbEntity
  8
OBJECT2
  6
CONTINUOUS
100
AcDbLine
 10
11.25745583996586
 20
13.89119177338522
 30
0.0
 11
11.30363344563861
 21
13.89119177338522
 31
0.0
  0
LINE
  5
9D6
330
1E
100
AcDbEntity
  8
OBJECT2
  6
CONTINUOUS
100
AcDbLine
 10
11.25745583996586
 20
13.89119177338522
 30
0.0
 11
11.25745583996586
 21
13.87783426398837
 31
0.0
  0
LINE
  5
9D7
330
1E
100
AcDbEntity
  8
OBJECT2
  6
CONTINUOUS
100
AcDbLine
 10
11.36955201436492
 20
13.88451276607684
 30
0.0
 11
11.28928747347331
 21
13.86233007516237
 31
0.0
  0
LINE
  5
9D8
330
1E
100
AcDbEntity
  8
OBJECT2
  6
CONTINUOUS
100
AcDbLine
 10
11.28928747347331
 20
13.86233007516237
 30
0.0
 11
11.30312595223156
 21
13.8785021647192
 31
0.0
  0
LINE
  5
9D9
330
1E
100
AcDbEntity
  8
OBJECT2
  6
CONTINUOUS
100
AcDbLine
 10
11.36955201436492
 20
13.88451276607684
 30
0.0
 11
11.28928747347331
 21
13.90669570960127
 31
0.0
  0
LINE
  5
9DA
330
1E
100
AcDbEntity
  8
OBJECT2
  6
CONTINUOUS
100
AcDbLine
 10
11.28928747347331
 20
13.90669570960127
 30
0.0
 11
11.30312595223156
 21
13.89052362004442
 31
0.0
  0
LINE
  5
9DB
330
1E
100
AcDbEntity
  8
OBJECT2
  6
CONTINUOUS
100
AcDbLine
 10
11.41337504261251
 20
14.00355546173057
 30
0.0
 11
11.51205030251508
 21
14.00355546173057
 31
0.0
  0
LINE
  5
9DC
330
1E
100
AcDbEntity
  8
OBJECT2
  6
CONTINUOUS
100
AcDbLine
 10
11.41337504261251
 20
14.00355546173057
 30
0.0
 11
11.396570670329
 21
13.95784063750218
 31
0.0
  0
LINE
  5
9DD
330
1E
100
AcDbEntity
  8
OBJECT2
  6
CONTINUOUS
100
AcDbLine
 10
11.41337504261251
 20
14.00355546173057
 30
0.0
 11
11.396570670329
 21
14.049270033349
 31
0.0
  0
LINE
  5
9DE
330
1E
100
AcDbEntity
  8
OBJECT2
  6
CONTINUOUS
100
AcDbLine
 10
11.51205030251508
 20
14.00355546173057
 30
0.0
 11
11.54394736200184
 21
13.95784063750218
 31
0.0
  0
LINE
  5
9DF
330
1E
100
AcDbEntity
  8
OBJECT2
  6
CONTINUOUS
100
AcDbLine
 10
11.51205030251508
 20
14.00355546173057
 30
0.0
 11
11.54394736200184
 21
14.049270033349
 31
0.0
  0
LINE
  5
9E0
330
1E
100
AcDbEntity
  8
OBJECT1
  6
CONTINUOUS
100
AcDbLine
 10
11.54394736200184
 20
14.09070084528758
 30
0.0
 11
11.54394736200184
 21
14.01464061824381
 31
0.0
  0
LINE
  5
9E1
330
1E
100
AcDbEntity
  8
OBJECT2
100
AcDbLine
 10
12.28253991366796
 20
13.79267780494129
 30
0.0
 11
12.28253991366796
 21
13.97531682597086
 31
0.0
  0
LINE
  5
9E2
330
1E
100
AcDbEntity
  8
OBJECT2
100
AcDbLine
 10
11.63174195315274
 20
13.97583240289661
 30
0.0
 11
11.63174195315274
 21
13.79319363447698
 31
0.0
  0
LINE
  5
9E3
330
1E
100
AcDbEntity
  8
OBJECT2
  6
CONTINUOUS
100
AcDbLine
 10
11.19534549267214
 20
14.41419922105518
 30
0.0
 11
11.19534549267214
 21
14.27526349115275
 31
0.0
  0
LINE
  5
9E4
330
1E
100
AcDbEntity
  8
OBJECT1
  6
CONTINUOUS
100
AcDbLine
 10
11.31407217326752
 20
14.39828454104626
 30
0.0
 11
11.31407217326752
 21
14.28334726244155
 31
0.0
  0
LINE
  5
9E5
330
1E
100
AcDbEntity
  8
OBJECT2
  6
CONTINUOUS
100
AcDbLine
 10
10.95789238409135
 20
14.41419922105518
 30
0.0
 11
10.95789238409135
 21
14.27526349115275
 31
0.0
  0
ARC
  5
9E6
330
1E
100
AcDbEntity
  8
OBJECT1
  6
CONTINUOUS
100
AcDbCircle
 10
11.35398479935422
 20
14.25296662053693
 30
0.0
 40
0.0159146800089132
100
AcDbArc
 50
180.000214
 51
240.4889220000001
  0
LINE
  5
9E7
330
1E
100
AcDbEntity
  8
OBJECT1
  6
CONTINUOUS
100
AcDbLine
 10
11.39325832224537
 20
14.21245000403896
 30
0.0
 11
11.34614555450546
 21
14.23911677433055
 31
0.0
  0
LINE
  5
9E8
330
1E
100
AcDbEntity
  8
OBJECT1
  6
CONTINUOUS
100
AcDbLine
 10
11.43279898016787
 20
14.20216978915914
 30
0.0
 11
11.44542947810355
 21
14.18953929122346
 31
0.0
  0
ARC
  5
9E9
330
1E
100
AcDbEntity
  8
OBJECT1
  6
CONTINUOUS
100
AcDbCircle
 10
11.46058607562636
 20
14.13775450229714
 30
0.0
 40
0.0151563449128551
100
AcDbArc
 50
180.0
 51
270.0004579999999
  0
LINE
  5
9EA
330
1E
100
AcDbEntity
  8
OBJECT1
  6
CONTINUOUS
100
AcDbLine
 10
11.43279898016787
 20
14.20216978915914
 30
0.0
 11
11.39920147674403
 21
14.20216978915914
 31
0.0
  0
LINE
  5
9EB
330
1E
100
AcDbEntity
  8
OBJECT1
  6
CONTINUOUS
100
AcDbLine
 10
11.39920147674403
 20
14.20216978915914
 30
0.0
 11
11.38732704041478
 21
14.20902562343863
 31
0.0
  0
LINE
  5
9EC
330
1E
100
AcDbEntity
  8
OBJECT1
  6
CONTINUOUS
100
AcDbLine
 10
11.38732704041478
 20
14.20902562343863
 30
0.0
 11
11.39325832224537
 21
14.21245000403896
 31
0.0
  0
LINE
  5
9ED
330
1E
100
AcDbEntity
  8
OBJECT1
  6
CONTINUOUS
100
AcDbLine
 10
11.51205030251508
 20
14.12259790477434
 30
0.0
 11
11.46058607562636
 21
14.12259790477434
 31
0.0
  0
LINE
  5
9EE
330
1E
100
AcDbEntity
  8
OBJECT1
  6
CONTINUOUS
100
AcDbLine
 10
11.44542947810355
 20
14.18953929122346
 30
0.0
 11
11.44542947810355
 21
14.13775450229714
 31
0.0
  0
ARC
  5
9EF
330
1E
100
AcDbEntity
  8
OBJECT1
  6
CONTINUOUS
100
AcDbCircle
 10
11.32215594455631
 20
14.28334726244155
 30
0.0
 40
0.008083518678834
100
AcDbArc
 50
180.0006409999999
 51
269.9985050000001
  0
LINE
  5
9F0
330
1E
100
AcDbEntity
  8
OBJECT1
  6
CONTINUOUS
100
AcDbLine
 10
11.32215594455631
 20
14.27526349115275
 30
0.0
 11
11.32215569194635
 21
14.27526349115275
 31
0.0
  0
LINE
  5
9F1
330
1E
100
AcDbEntity
  8
OBJECT1
  6
CONTINUOUS
100
AcDbLine
 10
11.33807037195526
 20
14.25296636792698
 30
0.0
 11
11.33807037195526
 21
14.2593490637538
 31
0.0
  0
ARC
  5
9F2
330
1E
100
AcDbEntity
  8
OBJECT1
  6
CONTINUOUS
100
AcDbCircle
 10
11.32215569194635
 20
14.2593490637538
 30
0.0
 40
0.0159144273989545
100
AcDbArc
 50
0.0002140000000833
 51
89.99932899999995
  0
ARC
  5
9F3
330
1E
100
AcDbEntity
  8
OBJECT1
  6
CONTINUOUS
100
AcDbCircle
 10
11.29038847397837
 20
14.4301131432342
 30
0.0
 40
0.0159139221790371
100
AcDbArc
 50
184.0025479999999
 51
270.0015180000001
  0
ARC
  5
9F4
330
1E
100
AcDbEntity
  8
OBJECT1
  6
CONTINUOUS
100
AcDbCircle
 10
11.29815774586856
 20
14.39828454104626
 30
0.0
 40
0.0159144273989545
100
AcDbArc
 50
0.0002140000000833
 51
89.99932899999995
  0
LINE
  5
9F5
330
1E
100
AcDbEntity
  8
OBJECT1
  6
CONTINUOUS
100
AcDbLine
 10
11.29815799847852
 20
14.41419922105518
 30
0.0
 11
11.29038897919828
 21
14.41419922105518
 31
0.0
  0
ARC
  5
9F6
330
1E
100
AcDbEntity
  8
OBJECT1
100
AcDbCircle
 10
12.50458406737719
 20
13.66098692865479
 30
0.0
 40
0.3789144328504275
100
AcDbArc
 50
359.999891
 51
90.00006099999991
  0
LINE
  5
9F7
330
1E
100
AcDbEntity
  8
OBJECT2
100
AcDbLine
 10
12.47137874091425
 20
14.04533323344743
 30
0.0
 11
12.47137874091425
 21
13.72350764082644
 31
0.0
  0
LINE
  5
9F8
330
1E
100
AcDbEntity
  8
OBJECT2
100
AcDbLine
 10
12.37033425220891
 20
14.01464061824381
 30
0.0
 11
12.37033425220891
 21
13.75372029710848
 31
0.0
  0
LINE
  5
9F9
330
1E
100
AcDbEntity
  8
OBJECT2
100
AcDbLine
 10
12.31332776282602
 20
13.75372029710848
 30
0.0
 11
12.31332776282602
 21
14.01427433380367
 31
0.0
  0
LINE
  5
9FA
330
1E
100
AcDbEntity
  8
OBJECT2
100
AcDbLine
 10
12.34411586459402
 20
13.79267780494129
 30
0.0
 11
12.34411586459402
 21
13.97531682597086
 31
0.0
  0
LINE
  5
9FB
330
1E
100
AcDbEntity
  8
OBJECT2
100
AcDbLine
 10
12.88887353492913
 20
13.6278950240633
 30
0.0
 11
12.56704794230813
 21
13.6278950240633
 31
0.0
  0
LINE
  5
9FC
330
1E
100
AcDbEntity
  8
OBJECT2
100
AcDbLine
 10
12.85860404140636
 20
13.52685179840776
 30
0.0
 11
12.59768372027103
 21
13.52685179840776
 31
0.0
  0
LINE
  5
9FD
330
1E
100
AcDbEntity
  8
OBJECT1
100
AcDbLine
 10
12.57242297700964
 20
13.64190148844409
 30
0.0
 11
12.57242297700964
 21
13.66578702309027
 31
0.0
  0
LINE
  5
9FE
330
1E
100
AcDbEntity
  8
OBJECT1
100
AcDbLine
 10
12.55113351490918
 20
13.54276597319675
 30
0.0
 11
12.55113351490918
 21
13.6119808492743
 31
0.0
  0
LINE
  5
9FF
330
1E
100
AcDbEntity
  8
OBJECT1
100
AcDbLine
 10
12.59768372027103
 20
13.52685179840776
 30
0.0
 11
12.56704794230813
 21
13.52685179840776
 31
0.0
  0
ARC
  5
A00
330
1E
100
AcDbEntity
  8
OBJECT1
100
AcDbCircle
 10
12.5670474370882
 20
13.54276546797684
 30
0.0
 40
0.0159136695690784
100
AcDbArc
 50
179.997391
 51
270.0017319999998
  0
ARC
  5
A01
330
1E
100
AcDbEntity
  8
OBJECT1
100
AcDbCircle
 10
12.56704541620854
 20
13.61198236493406
 30
0.0
 40
0.0159124065192848
100
AcDbArc
 50
109.1153869999999
 51
180.0056459999999
  0
ARC
  5
A02
330
1E
100
AcDbEntity
  8
OBJECT1
100
AcDbCircle
 10
12.55650956005052
 20
13.6420128894359
 30
0.0
 40
0.0159131643491609
100
AcDbArc
 50
289.3328859999999
 51
0.0013120000000099
  0
ARC
  5
A03
330
1E
100
AcDbEntity
  8
OBJECT1
100
AcDbCircle
 10
12.45546330307546
 20
13.72350865126627
 30
0.0
 40
0.0159154378387894
100
AcDbArc
 50
270.0034640000001
 51
340.7644709999999
  0
ARC
  5
A04
330
1E
100
AcDbEntity
  8
OBJECT1
100
AcDbCircle
 10
12.48551807813332
 20
13.71302432753981
 30
0.0
 40
0.0159149326188719
100
AcDbArc
 50
90.00347900000004
 51
160.769379
  0
ARC
  5
A05
330
1E
100
AcDbEntity
  8
OBJECT1
100
AcDbCircle
 10
12.38624867960787
 20
13.72350738821648
 30
0.0
 40
0.0159141747889958
100
AcDbArc
 50
179.9991299999999
 51
270.0
  0
LINE
  5
A06
330
1E
100
AcDbEntity
  8
OBJECT1
100
AcDbLine
 10
12.37033425220891
 20
13.75420000342008
 30
0.0
 11
12.37033425220891
 21
13.72350764082644
 31
0.0
  0
LINE
  5
A07
330
1E
100
AcDbEntity
  8
OBJECT1
100
AcDbLine
 10
12.45546431351529
 20
13.70759321342748
 30
0.0
 11
12.38624867960787
 21
13.70759321342748
 31
0.0
  0
ARC
  5
A08
330
1E
100
AcDbEntity
  8
OBJECT1
100
AcDbCircle
 10
12.50927099255116
 20
13.66578752831018
 30
0.0
 40
0.0631519844584734
100
AcDbArc
 50
359.999563
 51
90.00042699999999
  0
LINE
  5
A09
330
1E
100
AcDbEntity
  8
OBJECT1
100
AcDbLine
 10
12.48541981285938
 20
13.72893951276865
 30
0.0
 11
12.50927048733124
 21
13.72893951276865
 31
0.0
  0
LINE
  5
A0A
330
1E
100
AcDbEntity
  8
OBJECT1
100
AcDbLine
 10
12.88349850022762
 20
13.64190148844409
 30
0.0
 11
12.88349850022762
 21
13.6609861708249
 31
0.0
  0
LINE
  5
A0B
330
1E
100
AcDbEntity
  8
OBJECT1
100
AcDbLine
 10
12.90478796232807
 20
13.6119808492743
 30
0.0
 11
12.90478796232807
 21
13.54276597319675
 31
0.0
  0
LINE
  5
A0C
330
1E
100
AcDbEntity
  8
OBJECT1
100
AcDbLine
 10
12.85860404140636
 20
13.52685179840776
 30
0.0
 11
12.88887353492913
 21
13.52685179840776
 31
0.0
  0
ARC
  5
A0D
330
1E
100
AcDbEntity
  8
OBJECT1
100
AcDbCircle
 10
12.88887454536896
 20
13.5427657205868
 30
0.0
 40
0.0159134169591196
100
AcDbArc
 50
269.9965359999998
 51
0.0017399999999212
  0
ARC
  5
A0E
330
1E
100
AcDbEntity
  8
OBJECT1
100
AcDbCircle
 10
12.88887555580879
 20
13.61198236493406
 30
0.0
 40
0.0159124065192848
100
AcDbArc
 50
359.9943619999999
 51
70.88296500000007
  0
ARC
  5
A0F
330
1E
100
AcDbEntity
  8
OBJECT1
100
AcDbCircle
 10
12.89941191718674
 20
13.64201314204585
 30
0.0
 40
0.0159134169591196
100
AcDbArc
 50
179.999573
 51
250.667404
  0
ARC
  5
A10
330
1E
100
AcDbEntity
  8
OBJECT1
100
AcDbCircle
 10
12.45546330307546
 20
14.04533222300759
 30
0.0
 40
0.0159154378387894
100
AcDbArc
 50
19.23492399999995
 51
89.99652099999996
  0
ARC
  5
A11
330
1E
100
AcDbEntity
  8
OBJECT1
100
AcDbCircle
 10
12.48551807813332
 20
14.05581578890417
 30
0.0
 40
0.0159146800089132
100
AcDbArc
 50
199.229187
 51
269.9965359999998
  0
ARC
  5
A12
330
1E
100
AcDbEntity
  8
OBJECT1
100
AcDbCircle
 10
12.38624817438795
 20
14.04533348605738
 30
0.0
 40
0.0159139221790371
100
AcDbArc
 50
89.99825999999988
 51
180.001297
  0
LINE
  5
A13
330
1E
100
AcDbEntity
  8
OBJECT1
100
AcDbLine
 10
12.37033425220891
 20
14.01464061824381
 30
0.0
 11
12.37033425220891
 21
14.04533323344743
 31
0.0
  0
LINE
  5
A14
330
1E
100
AcDbEntity
  8
OBJECT1
100
AcDbLine
 10
12.45546431351529
 20
14.06124740823642
 30
0.0
 11
12.38624867960787
 21
14.06124740823642
 31
0.0
  0
LINE
  5
A15
330
1E
100
AcDbEntity
  8
OBJECT1
100
AcDbLine
 10
12.48541981285938
 20
14.03990110889526
 30
0.0
 11
12.50458356215727
 21
14.03990110889526
 31
0.0
  0
LINE
  5
A16
330
1E
100
AcDbEntity
  8
OBJECT1
  6
CONTINUOUS
100
AcDbLine
 10
11.04712643583767
 20
14.80782868922107
 30
0.0
 11
11.04712643583767
 21
14.86307372936186
 31
0.0
  0
LINE
  5
A17
330
1E
100
AcDbEntity
  8
OBJECT1
  6
CONTINUOUS
100
AcDbLine
 10
11.10851065580507
 20
14.80782868922107
 30
0.0
 11
11.10851065580507
 21
14.86307372936186
 31
0.0
  0
LINE
  5
A18
330
1E
100
AcDbEntity
  8
OBJECT2
100
AcDbLine
 10
11.10851065580507
 20
14.80782868922107
 30
0.0
 11
11.04712643583767
 21
14.80782868922107
 31
0.0
  0
LINE
  5
A19
330
1E
100
AcDbEntity
  8
OBJECT2
  6
CONTINUOUS
100
AcDbLine
 10
11.10439867089713
 20
14.8007066040451
 30
0.0
 11
11.08728005182498
 21
14.80782868922107
 31
0.0
  0
LINE
  5
A1A
330
1E
100
AcDbEntity
  8
OBJECT2
  6
CONTINUOUS
100
AcDbLine
 10
11.10439867089713
 20
14.7689126094215
 30
0.0
 11
11.08728005182498
 21
14.76179052424552
 31
0.0
  0
LINE
  5
A1B
330
1E
100
AcDbEntity
  8
OBJECT2
  6
CONTINUOUS
100
AcDbLine
 10
10.99755214760937
 20
14.72996166944712
 30
0.0
 11
11.15568598176407
 21
14.72996166944712
 31
0.0
  0
LINE
  5
A1C
330
1E
100
AcDbEntity
  8
OBJECT2
  6
CONTINUOUS
100
AcDbLine
 10
11.0293809022871
 20
14.76179077685426
 30
0.0
 11
11.12385690824282
 21
14.76179052424499
 31
0.0
  0
ARC
  5
A1D
330
1E
100
AcDbEntity
  8
OBJECT1
  6
CONTINUOUS
100
AcDbCircle
 10
10.99755214760937
 20
14.74587584423611
 30
0.0
 40
0.0159144273989545
100
AcDbArc
 50
269.9995649999999
 51
0.0005490000000164
  0
LINE
  5
A1E
330
1E
100
AcDbEntity
  8
OBJECT2
  6
CONTINUOUS
100
AcDbLine
 10
11.1003263457527
 20
14.81703632221617
 30
0.0
 11
11.05531074589003
 21
14.81703632221617
 31
0.0
  0
LINE
  5
A1F
330
1E
100
AcDbEntity
  8
OBJECT1
  6
CONTINUOUS
100
AcDbLine
 10
11.04712643583767
 20
14.80782868922107
 30
0.0
 11
11.03178038084582
 21
14.80782868922107
 31
0.0
  0
LINE
  5
A20
330
1E
100
AcDbEntity
  8
OBJECT1
  6
CONTINUOUS
100
AcDbLine
 10
11.02465804305989
 20
14.8007066040451
 30
0.0
 11
11.03178038084582
 21
14.80782868922107
 31
0.0
  0
LINE
  5
A21
330
1E
100
AcDbEntity
  8
OBJECT2
  6
CONTINUOUS
100
AcDbLine
 10
11.05123816813565
 20
14.8007066040451
 30
0.0
 11
11.03985025858688
 21
14.80782868922107
 31
0.0
  0
LINE
  5
A22
330
1E
100
AcDbEntity
  8
OBJECT2
  6
CONTINUOUS
100
AcDbLine
 10
11.05123816813565
 20
14.8007066040451
 30
0.0
 11
11.06835678720779
 21
14.80782868922107
 31
0.0
  0
ARC
  5
A23
330
1E
100
AcDbEntity
  8
OBJECT1
  6
CONTINUOUS
100
AcDbCircle
 10
11.02938074979733
 20
14.74587634945604
 30
0.0
 40
0.0159144273989545
100
AcDbArc
 50
89.99945099999999
 51
180.000488
  0
LINE
  5
A24
330
1E
100
AcDbEntity
  8
OBJECT1
  6
CONTINUOUS
100
AcDbLine
 10
11.02465804305989
 20
14.7689126094215
 30
0.0
 11
11.03178038084582
 21
14.76179052424552
 31
0.0
  0
LINE
  5
A25
330
1E
100
AcDbEntity
  8
OBJECT1
  6
CONTINUOUS
100
AcDbLine
 10
11.01188453400096
 20
14.76179052424552
 30
0.0
 11
11.0293807048412
 21
14.76179052424552
 31
0.0
  0
LINE
  5
A26
330
1E
100
AcDbEntity
  8
OBJECT2
  6
CONTINUOUS
100
AcDbLine
 10
11.05123816813565
 20
14.7689126094215
 30
0.0
 11
11.03985025858688
 21
14.76179052424552
 31
0.0
  0
LINE
  5
A27
330
1E
100
AcDbEntity
  8
OBJECT2
  6
CONTINUOUS
100
AcDbLine
 10
11.05123816813565
 20
14.7689126094215
 30
0.0
 11
11.06835678720779
 21
14.76179052424552
 31
0.0
  0
LINE
  5
A28
330
1E
100
AcDbEntity
  8
OBJECT1
  6
CONTINUOUS
100
AcDbLine
 10
11.02465804305989
 20
14.7689126094215
 30
0.0
 11
11.02465804305989
 21
14.8007066040451
 31
0.0
  0
LINE
  5
A29
330
1E
100
AcDbEntity
  8
OBJECT2
  6
CONTINUOUS
100
AcDbLine
 10
11.05123816813565
 20
14.8007066040451
 30
0.0
 11
11.05123816813565
 21
14.7689126094215
 31
0.0
  0
LINE
  5
A2A
330
1E
100
AcDbEntity
  8
OBJECT1
  6
CONTINUOUS
100
AcDbLine
 10
11.22400257682844
 20
14.72996166944712
 30
0.0
 11
11.15568598176407
 21
14.72996166944712
 31
0.0
  0
LINE
  5
A2B
330
1E
100
AcDbEntity
  8
OBJECT1
  6
CONTINUOUS
100
AcDbLine
 10
11.12385671079691
 20
14.76179052424552
 30
0.0
 11
11.20200946916825
 21
14.76179052424552
 31
0.0
  0
ARC
  5
A2C
330
1E
100
AcDbEntity
  8
OBJECT1
  6
CONTINUOUS
100
AcDbCircle
 10
11.15568598176407
 20
14.74587609684609
 30
0.0
 40
0.0159144273989545
100
AcDbArc
 50
180.000214
 51
269.9992449999999
  0
LINE
  5
A2D
330
1E
100
AcDbEntity
  8
OBJECT1
  6
CONTINUOUS
100
AcDbLine
 10
11.13097879597288
 20
14.8007066040451
 30
0.0
 11
11.12385671079691
 21
14.80782868922107
 31
0.0
  0
LINE
  5
A2E
330
1E
100
AcDbEntity
  8
OBJECT1
  6
CONTINUOUS
100
AcDbLine
 10
11.13097879597288
 20
14.7689126094215
 30
0.0
 11
11.12385671079691
 21
14.76179052424552
 31
0.0
  0
ARC
  5
A2F
330
1E
100
AcDbEntity
  8
OBJECT1
  6
CONTINUOUS
100
AcDbCircle
 10
11.1238568743562
 20
14.74587609684609
 30
0.0
 40
0.0159144273989545
100
AcDbArc
 50
0.000152999999969
 51
89.99987799999997
  0
LINE
  5
A30
330
1E
100
AcDbEntity
  8
OBJECT1
  6
CONTINUOUS
100
AcDbLine
 10
11.13097879597288
 20
14.8007066040451
 30
0.0
 11
11.13097879597288
 21
14.7689126094215
 31
0.0
  0
ARC
  5
A31
330
1E
100
AcDbEntity
  8
OBJECT1
  6
CONTINUOUS
100
AcDbCircle
 10
11.22400308204836
 20
14.69838567721789
 30
0.0
 40
0.031575739619278
100
AcDbArc
 50
4.003631999999991
 51
90.00067100000004
  0
ARC
  5
A32
330
1E
100
AcDbEntity
  8
OBJECT1
  6
CONTINUOUS
100
AcDbCircle
 10
11.20200946916825
 20
14.71126853250281
 30
0.0
 40
0.0505219917427127
100
AcDbArc
 50
42.48646977536434
 51
90.0
  0
LINE
  5
A33
330
1E
100
AcDbEntity
  8
OBJECT2
  6
CONTINUOUS
100
AcDbLine
 10
11.10439867089713
 20
14.8007066040451
 30
0.0
 11
11.10439867089713
 21
14.7689126094215
 31
0.0
  0
LINE
  5
A34
330
1E
100
AcDbEntity
  8
OBJECT2
  6
CONTINUOUS
100
AcDbLine
 10
11.10439867089713
 20
14.8007066040451
 30
0.0
 11
11.11578683305585
 21
14.80782868922107
 31
0.0
  0
LINE
  5
A35
330
1E
100
AcDbEntity
  8
OBJECT1
  6
CONTINUOUS
100
AcDbLine
 10
11.12385671079691
 20
14.80782868922107
 30
0.0
 11
11.10851065580507
 21
14.80782868922107
 31
0.0
  0
LINE
  5
A36
330
1E
100
AcDbEntity
  8
OBJECT2
  6
CONTINUOUS
100
AcDbLine
 10
11.10439867089713
 20
14.7689126094215
 30
0.0
 11
11.11578683305585
 21
14.76179052424552
 31
0.0
  0
LINE
  5
A37
330
1E
100
AcDbEntity
  8
OBJECT2
  6
CONTINUOUS
100
AcDbLine
 10
11.04712643583767
 20
14.8446587159816
 30
0.0
 11
11.10851065580507
 21
14.8446587159816
 31
0.0
  0
LINE
  5
A38
330
1E
100
AcDbEntity
  8
OBJECT2
  6
CONTINUOUS
100
AcDbLine
 10
11.04712643583767
 20
14.82624370260133
 30
0.0
 11
11.10851065580507
 21
14.82624370260133
 31
0.0
  0
LINE
  5
A39
330
1E
100
AcDbEntity
  8
OBJECT2
  6
CONTINUOUS
100
AcDbLine
 10
11.10851065580507
 20
14.86307372936186
 30
0.0
 11
11.04712643583767
 21
14.86307372936186
 31
0.0
  0
LINE
  5
A3A
330
1E
100
AcDbEntity
  8
OBJECT2
  6
CONTINUOUS
100
AcDbLine
 10
11.10439867089713
 20
14.89687420488751
 30
0.0
 11
11.08728005182498
 21
14.90399654267345
 31
0.0
  0
LINE
  5
A3B
330
1E
100
AcDbEntity
  8
OBJECT1
  6
CONTINUOUS
100
AcDbLine
 10
11.03178038084582
 20
14.90399654267345
 30
0.0
 11
11.12385671079691
 21
14.90399654267345
 31
0.0
  0
LINE
  5
A3C
330
1E
100
AcDbEntity
  8
OBJECT2
  6
CONTINUOUS
100
AcDbLine
 10
11.1003263457527
 20
14.83545133559643
 30
0.0
 11
11.05531074589003
 21
14.83545133559643
 31
0.0
  0
LINE
  5
A3D
330
1E
100
AcDbEntity
  8
OBJECT2
  6
CONTINUOUS
100
AcDbLine
 10
11.1003263457527
 20
14.8538663489767
 30
0.0
 11
11.05531074589003
 21
14.8538663489767
 31
0.0
  0
LINE
  5
A3E
330
1E
100
AcDbEntity
  8
OBJECT1
  6
CONTINUOUS
100
AcDbLine
 10
11.02465804305989
 20
14.89687420488751
 30
0.0
 11
11.03178038084582
 21
14.90399654267345
 31
0.0
  0
LINE
  5
A3F
330
1E
100
AcDbEntity
  8
OBJECT2
  6
CONTINUOUS
100
AcDbLine
 10
11.05123816813565
 20
14.89687420488751
 30
0.0
 11
11.03985025858688
 21
14.90399654267345
 31
0.0
  0
LINE
  5
A40
330
1E
100
AcDbEntity
  8
OBJECT2
  6
CONTINUOUS
100
AcDbLine
 10
11.05123816813565
 20
14.89687420488751
 30
0.0
 11
11.06835678720779
 21
14.90399654267345
 31
0.0
  0
LINE
  5
A41
330
1E
100
AcDbEntity
  8
OBJECT1
  6
CONTINUOUS
100
AcDbLine
 10
11.02465804305989
 20
14.86307372936186
 30
0.0
 11
11.04712643583767
 21
14.86307372936186
 31
0.0
  0
LINE
  5
A42
330
1E
100
AcDbEntity
  8
OBJECT1
  6
CONTINUOUS
100
AcDbLine
 10
11.02465804305989
 20
14.86307372936186
 30
0.0
 11
11.02465804305989
 21
14.89687420488751
 31
0.0
  0
LINE
  5
A43
330
1E
100
AcDbEntity
  8
OBJECT2
  6
CONTINUOUS
100
AcDbLine
 10
11.05123816813565
 20
14.89687420488751
 30
0.0
 11
11.05123816813565
 21
14.86307372936186
 31
0.0
  0
LINE
  5
A44
330
1E
100
AcDbEntity
  8
OBJECT1
  6
CONTINUOUS
100
AcDbLine
 10
11.13097879597288
 20
14.89687420488751
 30
0.0
 11
11.12385671079691
 21
14.90399654267345
 31
0.0
  0
LINE
  5
A45
330
1E
100
AcDbEntity
  8
OBJECT1
  6
CONTINUOUS
100
AcDbLine
 10
11.13097879597288
 20
14.86307372936186
 30
0.0
 11
11.13097879597288
 21
14.89687420488751
 31
0.0
  0
LINE
  5
A46
330
1E
100
AcDbEntity
  8
OBJECT2
  6
CONTINUOUS
100
AcDbLine
 10
11.10439867089713
 20
14.89687420488751
 30
0.0
 11
11.10439867089713
 21
14.86307372936186
 31
0.0
  0
LINE
  5
A47
330
1E
100
AcDbEntity
  8
OBJECT2
  6
CONTINUOUS
100
AcDbLine
 10
11.10439867089713
 20
14.89687420488751
 30
0.0
 11
11.11578683305585
 21
14.90399654267345
 31
0.0
  0
LINE
  5
A48
330
1E
100
AcDbEntity
  8
OBJECT1
  6
CONTINUOUS
100
AcDbLine
 10
11.13097879597288
 20
14.86307372936186
 30
0.0
 11
11.10851065580507
 21
14.86307372936186
 31
0.0
  0
LINE
  5
A49
330
1E
100
AcDbEntity
  8
OBJECT1
  6
CONTINUOUS
100
AcDbLine
 10
22.92775089650386
 20
11.1776627603318
 30
0.0
 11
22.92775114911381
 21
11.39288619254863
 31
0.0
  0
LINE
  5
A4A
330
1E
100
AcDbEntity
  8
OBJECT1
  6
CONTINUOUS
100
AcDbLine
 10
23.40771007066959
 20
11.17766276033464
 30
0.0
 11
23.40771007066959
 21
11.39288619254863
 31
0.0
  0
LINE
  5
A4B
330
1E
100
AcDbEntity
  8
OBJECT1
100
AcDbLine
 10
24.19451417098705
 20
10.14319543802364
 30
0.0
 11
24.19451417098705
 21
11.47654720064013
 31
0.0
  0
LINE
  5
A4C
330
1E
100
AcDbEntity
  8
OBJECT1
100
AcDbLine
 10
24.75663362152183
 20
11.47654720064013
 30
0.0
 11
24.75663362152183
 21
10.14319543802364
 31
0.0
  0
LINE
  5
A4D
330
1E
100
AcDbEntity
  8
OBJECT1
100
AcDbLine
 10
20.44132714267257
 20
10.14319543802364
 30
0.0
 11
20.44132714267257
 21
11.47654720064013
 31
0.0
  0
LINE
  5
A4E
330
1E
100
AcDbEntity
  8
OBJECT1
100
AcDbLine
 10
19.87920769213779
 20
11.47654720064013
 30
0.0
 11
19.87920769213779
 21
10.14319543802364
 31
0.0
  0
INSERT
  5
A4F
330
1E
100
AcDbEntity
  8
OBJECT2
100
AcDbBlockReference
  2
*X1
 10
8.693562991675104
 20
9.087127502047216
 30
0.0
 41
0.2526099587135633
 42
0.2526099587135633
 43
0.2526099587135633
1001
ACAD
1000
HATCH
1002
{
1070
    16
1000
AR-CONC
1040
0.25
1040
0.0
1002
}
  0
ARC
  5
A50
330
1E
100
AcDbEntity
  8
OBJECT1
  6
CONTINUOUS
100
AcDbCircle
 10
22.9436653239028
 20
11.1776627603318
 30
0.0
 40
0.0159144273989545
100
AcDbArc
 50
180.0
 51
270.001083
  0
LINE
  5
A54
330
1E
100
AcDbEntity
  8
OBJECT1
100
AcDbLine
 10
19.87920769213779
 20
10.14319543802364
 30
0.0
 11
24.75663362152182
 21
10.14319543802364
 31
0.0
  0
LINE
  5
A5E
330
1E
100
AcDbEntity
  8
OBJECT1
  6
CONTINUOUS
100
AcDbLine
 10
23.23088322587507
 20
11.09859584325729
 30
0.0
 11
23.30338190511093
 21
11.09859584325729
 31
0.0
  0
LINE
  5
A5F
330
1E
100
AcDbEntity
  8
OBJECT2
  6
CONTINUOUS
100
AcDbLine
 10
23.0002502072646
 20
11.16174833293569
 30
0.0
 11
23.33521075990883
 21
11.16174833293569
 31
0.0
  0
LINE
  5
A60
330
1E
100
AcDbEntity
  8
OBJECT1
  6
CONTINUOUS
100
AcDbLine
 10
23.10457824651829
 20
11.09859584325729
 30
0.0
 11
23.10457824651829
 21
11.05643018894883
 31
0.0
  0
LINE
  5
A61
330
1E
100
AcDbEntity
  8
OBJECT1
  6
CONTINUOUS
100
AcDbLine
 10
23.23088322587507
 20
11.09859584325729
 30
0.0
 11
23.23088322587507
 21
11.05643018894883
 31
0.0
  0
LINE
  5
A62
330
1E
100
AcDbEntity
  8
OBJECT1
  6
CONTINUOUS
100
AcDbLine
 10
23.22330492711366
 20
10.98919526972766
 30
0.0
 11
23.22330492711366
 21
11.05643018894883
 31
0.0
  0
LINE
  5
A63
330
1E
100
AcDbEntity
  8
OBJECT1
  6
CONTINUOUS
100
AcDbLine
 10
23.23088322587507
 20
11.05643018894883
 30
0.0
 11
23.22330492711366
 21
11.05643018894883
 31
0.0
  0
LINE
  5
A64
330
1E
100
AcDbEntity
  8
OBJECT1
  6
CONTINUOUS
100
AcDbLine
 10
23.11215654527969
 20
10.98919526972766
 30
0.0
 11
23.11215654527969
 21
11.05643018894883
 31
0.0
  0
LINE
  5
A65
330
1E
100
AcDbEntity
  8
OBJECT1
  6
CONTINUOUS
100
AcDbLine
 10
23.10457824651829
 20
11.05643018894883
 30
0.0
 11
23.11215654527969
 21
11.05643018894883
 31
0.0
  0
LINE
  5
A66
330
1E
100
AcDbEntity
  8
OBJECT1
  6
CONTINUOUS
100
AcDbLine
 10
23.22330492711366
 20
10.98919526972766
 30
0.0
 11
23.11215654527969
 21
10.98919526972766
 31
0.0
  0
LINE
  5
A67
330
1E
100
AcDbEntity
  8
OBJECT2
  6
CONTINUOUS
100
AcDbLine
 10
23.11215654527969
 20
11.05643018894883
 30
0.0
 11
23.22330492711366
 21
11.05643018894883
 31
0.0
  0
LINE
  5
A68
330
1E
100
AcDbEntity
  8
OBJECT1
  6
CONTINUOUS
100
AcDbLine
 10
23.03207906206251
 20
11.09859584325729
 30
0.0
 11
23.10457824651829
 21
11.09859584325729
 31
0.0
  0
ARC
  5
A69
330
1E
100
AcDbEntity
  8
OBJECT1
  6
CONTINUOUS
100
AcDbCircle
 10
23.00025045987456
 20
11.14583466336661
 30
0.0
 40
0.0159141747889958
100
AcDbArc
 50
359.998265
 51
90.001312
  0
LINE
  5
A6A
330
1E
100
AcDbEntity
  8
OBJECT2
  6
CONTINUOUS
100
AcDbLine
 10
23.09194762227763
 20
11.09859584325729
 30
0.0
 11
23.09194762227763
 21
11.16174833293569
 31
0.0
  0
ARC
  5
A6B
330
1E
100
AcDbEntity
  8
OBJECT1
  6
CONTINUOUS
100
AcDbCircle
 10
23.03207880945256
 20
11.11451027065625
 30
0.0
 40
0.0159144273989545
100
AcDbArc
 50
180.0
 51
270.0011900000002
  0
LINE
  5
A6C
330
1E
100
AcDbEntity
  8
OBJECT1
  6
CONTINUOUS
100
AcDbLine
 10
23.01616463466356
 20
11.11451027065625
 30
0.0
 11
23.01616463466356
 21
11.1458341581467
 31
0.0
  0
LINE
  5
A6D
330
1E
100
AcDbEntity
  8
OBJECT1
  6
CONTINUOUS
100
AcDbLine
 10
22.94366557651276
 20
11.16174833293569
 30
0.0
 11
23.0002502072646
 21
11.16174833293569
 31
0.0
  0
LINE
  5
A6E
330
1E
100
AcDbEntity
  8
OBJECT2
  6
CONTINUOUS
100
AcDbLine
 10
23.2435133448958
 20
11.16174833293569
 30
0.0
 11
23.2435133448958
 21
11.09859584325729
 31
0.0
  0
LINE
  5
A6F
330
1E
100
AcDbEntity
  8
OBJECT2
  6
CONTINUOUS
100
AcDbLine
 10
23.23088322587507
 20
11.09859584325729
 30
0.0
 11
23.10457824651829
 21
11.09859584325729
 31
0.0
  0
LINE
  5
A70
330
1E
100
AcDbEntity
  8
OBJECT2
  6
CONTINUOUS
100
AcDbLine
 10
23.23088322587507
 20
11.07671476863352
 30
0.0
 11
23.10457824651829
 21
11.07671476863352
 31
0.0
  0
LINE
  5
A71
330
1E
100
AcDbEntity
  8
OBJECT2
  6
CONTINUOUS
100
AcDbLine
 10
23.11826768540089
 20
11.08765530594541
 30
0.0
 11
23.2171935343825
 21
11.08765530594541
 31
0.0
  0
LINE
  5
A72
330
1E
100
AcDbEntity
  8
OBJECT2
  6
CONTINUOUS
100
AcDbLine
 10
23.11826768540089
 20
11.06577397871169
 30
0.0
 11
23.2171935343825
 21
11.06577397871169
 31
0.0
  0
LINE
  5
A73
330
1E
100
AcDbEntity
  8
OBJECT1
  6
CONTINUOUS
100
AcDbLine
 10
23.39179564327063
 20
11.16174833293569
 30
0.0
 11
23.33521075990883
 21
11.16174833293569
 31
0.0
  0
ARC
  5
A74
330
1E
100
AcDbEntity
  8
OBJECT1
  6
CONTINUOUS
100
AcDbCircle
 10
23.33521050729888
 20
11.1458341581467
 30
0.0
 40
0.0159144273989545
100
AcDbArc
 50
89.99932899999995
 51
180.0
  0
ARC
  5
A75
330
1E
100
AcDbEntity
  8
OBJECT1
  6
CONTINUOUS
100
AcDbCircle
 10
23.30338190511093
 20
11.11451027065625
 30
0.0
 40
0.0159144273989545
100
AcDbArc
 50
270.0002139999998
 51
0.0
  0
LINE
  5
A76
330
1E
100
AcDbEntity
  8
OBJECT1
  6
CONTINUOUS
100
AcDbLine
 10
23.31929633250987
 20
11.11451027065625
 30
0.0
 11
23.31929633250987
 21
11.1458341581467
 31
0.0
  0
ARC
  5
A77
330
1E
100
AcDbEntity
  8
OBJECT1
  6
CONTINUOUS
100
AcDbCircle
 10
23.39179564327063
 20
11.17766276033464
 30
0.0
 40
0.0159144273989545
100
AcDbArc
 50
270.0003279999998
 51
0.0
  0
ARC
  5
A78
330
1E
100
AcDbEntity
  8
OBJECT1
  6
CONTINUOUS
100
AcDbCircle
 10
22.92219385632709
 20
12.00580788153304
 30
0.0
 40
0.008083518678834
100
AcDbArc
 50
270.0008539999999
 51
359.99936
  0
LINE
  5
A79
330
1E
100
AcDbEntity
  8
OBJECT2
  6
CONTINUOUS
100
AcDbLine
 10
22.89193813004707
 20
11.82358642476522
 30
0.0
 11
23.46624535552261
 21
11.82358642476522
 31
0.0
  0
LINE
  5
A7A
330
1E
100
AcDbEntity
  8
OBJECT2
  6
CONTINUOUS
100
AcDbLine
 10
23.42918204346522
 20
11.96614811801502
 30
0.0
 11
22.90627942892814
 21
11.96614811801502
 31
0.0
  0
LINE
  5
A7B
330
1E
100
AcDbEntity
  8
OBJECT2
  6
CONTINUOUS
100
AcDbLine
 10
22.79892007016989
 20
11.91199991031496
 30
0.0
 11
23.53654114961351
 21
11.91199991031496
 31
0.0
  0
LINE
  5
A7C
330
1E
100
AcDbEntity
  8
OBJECT2
  6
CONTINUOUS
100
AcDbLine
 10
22.85049279303588
 20
11.93457187317582
 30
0.0
 11
23.48378292821127
 21
11.93457162056585
 31
0.0
  0
LINE
  5
A7D
330
1E
100
AcDbEntity
  8
OBJECT2
  6
CONTINUOUS
100
AcDbLine
 10
23.49031314825398
 20
11.92463040825064
 30
0.0
 11
22.85702276046862
 21
11.92463040825064
 31
0.0
  0
LINE
  5
A7E
330
1E
100
AcDbEntity
  8
OBJECT2
  6
CONTINUOUS
100
AcDbLine
 10
23.41326761606626
 20
11.99772411024425
 30
0.0
 11
22.92219385632709
 21
11.99772411024425
 31
0.0
  0
ARC
  5
A7F
330
1E
100
AcDbEntity
  8
OBJECT1
  6
CONTINUOUS
100
AcDbCircle
 10
22.91259480420096
 20
11.3928864451586
 30
0.0
 40
0.0151563449128551
100
AcDbArc
 50
359.9990839999999
 51
90.00140400000011
  0
ARC
  5
A80
330
1E
100
AcDbEntity
  8
OBJECT2
100
AcDbCircle
 10
23.04612938050319
 20
11.27841156647586
 30
0.0
 40
0.1986549424905551
100
AcDbArc
 50
91.94541918063087
 51
133.8139764889758
  0
LINE
  5
A81
330
1E
100
AcDbEntity
  8
OBJECT1
100
AcDbLine
 10
20.44132714267257
 20
13.11094693979484
 30
0.0
 11
24.19451417098705
 21
13.11094693979484
 31
0.0
  0
LINE
  5
A82
330
1E
100
AcDbEntity
  8
OBJECT1
100
AcDbLine
 10
24.75663362152183
 20
13.43797587277739
 30
0.0
 11
19.87920769213779
 21
13.43797587277739
 31
0.0
  0
ARC
  5
A83
330
1E
100
AcDbEntity
  8
OBJECT2
100
AcDbCircle
 10
19.56684705766643
 20
13.46486613912773
 30
0.0
 40
0.3135159523720282
100
AcDbArc
 50
355.0796951004409
 51
66.01100297814159
  0
ARC
  5
A84
330
1E
100
AcDbEntity
  8
OBJECT2
100
AcDbCircle
 10
18.72241810543817
 20
13.46132048356942
 30
0.0
 40
0.1793274936136985
100
AcDbArc
 50
0.9207694437823803
 51
86.60447613714017
  0
ARC
  5
A85
330
1E
100
AcDbEntity
  8
OBJECT2
100
AcDbCircle
 10
18.70233015100698
 20
13.48526764494137
 30
0.0
 40
0.2872392904231438
100
AcDbArc
 50
355.2258859347425
 51
50.11382420268263
  0
ARC
  5
A86
330
1E
100
AcDbEntity
  8
OBJECT2
100
AcDbCircle
 10
18.24249502911472
 20
13.54392948446942
 30
0.0
 40
0.6640310366445393
100
AcDbArc
 50
353.10411448
 51
14.09774513797332
  0
ARC
  5
A87
330
1E
100
AcDbEntity
  8
OBJECT2
100
AcDbCircle
 10
18.67214311537647
 20
13.48838328182744
 30
0.0
 40
0.1636982622175283
100
AcDbArc
 50
353.5111851103284
 51
68.16079043167333
  0
ARC
  5
A88
330
1E
100
AcDbEntity
  8
OBJECT2
100
AcDbCircle
 10
18.67742139582134
 20
13.40446243506669
 30
0.0
 40
0.1704279783370109
100
AcDbArc
 50
22.57333003010367
 51
110.9433271923136
  0
ARC
  5
A89
330
1E
100
AcDbEntity
  8
OBJECT2
100
AcDbCircle
 10
18.58642927031124
 20
13.3157461892915
 30
0.0
 40
0.2497024193359457
100
AcDbArc
 50
35.43254208632028
 51
83.08263043591514
  0
ARC
  5
A8A
330
1E
100
AcDbEntity
  8
OBJECT2
100
AcDbCircle
 10
18.04133814897406
 20
13.67884375731936
 30
0.0
 40
0.9718807622878721
100
AcDbArc
 50
347.0691615938407
 51
4.846234667863125
  0
ARC
  5
A8B
330
1E
100
AcDbEntity
  8
OBJECT2
100
AcDbCircle
 10
18.70215984283418
 20
13.55183976534088
 30
0.0
 40
0.3719347136650086
100
AcDbArc
 50
351.7747553097796
 51
34.20969277331895
  0
ARC
  5
A8C
330
1E
100
AcDbEntity
  8
OBJECT2
100
AcDbCircle
 10
19.36273932495486
 20
13.44494696287536
 30
0.0
 40
0.2973565087348886
100
AcDbArc
 50
114.3349078291702
 51
169.5993313657427
  0
ARC
  5
A8D
330
1E
100
AcDbEntity
  8
OBJECT2
100
AcDbCircle
 10
19.68932918735397
 20
13.42626944541491
 30
0.0
 40
0.5344031065131995
100
AcDbArc
 50
147.1841746253621
 51
178.7448004574561
  0
ARC
  5
A8E
330
1E
100
AcDbEntity
  8
OBJECT2
100
AcDbCircle
 10
19.83251517868654
 20
13.0506287326368
 30
0.0
 40
0.7288466831298183
100
AcDbArc
 50
133.3987203877799
 51
147.8963763322294
  0
ARC
  5
A8F
330
1E
100
AcDbEntity
  8
OBJECT2
100
AcDbCircle
 10
19.32134078568132
 20
13.41226033424893
 30
0.0
 40
0.168263125592434
100
AcDbArc
 50
86.45478000105233
 51
171.2090746183715
  0
ARC
  5
A90
330
1E
100
AcDbEntity
  8
OBJECT2
100
AcDbCircle
 10
19.48587923926063
 20
13.24404620139074
 30
0.0
 40
0.2976538477662888
100
AcDbArc
 50
44.07042786521969
 51
106.8996241576291
  0
ARC
  5
A91
330
1E
100
AcDbEntity
  8
OBJECT2
100
AcDbCircle
 10
19.44016015015739
 20
13.36476835980693
 30
0.0
 40
0.2735515459230242
100
AcDbArc
 50
18.39168483556861
 51
81.84305771154738
  0
ARC
  5
A92
330
1E
100
AcDbEntity
  8
OBJECT2
100
AcDbCircle
 10
19.4999211451994
 20
13.29942069593156
 30
0.0
 40
0.3367838488089027
100
AcDbArc
 50
35.01711252289263
 51
93.56612626301762
  0
ARC
  5
A93
330
1E
100
AcDbEntity
  8
OBJECT2
100
AcDbCircle
 10
19.27200202890532
 20
13.47620270917098
 30
0.0
 40
0.504007817612547
100
AcDbArc
 50
1.872836715457743
 51
33.08091279288323
  0
ARC
  5
A94
330
1E
100
AcDbEntity
  8
OBJECT2
100
AcDbCircle
 10
19.32503508638578
 20
13.06560910003115
 30
0.0
 40
0.4691604346986301
100
AcDbArc
 50
52.53146195270024
 51
80.88566672241134
  0
LINE
  5
A95
330
1E
100
AcDbEntity
  8
OBJECT2
100
AcDbLine
 10
20.44132714267257
 20
13.11094693979484
 30
0.0
 11
20.1683790567033
 21
13.11094693979484
 31
0.0
  0
LINE
  5
A96
330
1E
100
AcDbEntity
  8
OBJECT1
100
AcDbLine
 10
21.20978211934631
 20
11.47654720064013
 30
0.0
 11
18.69946691818581
 21
11.47654720064013
 31
0.0
  0
LINE
  5
A97
330
1E
100
AcDbEntity
  8
OBJECT1
100
AcDbLine
 10
21.20978211934631
 20
11.73710148994527
 30
0.0
 11
18.69946691818581
 21
11.73710148994527
 31
0.0
  0
LINE
  5
A98
330
1E
100
AcDbEntity
  8
OBJECT1
100
AcDbLine
 10
19.87920769213779
 20
13.43797587277739
 30
0.0
 11
19.87920769213779
 21
11.73710148994527
 31
0.0
  0
ARC
  5
A99
330
1E
100
AcDbEntity
  8
OBJECT1
100
AcDbCircle
 10
18.70741672635961
 20
11.54168577296641
 30
0.0
 40
0.0656218946290567
100
AcDbArc
 50
96.95822685954778
 51
263.0417731404522
  0
ARC
  5
A9A
330
1E
100
AcDbEntity
  8
OBJECT2
100
AcDbCircle
 10
18.69151711001201
 20
11.67196291761899
 30
0.0
 40
0.0656218946290567
100
AcDbArc
 50
276.9582268595477
 51
83.04177314045222
  0
ARC
  5
A9B
330
1E
100
AcDbEntity
  8
OBJECT1
100
AcDbCircle
 10
18.70741672635961
 20
11.67196291761899
 30
0.0
 40
0.0656218946290567
100
AcDbArc
 50
96.95822685954778
 51
263.0417731404522
  0
ARC
  5
A9C
330
1E
100
AcDbEntity
  8
OBJECT2
100
AcDbCircle
 10
18.62122268658749
 20
13.14421269986919
 30
0.0
 40
0.3280104949863258
100
AcDbArc
 50
63.58441388956841
 51
90.46871244709187
  0
ARC
  5
A9D
330
1E
100
AcDbEntity
  8
OBJECT2
100
AcDbCircle
 10
18.69753622137706
 20
13.36860140021876
 30
0.0
 40
0.1302908259783106
100
AcDbArc
 50
44.86257011074342
 51
127.3232719025909
  0
INSERT
  5
A9E
330
1E
100
AcDbEntity
  8
OBJECT2
100
AcDbBlockReference
  2
*X0
 10
8.693562991675104
 20
9.087127502047216
 30
0.0
 41
0.2526099587135633
 42
0.2526099587135633
 43
0.2526099587135633
1001
ACAD
1000
HATCH
1002
{
1070
    16
1000
EARTH
1040
2.5
1040
0.0
1002
}
  0
ARC
  5
A9F
330
1E
100
AcDbEntity
  8
OBJECT2
100
AcDbCircle
 10
19.52267634035124
 20
12.83704868575813
 30
0.0
 40
0.6458971543014207
100
AcDbArc
 50
97.97225468129248
 51
111.5065032218025
  0
ARC
  5
AA0
330
1E
100
AcDbEntity
  8
OBJECT2
100
AcDbCircle
 10
19.35628213531614
 20
13.27623811792179
 30
0.0
 40
0.2146776813795378
100
AcDbArc
 50
69.03463460073843
 51
131.1144055157058
  0
LINE
  5
AA1
330
1E
100
AcDbEntity
  8
OBJECT2
100
AcDbLine
 10
20.1683790567033
 20
13.43797587277739
 30
0.0
 11
20.1683790567033
 21
13.11094693979484
 31
0.0
  0
LINE
  5
AA2
330
1E
100
AcDbEntity
  8
OBJECT1
100
AcDbLine
 10
20.44132714267257
 20
11.73710148994527
 30
0.0
 11
20.44132714267257
 21
13.11094693979484
 31
0.0
  0
LINE
  5
AA3
330
1E
100
AcDbEntity
  8
OBJECT2
  6
CONTINUOUS
100
AcDbLine
 10
21.54260377176649
 20
12.11638283546476
 30
0.0
 11
21.565043802698
 21
12.10994467972146
 31
0.0
  0
LINE
  5
AA4
330
1E
100
AcDbEntity
  8
OBJECT1
  6
CONTINUOUS
100
AcDbLine
 10
21.68847307149732
 20
12.11641350137278
 30
0.0
 11
21.54260377176649
 21
12.11638283546476
 31
0.0
  0
LINE
  5
AA5
330
1E
100
AcDbEntity
  8
OBJECT2
  6
CONTINUOUS
100
AcDbLine
 10
21.56506435896601
 20
12.03861476671288
 30
0.0
 11
21.54268633382653
 21
12.03217694795756
 31
0.0
  0
LINE
  5
AA6
330
1E
100
AcDbEntity
  8
OBJECT2
  6
CONTINUOUS
100
AcDbLine
 10
21.55236445731003
 20
11.97467865655247
 30
0.0
 11
21.61559081987847
 21
11.98129137207986
 31
0.0
  0
LINE
  5
AA7
330
1E
100
AcDbEntity
  8
OBJECT1
  6
CONTINUOUS
100
AcDbLine
 10
21.56499341960452
 20
11.98131192834786
 30
0.0
 11
21.52414508217556
 21
11.98131192834786
 31
0.0
  0
LINE
  5
AA8
330
1E
100
AcDbEntity
  8
OBJECT1
  6
CONTINUOUS
100
AcDbLine
 10
21.44707625130084
 20
11.99995675137573
 30
0.0
 11
21.56499341960452
 21
11.99995675137579
 31
0.0
  0
ARC
  5
AA9
330
1E
100
AcDbEntity
  8
OBJECT2
  6
CONTINUOUS
100
AcDbCircle
 10
21.61557026361046
 20
12.20179037131697
 30
0.0
 40
0.3850236176695017
100
AcDbArc
 50
250.8395390000001
 51
289.1604609999999
  0
LINE
  5
AAA
330
1E
100
AcDbEntity
  8
OBJECT2
  6
CONTINUOUS
100
AcDbLine
 10
21.53130270729923
 20
11.93921909423427
 30
0.0
 11
21.69981726365368
 21
11.93921909423427
 31
0.0
  0
LINE
  5
AAB
330
1E
100
AcDbEntity
  8
OBJECT2
  6
CONTINUOUS
100
AcDbLine
 10
21.69979670738566
 20
11.95604389411891
 30
0.0
 11
21.53132326356725
 21
11.95604389411891
 31
0.0
  0
LINE
  5
AAC
330
1E
100
AcDbEntity
  8
OBJECT2
  6
CONTINUOUS
100
AcDbLine
 10
21.54268633382653
 20
12.03217694795756
 30
0.0
 11
21.6885312793248
 21
12.03219276928744
 31
0.0
  0
LINE
  5
AAD
330
1E
100
AcDbEntity
  8
OBJECT1
  6
CONTINUOUS
100
AcDbLine
 10
21.5337708074125
 20
11.38184397484037
 30
0.0
 11
21.76213881344165
 21
11.38185408448037
 31
0.0
  0
LINE
  5
AAE
330
1E
100
AcDbEntity
  8
OBJECT2
  6
CONTINUOUS
100
AcDbLine
 10
21.53294821970408
 20
11.37475812816074
 30
0.0
 11
21.5329687759721
 21
11.79936637825854
 31
0.0
  0
LINE
  5
AAF
330
1E
100
AcDbEntity
  8
OBJECT2
  6
CONTINUOUS
100
AcDbLine
 10
21.34191140734608
 20
11.37476823780074
 30
0.0
 11
21.34191140734608
 21
11.83810618177042
 31
0.0
  0
LINE
  5
AB0
330
1E
100
AcDbEntity
  8
OBJECT1
  6
CONTINUOUS
100
AcDbLine
 10
21.23117276964528
 20
11.83064021262659
 30
0.0
 11
21.20978211934631
 21
11.77477703786192
 31
0.0
  0
LINE
  5
AB1
330
1E
100
AcDbEntity
  8
OBJECT2
100
AcDbLine
 10
21.20978211934631
 20
11.73710123733531
 30
0.0
 11
21.20978211934631
 21
11.47618091619998
 31
0.0
  0
LINE
  5
AB2
330
1E
100
AcDbEntity
  8
OBJECT2
100
AcDbLine
 10
21.15277562996343
 20
11.47618091619998
 30
0.0
 11
21.15277562996343
 21
11.73673495289519
 31
0.0
  0
LINE
  5
AB3
330
1E
100
AcDbEntity
  8
OBJECT2
  6
CONTINUOUS
100
AcDbLine
 10
21.20978211934631
 20
11.43813883123325
 30
0.0
 11
21.23106998830524
 21
11.49432045965807
 31
0.0
  0
LINE
  5
AB4
330
1E
100
AcDbEntity
  8
OBJECT1
  6
CONTINUOUS
100
AcDbLine
 10
21.20978211934631
 20
11.43813883123325
 30
0.0
 11
21.23117276964528
 21
11.38221398766457
 31
0.0
  0
LINE
  5
AB5
330
1E
100
AcDbEntity
  8
OBJECT1
  6
CONTINUOUS
100
AcDbLine
 10
21.20978211934631
 20
11.43813883123325
 30
0.0
 11
21.20978211934631
 21
11.47666062251159
 31
0.0
  0
LINE
  5
AB6
330
1E
100
AcDbEntity
  8
OBJECT1
  6
CONTINUOUS
100
AcDbLine
 10
21.34191140734608
 20
11.37476823780074
 30
0.0
 11
21.53294821970408
 21
11.37475812816074
 31
0.0
  0
LINE
  5
AB7
330
1E
100
AcDbEntity
  8
OBJECT1
  6
CONTINUOUS
100
AcDbLine
 10
21.23117276964528
 20
11.38221398766457
 30
0.0
 11
21.34090381322557
 21
11.38221398766457
 31
0.0
  0
LINE
  5
AB8
330
1E
100
AcDbEntity
  8
OBJECT2
  6
CONTINUOUS
100
AcDbLine
 10
21.21004935083044
 20
11.64169104092966
 30
0.0
 11
21.23111110084125
 21
11.71854385027308
 31
0.0
  0
LINE
  5
AB9
330
1E
100
AcDbEntity
  8
OBJECT2
  6
CONTINUOUS
100
AcDbLine
 10
21.20978211934631
 20
11.77477703786192
 30
0.0
 11
21.23111110084125
 21
11.71854385027308
 31
0.0
  0
LINE
  5
ABA
330
1E
100
AcDbEntity
  8
OBJECT2
  6
CONTINUOUS
100
AcDbLine
 10
21.21002879456244
 20
11.57117326900149
 30
0.0
 11
21.23106998830524
 21
11.49432045965807
 31
0.0
  0
LINE
  5
ABB
330
1E
100
AcDbEntity
  8
OBJECT2
100
AcDbLine
 10
21.12198778080538
 20
11.51513842403281
 30
0.0
 11
21.12198778080538
 21
11.69777744506238
 31
0.0
  0
LINE
  5
ABC
330
1E
100
AcDbEntity
  8
OBJECT2
100
AcDbLine
 10
21.18356373173143
 20
11.51513842403281
 30
0.0
 11
21.18356373173143
 21
11.69777744506238
 31
0.0
  0
LINE
  5
ABD
330
1E
100
AcDbEntity
  8
OBJECT1
  6
CONTINUOUS
100
AcDbLine
 10
21.20978211934631
 20
11.73710123733531
 30
0.0
 11
21.20978211934631
 21
11.77477703786192
 31
0.0
  0
LINE
  5
ABE
330
1E
100
AcDbEntity
  8
OBJECT2
  6
CONTINUOUS
100
AcDbLine
 10
21.23106998830524
 20
11.49432045965807
 30
0.0
 11
21.34191140734608
 21
11.49428979375006
 31
0.0
  0
LINE
  5
ABF
330
1E
100
AcDbEntity
  8
OBJECT2
  6
CONTINUOUS
100
AcDbLine
 10
21.23111110084125
 20
11.71854385027308
 30
0.0
 11
21.34191140734608
 21
11.71853374063307
 31
0.0
  0
LINE
  5
AC0
330
1E
100
AcDbEntity
  8
OBJECT1
  6
CONTINUOUS
100
AcDbLine
 10
21.52119256519951
 20
12.11057215137778
 30
0.0
 11
21.52121312146751
 21
12.03800785132457
 31
0.0
  0
ARC
  5
AC1
330
1E
100
AcDbEntity
  8
OBJECT1
  6
CONTINUOUS
100
AcDbCircle
 10
21.22158950489636
 20
12.03218633275797
 30
0.0
 40
0.0067060612034399
100
AcDbArc
 50
89.48515299999993
 51
180.1702269999999
  0
ARC
  5
AC2
330
1E
100
AcDbEntity
  8
OBJECT1
  6
CONTINUOUS
100
AcDbCircle
 10
21.22164510791638
 20
11.99996320319344
 30
0.0
 40
0.0067424559074586
100
AcDbArc
 50
179.9672239999999
 51
269.8648069999999
  0
LINE
  5
AC3
330
1E
100
AcDbEntity
  8
OBJECT1
  6
CONTINUOUS
100
AcDbLine
 10
21.21488276971692
 20
12.03216645046595
 30
0.0
 11
21.21490332598493
 21
11.99996724704943
 31
0.0
  0
LINE
  5
AC4
330
1E
100
AcDbEntity
  8
OBJECT1
  6
CONTINUOUS
100
AcDbLine
 10
21.48917920727762
 20
11.93919853796627
 30
0.0
 11
21.48919976354564
 21
11.8380960721304
 31
0.0
  0
LINE
  5
AC5
330
1E
100
AcDbEntity
  8
OBJECT1
  6
CONTINUOUS
100
AcDbLine
 10
21.48919976354564
 20
11.8380960721304
 30
0.0
 11
21.34191140734608
 21
11.83810618177042
 31
0.0
  0
LINE
  5
AC6
330
1E
100
AcDbEntity
  8
OBJECT1
  6
CONTINUOUS
100
AcDbLine
 10
21.34092436949358
 20
11.83060920973056
 30
0.0
 11
21.23117276964528
 21
11.83064021262659
 31
0.0
  0
LINE
  5
AC7
330
1E
100
AcDbEntity
  8
OBJECT1
  6
CONTINUOUS
100
AcDbLine
 10
21.22271908867295
 20
12.03890250360142
 30
0.0
 11
21.44032976376057
 21
12.0388923939614
 31
0.0
  0
LINE
  5
AC8
330
1E
100
AcDbEntity
  8
OBJECT1
  6
CONTINUOUS
100
AcDbLine
 10
21.22162926948039
 20
11.99322074728598
 30
0.0
 11
21.44032976376057
 21
11.99321063764597
 31
0.0
  0
LINE
  5
AC9
330
1E
100
AcDbEntity
  8
OBJECT2
  6
CONTINUOUS
100
AcDbLine
 10
21.55236445731003
 20
11.97467865655247
 30
0.0
 11
21.55238501357805
 21
11.95604389411891
 31
0.0
  0
LINE
  5
ACA
330
1E
100
AcDbEntity
  8
OBJECT2
  6
CONTINUOUS
100
AcDbLine
 10
21.55236445731003
 20
11.97467865655247
 30
0.0
 11
21.52414508217556
 21
11.98131192834786
 31
0.0
  0
LINE
  5
ACB
330
1E
100
AcDbEntity
  8
OBJECT1
  6
CONTINUOUS
100
AcDbLine
 10
21.54268633382653
 20
12.03217694795756
 30
0.0
 11
21.52121312146751
 21
12.03800785132457
 31
0.0
  0
LINE
  5
ACC
330
1E
100
AcDbEntity
  8
OBJECT1
  6
CONTINUOUS
100
AcDbLine
 10
21.49596681957711
 20
11.97463754401644
 30
0.0
 11
21.52414508217556
 21
11.98131192834786
 31
0.0
  0
LINE
  5
ACD
330
1E
100
AcDbEntity
  8
OBJECT1
  6
CONTINUOUS
100
AcDbLine
 10
21.49596681957711
 20
11.97463754401644
 30
0.0
 11
21.49594626330909
 21
11.95607489701492
 31
0.0
  0
LINE
  5
ACE
330
1E
100
AcDbEntity
  8
OBJECT1
  6
CONTINUOUS
100
AcDbLine
 10
21.49594626330909
 20
11.95607489701492
 30
0.0
 11
21.53132326356725
 21
11.95604389411891
 31
0.0
  0
LINE
  5
ACF
330
1E
100
AcDbEntity
  8
OBJECT1
  6
CONTINUOUS
100
AcDbLine
 10
21.53132326356725
 20
11.95604389411891
 30
0.0
 11
21.53130270729923
 21
11.93921909423427
 31
0.0
  0
LINE
  5
AD0
330
1E
100
AcDbEntity
  8
OBJECT1
  6
CONTINUOUS
100
AcDbLine
 10
21.53130270729923
 20
11.93921909423427
 30
0.0
 11
21.48917920727762
 21
11.93919853796627
 31
0.0
  0
ARC
  5
AD1
330
1E
100
AcDbEntity
  8
OBJECT1
  6
CONTINUOUS
100
AcDbCircle
 10
21.4403873887086
 20
12.03220385613398
 30
0.0
 40
0.0066888748154311
100
AcDbArc
 50
359.6806639999999
 51
90.49277499999986
  0
LINE
  5
AD2
330
1E
100
AcDbEntity
  8
OBJECT2
  6
CONTINUOUS
100
AcDbLine
 10
21.44707615963434
 20
12.03216657611985
 30
0.0
 11
21.44707625130084
 21
11.99995675137568
 31
0.0
  0
ARC
  5
AD3
330
1E
100
AcDbEntity
  8
OBJECT1
  6
CONTINUOUS
100
AcDbCircle
 10
21.44031695821656
 20
11.99996960596544
 30
0.0
 40
0.0067593053074673
100
AcDbArc
 50
270.1089779999997
 51
359.891037
  0
LINE
  5
AD4
330
1E
100
AcDbEntity
  8
OBJECT1
  6
CONTINUOUS
100
AcDbLine
 10
21.44707615963434
 20
12.03216657611985
 30
0.0
 11
21.54268633382653
 21
12.03217694795756
 31
0.0
  0
LINE
  5
AD5
330
1E
100
AcDbEntity
  8
OBJECT1
  6
CONTINUOUS
100
AcDbLine
 10
21.52119256519951
 20
12.11057215137778
 30
0.0
 11
21.54260377176649
 21
12.11638283546476
 31
0.0
  0
LINE
  5
AD6
330
1E
100
AcDbEntity
  8
OBJECT2
100
AcDbLine
 10
22.70600936952517
 20
11.8248499797787
 30
0.0
 11
22.70600936952517
 21
11.40463028213919
 31
0.0
  0
LWPOLYLINE
  5
AD7
330
1E
100
AcDbEntity
  8
OBJECT2
  6
CONTINUOUS
100
AcDbPolyline
 90
        2
 70
     0
 43
0.0
 10
22.68709034995413
 20
11.74636096912349
 10
22.70600936952517
 20
11.81179083989955
  0
LINE
  5
AD8
330
1E
100
AcDbEntity
  8
OBJECT2
  6
CONTINUOUS
100
AcDbLine
 10
22.71497727566946
 20
11.38909729577789
 30
0.0
 11
22.72394543442371
 21
11.8248499797787
 31
0.0
  0
LINE
  5
AD9
330
1E
100
AcDbEntity
  8
OBJECT2
100
AcDbLine
 10
22.52987260358703
 20
11.78946405935038
 30
0.0
 11
22.52987260358703
 21
11.42448321620623
 31
0.0
  0
LWPOLYLINE
  5
ADA
330
1E
100
AcDbEntity
  8
OBJECT2
  6
CONTINUOUS
100
AcDbPolyline
 90
        2
 70
     0
 43
0.0
 10
22.54879162315807
 20
11.74636096912349
 10
22.52987260358703
 20
11.81179083989955
  0
LINE
  5
ADB
330
1E
100
AcDbEntity
  8
OBJECT2
  6
CONTINUOUS
100
AcDbLine
 10
21.76213881344165
 20
11.8170343221196
 30
0.0
 11
21.76213881344165
 21
11.38185408448037
 31
0.0
  0
LWPOLYLINE
  5
ADC
330
1E
100
AcDbEntity
  8
OBJECT1
  6
CONTINUOUS
100
AcDbPolyline
 90
        2
 70
     0
 43
0.0
 10
22.40205932957204
 20
11.73725078243086
 10
22.40205932957204
 20
11.7823318933416
  0
LINE
  5
ADD
330
1E
100
AcDbEntity
  8
OBJECT1
  6
CONTINUOUS
100
AcDbLine
 10
21.94668941182125
 20
11.8380960721304
 30
0.0
 11
21.96972591151306
 21
11.77477703786192
 31
0.0
  0
LINE
  5
ADE
330
1E
100
AcDbEntity
  8
OBJECT1
100
AcDbLine
 10
22.40205932957204
 20
11.73710148994527
 30
0.0
 11
21.96972821189765
 21
11.73710148994527
 31
0.0
  0
LINE
  5
ADF
330
1E
100
AcDbEntity
  8
OBJECT1
100
AcDbLine
 10
22.40205932957204
 20
11.47654720064013
 30
0.0
 11
21.96972821191308
 21
11.47654720064013
 31
0.0
  0
LINE
  5
AE0
330
1E
100
AcDbEntity
  8
OBJECT2
100
AcDbLine
 10
22.02673470129596
 20
11.47654720064013
 30
0.0
 11
22.02673470129596
 21
11.73710123733531
 31
0.0
  0
LINE
  5
AE1
330
1E
100
AcDbEntity
  8
OBJECT2
100
AcDbLine
 10
21.96972821191308
 20
11.47654720064013
 30
0.0
 11
21.96972821191308
 21
11.73710123733531
 31
0.0
  0
LINE
  5
AE2
330
1E
100
AcDbEntity
  8
OBJECT2
  6
CONTINUOUS
100
AcDbLine
 10
21.81809782384728
 20
11.56751223136761
 30
0.0
 11
21.83918013012609
 21
11.49063886575618
 31
0.0
  0
LINE
  5
AE3
330
1E
100
AcDbEntity
  8
OBJECT2
  6
CONTINUOUS
100
AcDbLine
 10
21.96974646778107
 20
11.56751223136761
 30
0.0
 11
21.94866416150226
 21
11.49063886575618
 31
0.0
  0
LINE
  5
AE4
330
1E
100
AcDbEntity
  8
OBJECT1
  6
CONTINUOUS
100
AcDbLine
 10
21.94668941182125
 20
11.37475812816074
 30
0.0
 11
21.84117509908712
 21
11.37474768153272
 31
0.0
  0
LINE
  5
AE5
330
1E
100
AcDbEntity
  8
OBJECT2
  6
CONTINUOUS
100
AcDbLine
 10
21.83918013012609
 20
11.49063886575618
 30
0.0
 11
21.94866416150226
 21
11.49063886575618
 31
0.0
  0
LINE
  5
AE6
330
1E
100
AcDbEntity
  8
OBJECT1
  6
CONTINUOUS
100
AcDbLine
 10
21.84117509908712
 20
11.37474768153272
 30
0.0
 11
21.94670996808926
 21
11.37474768153272
 31
0.0
  0
LINE
  5
AE7
330
1E
100
AcDbEntity
  8
OBJECT2
  6
CONTINUOUS
100
AcDbLine
 10
21.83918013012609
 20
11.49063886575618
 30
0.0
 11
21.81809782384728
 21
11.43810782833723
 31
0.0
  0
LINE
  5
AE8
330
1E
100
AcDbEntity
  8
OBJECT1
  6
CONTINUOUS
100
AcDbLine
 10
21.83348267400717
 20
11.39579932190352
 30
0.0
 11
21.84117509908712
 21
11.37474768153272
 31
0.0
  0
LINE
  5
AE9
330
1E
100
AcDbEntity
  8
OBJECT1
  6
CONTINUOUS
100
AcDbLine
 10
21.83348267400717
 20
11.39579932190352
 30
0.0
 11
21.76217992597766
 21
11.39579932190352
 31
0.0
  0
LINE
  5
AEA
330
1E
100
AcDbEntity
  8
OBJECT1
  6
CONTINUOUS
100
AcDbLine
 10
21.96974646778107
 20
11.43810782833723
 30
0.0
 11
21.96974411383379
 21
11.47666062251159
 31
0.0
  0
LINE
  5
AEB
330
1E
100
AcDbEntity
  8
OBJECT2
  6
CONTINUOUS
100
AcDbLine
 10
21.94866416150226
 20
11.49063886575618
 30
0.0
 11
21.96974646778107
 21
11.43810782833723
 31
0.0
  0
LINE
  5
AEC
330
1E
100
AcDbEntity
  8
OBJECT1
  6
CONTINUOUS
100
AcDbLine
 10
21.94670996808926
 20
11.37474768153272
 30
0.0
 11
21.96974646778107
 21
11.43810782833723
 31
0.0
  0
LINE
  5
AED
330
1E
100
AcDbEntity
  8
OBJECT2
  6
CONTINUOUS
100
AcDbLine
 10
21.83915957385808
 20
11.72219477826694
 30
0.0
 11
21.94868471777027
 21
11.72218433163895
 31
0.0
  0
LINE
  5
AEE
330
1E
100
AcDbEntity
  8
OBJECT2
  6
CONTINUOUS
100
AcDbLine
 10
21.81807726757926
 20
11.64537263483155
 30
0.0
 11
21.83915957385808
 21
11.72218433163895
 31
0.0
  0
LINE
  5
AEF
330
1E
100
AcDbEntity
  8
OBJECT2
  6
CONTINUOUS
100
AcDbLine
 10
21.83915957385808
 20
11.72218433163895
 30
0.0
 11
21.81811838011528
 21
11.77477703786192
 31
0.0
  0
LINE
  5
AF0
330
1E
100
AcDbEntity
  8
OBJECT2
100
AcDbLine
 10
22.05752255045401
 20
11.51550496108289
 30
0.0
 11
22.05752255045401
 21
11.69814372950251
 31
0.0
  0
LINE
  5
AF1
330
1E
100
AcDbEntity
  8
OBJECT2
100
AcDbLine
 10
21.99594659952795
 20
11.51550496108289
 30
0.0
 11
21.99594659952795
 21
11.69814372950251
 31
0.0
  0
LINE
  5
AF2
330
1E
100
AcDbEntity
  8
OBJECT1
  6
CONTINUOUS
100
AcDbLine
 10
21.96972821191308
 20
11.73710123733531
 30
0.0
 11
21.96972591151306
 21
11.77477703786192
 31
0.0
  0
LINE
  5
AF3
330
1E
100
AcDbEntity
  8
OBJECT2
  6
CONTINUOUS
100
AcDbLine
 10
21.96976702404908
 20
11.64537263483155
 30
0.0
 11
21.94868471777027
 21
11.72218433163895
 31
0.0
  0
LINE
  5
AF4
330
1E
100
AcDbEntity
  8
OBJECT2
  6
CONTINUOUS
100
AcDbLine
 10
21.94868471777027
 20
11.72218433163895
 30
0.0
 11
21.96972591151306
 21
11.77477703786192
 31
0.0
  0
LINE
  5
AF5
330
1E
100
AcDbEntity
  8
OBJECT2
  6
CONTINUOUS
100
AcDbLine
 10
22.72973702294713
 20
11.39459863545876
 30
0.0
 11
22.73579991456622
 21
11.56329005022792
 31
0.0
  0
LWPOLYLINE
  5
AF6
330
1E
100
AcDbEntity
  8
OBJECT2
  6
CONTINUOUS
100
AcDbPolyline
 90
        2
 70
     0
 43
0.0
 10
22.68709034995413
 20
11.46758630643309
 10
22.70600936952517
 20
11.55813380532698
  0
LWPOLYLINE
  5
AF7
330
1E
100
AcDbEntity
  8
OBJECT2
  6
CONTINUOUS
100
AcDbPolyline
 90
        2
 70
     0
 43
0.0
 10
22.54879162315807
 20
11.46758630643309
 10
22.52987260358703
 20
11.55813380532698
  0
LINE
  5
AF8
330
1E
100
AcDbEntity
  8
OBJECT2
100
AcDbLine
 10
22.40205932957204
 20
11.47654720064013
 30
0.0
 11
22.40205932957204
 21
11.73710123733531
 31
0.0
  0
LINE
  5
AF9
330
1E
100
AcDbEntity
  8
OBJECT2
100
AcDbLine
 10
22.34505284018916
 20
11.47654720064013
 30
0.0
 11
22.34505284018916
 21
11.73710123733531
 31
0.0
  0
LWPOLYLINE
  5
AFA
330
1E
100
AcDbEntity
  8
OBJECT2
  6
CONTINUOUS
100
AcDbPolyline
 90
        2
 70
     0
 43
0.0
 10
22.68709034995413
 20
11.46758630643309
 10
22.54879162315807
 20
11.46758630643309
  0
LWPOLYLINE
  5
AFB
330
1E
100
AcDbEntity
  8
OBJECT1
  6
CONTINUOUS
100
AcDbPolyline
 90
        2
 70
     0
 43
0.0
 10
22.68709034995413
 20
11.32835402217506
 10
22.54879162315807
 20
11.32835402217506
  0
LWPOLYLINE
  5
AFC
330
1E
100
AcDbEntity
  8
OBJECT1
  6
CONTINUOUS
100
AcDbPolyline
 90
        2
 70
     0
 43
0.0
 10
22.54879162315807
 20
11.32835402217506
 10
22.52987260358703
 20
11.36370475804457
  0
LWPOLYLINE
  5
AFD
330
1E
100
AcDbEntity
  8
OBJECT1
  6
CONTINUOUS
100
AcDbPolyline
 90
        2
 70
     0
 43
0.0
 10
22.52987260358703
 20
11.42448321620623
 10
22.4095015897551
 20
11.42448321620623
  0
LWPOLYLINE
  5
AFE
330
1E
100
AcDbEntity
  8
OBJECT1
  6
CONTINUOUS
100
AcDbPolyline
 90
        2
 70
     0
 43
0.0
 10
22.40205932957204
 20
11.431615382215
 10
22.40205932957204
 20
11.47669649312574
  0
LWPOLYLINE
  5
AFF
330
1E
100
AcDbEntity
  8
OBJECT1
  6
CONTINUOUS
100
AcDbPolyline
 90
        2
 70
     0
 43
0.0
 10
22.4095015897551
 20
11.42448321620623
 10
22.40205932957204
 20
11.431615382215
  0
LWPOLYLINE
  5
B00
330
1E
100
AcDbEntity
  8
OBJECT2
  6
CONTINUOUS
100
AcDbPolyline
 90
        2
 70
     0
 43
0.0
 10
22.54879162315807
 20
11.46758630643309
 10
22.52987260358703
 20
11.40215643565705
  0
LWPOLYLINE
  5
B01
330
1E
100
AcDbEntity
  8
OBJECT1
  6
CONTINUOUS
100
AcDbPolyline
 90
        2
 70
     0
 43
0.0
 10
22.52987260358703
 20
11.42448321620623
 10
22.52987260358703
 20
11.36370475804457
  0
LWPOLYLINE
  5
B02
330
1E
100
AcDbEntity
  8
OBJECT1
  6
CONTINUOUS
100
AcDbPolyline
 90
        2
 70
     0
 43
0.0
 10
22.68709034995413
 20
11.32835402217506
 10
22.70600936952517
 20
11.36370475804457
  0
LINE
  5
B03
330
1E
100
AcDbEntity
  8
OBJECT1
  6
CONTINUOUS
100
AcDbLine
 10
22.74977303443246
 20
11.40804304268141
 30
0.0
 11
22.91259455159099
 21
11.40804304268141
 31
0.0
  0
LWPOLYLINE
  5
B04
330
1E
100
AcDbEntity
  8
OBJECT2
  6
CONTINUOUS
100
AcDbPolyline
 90
        2
 70
     0
 43
0.0
 10
22.68709034995413
 20
11.46758630643309
 10
22.70600936952517
 20
11.40215643565705
  0
ARC
  5
B05
330
1E
100
AcDbEntity
  8
OBJECT1
  6
CONTINUOUS
100
AcDbCircle
 10
22.7497727818225
 20
11.39213013094221
 30
0.0
 40
0.0159129117392022
100
AcDbArc
 50
89.99896200000007
 51
135.001709
  0
LINE
  5
B06
330
1E
100
AcDbEntity
  8
OBJECT1
  6
CONTINUOUS
100
AcDbLine
 10
22.71497727566946
 20
11.38909729577789
 30
0.0
 11
22.72394543442371
 21
11.40463028213919
 31
0.0
  0
LINE
  5
B07
330
1E
100
AcDbEntity
  8
OBJECT1
  6
CONTINUOUS
100
AcDbLine
 10
22.73852027121161
 20
11.40338188372322
 30
0.0
 11
22.72973702294713
 21
11.39459863545876
 31
0.0
  0
LINE
  5
B08
330
1E
100
AcDbEntity
  8
OBJECT1
  6
CONTINUOUS
100
AcDbLine
 10
22.72394543442371
 20
11.40463028213919
 30
0.0
 11
22.72973702294713
 21
11.39459863545876
 31
0.0
  0
LWPOLYLINE
  5
B09
330
1E
100
AcDbEntity
  8
OBJECT1
  6
CONTINUOUS
100
AcDbPolyline
 90
        2
 70
     0
 43
0.0
 10
22.70600936952517
 20
11.40463028213918
 10
22.70600936952517
 20
11.36370475804457
  0
LINE
  5
B0A
330
1E
100
AcDbEntity
  8
OBJECT1
  6
CONTINUOUS
100
AcDbLine
 10
22.70600936952517
 20
11.40463028213919
 30
0.0
 11
22.71497727566946
 21
11.38909729577789
 31
0.0
  0
LWPOLYLINE
  5
B0B
330
1E
100
AcDbEntity
  8
OBJECT2
  6
CONTINUOUS
100
AcDbPolyline
 90
        2
 70
     0
 43
0.0
 10
22.68709034995413
 20
11.74636096912349
 10
22.54879162315807
 20
11.74636096912349
  0
LINE
  5
B0C
330
1E
100
AcDbEntity
  8
OBJECT2
100
AcDbLine
 10
22.3142649910311
 20
11.51550496108289
 30
0.0
 11
22.3142649910311
 21
11.69814372950251
 31
0.0
  0
LINE
  5
B0D
330
1E
100
AcDbEntity
  8
OBJECT2
100
AcDbLine
 10
22.37584094195716
 20
11.51550496108289
 30
0.0
 11
22.37584094195716
 21
11.69814372950251
 31
0.0
  0
LWPOLYLINE
  5
B0E
330
1E
100
AcDbEntity
  8
OBJECT2
  6
CONTINUOUS
100
AcDbPolyline
 90
        2
 70
     0
 43
0.0
 10
22.54879162315807
 20
11.74636096912349
 10
22.52987260358703
 20
11.6561235644039
  0
LINE
  5
B0F
330
1E
100
AcDbEntity
  8
OBJECT2
  6
CONTINUOUS
100
AcDbLine
 10
22.90893473850916
 20
11.60029488307987
 30
0.0
 11
22.85618371649075
 21
11.60029488307987
 31
0.0
  0
LINE
  5
B10
330
1E
100
AcDbEntity
  8
OBJECT2
  6
CONTINUOUS
100
AcDbLine
 10
22.90893473850916
 20
11.61365239247673
 30
0.0
 11
22.85618396910071
 21
11.61365239247673
 31
0.0
  0
LINE
  5
B11
330
1E
100
AcDbEntity
  8
OBJECT2
  6
CONTINUOUS
100
AcDbLine
 10
22.85618396910071
 20
11.61365239247673
 30
0.0
 11
22.83948064080069
 21
11.63230738531777
 31
0.0
  0
LINE
  5
B12
330
1E
100
AcDbEntity
  8
OBJECT2
  6
CONTINUOUS
100
AcDbLine
 10
22.85618371649075
 20
11.60029488307987
 30
0.0
 11
22.83948064080069
 21
11.58163963762887
 31
0.0
  0
LINE
  5
B13
330
1E
100
AcDbEntity
  8
OBJECT2
  6
CONTINUOUS
100
AcDbLine
 10
22.90893473850916
 20
11.61365239247673
 30
0.0
 11
22.90893473850916
 21
11.60029488307987
 31
0.0
  0
LINE
  5
B14
330
1E
100
AcDbEntity
  8
OBJECT2
  6
CONTINUOUS
100
AcDbLine
 10
22.80472858356056
 20
11.60697338516834
 30
0.0
 11
22.76995707535359
 21
11.63230738531777
 31
0.0
  0
LINE
  5
B15
330
1E
100
AcDbEntity
  8
OBJECT2
  6
CONTINUOUS
100
AcDbLine
 10
22.83948064080069
 20
11.63230738531777
 30
0.0
 11
22.76995707535359
 21
11.63230738531777
 31
0.0
  0
LINE
  5
B16
330
1E
100
AcDbEntity
  8
OBJECT2
  6
CONTINUOUS
100
AcDbLine
 10
22.83948064080069
 20
11.58163963762887
 30
0.0
 11
22.76995707535359
 21
11.58163963762887
 31
0.0
  0
LINE
  5
B17
330
1E
100
AcDbEntity
  8
OBJECT2
  6
CONTINUOUS
100
AcDbLine
 10
22.76995707535359
 20
11.58163963762887
 30
0.0
 11
22.80472858356056
 21
11.60697338516834
 31
0.0
  0
LWPOLYLINE
  5
B18
330
1E
100
AcDbEntity
  8
OBJECT2
  6
CONTINUOUS
100
AcDbPolyline
 90
        2
 70
     0
 43
0.0
 10
22.68709034995413
 20
11.74636096912349
 10
22.70600936952517
 20
11.6561235644039
  0
LINE
  5
B19
330
1E
100
AcDbEntity
  8
OBJECT2
  6
CONTINUOUS
100
AcDbLine
 10
21.66607415310183
 20
12.07429000135117
 30
0.0
 11
21.66607415310183
 21
12.03860432008486
 31
0.0
  0
LINE
  5
B1A
330
1E
100
AcDbEntity
  8
OBJECT2
  6
CONTINUOUS
100
AcDbLine
 10
21.56502324643
 20
12.07429000135117
 30
0.0
 11
21.56506435896601
 21
12.03861476671288
 31
0.0
  0
LINE
  5
B1B
330
1E
100
AcDbEntity
  8
OBJECT1
  6
CONTINUOUS
100
AcDbLine
 10
21.70992539060032
 20
12.03800785132457
 30
0.0
 11
21.70992539060032
 21
12.11055159510977
 31
0.0
  0
LINE
  5
B1C
330
1E
100
AcDbEntity
  8
OBJECT1
  6
CONTINUOUS
100
AcDbLine
 10
21.94668941182125
 20
11.8380960721304
 30
0.0
 11
21.84117509908712
 21
11.8380856255024
 31
0.0
  0
LINE
  5
B1D
330
1E
100
AcDbEntity
  8
OBJECT1
  6
CONTINUOUS
100
AcDbLine
 10
22.00949070147252
 20
11.99322074728598
 30
0.0
 11
21.79079020719234
 21
11.99321063764597
 31
0.0
  0
LINE
  5
B1E
330
1E
100
AcDbEntity
  8
OBJECT1
  6
CONTINUOUS
100
AcDbLine
 10
22.00840088227997
 20
12.03890250360142
 30
0.0
 11
21.79079020719234
 21
12.0388923939614
 31
0.0
  0
LINE
  5
B1F
330
1E
100
AcDbEntity
  8
OBJECT1
  6
CONTINUOUS
100
AcDbLine
 10
21.78595645131787
 20
11.90276204743557
 30
0.0
 11
21.78595645131787
 21
11.93921006741815
 31
0.0
  0
LINE
  5
B20
330
1E
100
AcDbEntity
  8
OBJECT1
  6
CONTINUOUS
100
AcDbLine
 10
21.83348267400717
 20
11.81705487838762
 30
0.0
 11
21.84117509908712
 21
11.8380856255024
 31
0.0
  0
LINE
  5
B21
330
1E
100
AcDbEntity
  8
OBJECT2
  6
CONTINUOUS
100
AcDbLine
 10
21.74194076367528
 20
11.8380960721304
 30
0.0
 11
21.74194076367528
 21
11.8380960721304
 31
0.0
  0
LINE
  5
B22
330
1E
100
AcDbEntity
  8
OBJECT2
  6
CONTINUOUS
100
AcDbLine
 10
21.74194076367528
 20
11.8380960721304
 30
0.0
 11
21.74194076367528
 21
11.8380960721304
 31
0.0
  0
LINE
  5
B23
330
1E
100
AcDbEntity
  8
OBJECT2
  6
CONTINUOUS
100
AcDbLine
 10
21.74189965113927
 20
11.87229058149595
 30
0.0
 11
21.74194076367528
 21
11.91601848138638
 31
0.0
  0
LINE
  5
B24
330
1E
100
AcDbEntity
  8
OBJECT1
  6
CONTINUOUS
100
AcDbLine
 10
21.76213881344165
 20
11.8170343221196
 30
0.0
 11
21.76213881344165
 21
11.8380960721304
 31
0.0
  0
LINE
  5
B25
330
1E
100
AcDbEntity
  8
OBJECT1
  6
CONTINUOUS
100
AcDbLine
 10
21.76213881344165
 20
11.8380960721304
 30
0.0
 11
21.74194076367528
 21
11.8380960721304
 31
0.0
  0
LINE
  5
B26
330
1E
100
AcDbEntity
  8
OBJECT1
  6
CONTINUOUS
100
AcDbLine
 10
21.74194076367528
 20
11.8380960721304
 30
0.0
 11
21.74194076367528
 21
11.87227002522794
 31
0.0
  0
LINE
  5
B27
330
1E
100
AcDbEntity
  8
OBJECT1
  6
CONTINUOUS
100
AcDbLine
 10
21.74194076367528
 20
11.87227002522794
 30
0.0
 11
21.78595645131787
 21
11.90276204743557
 31
0.0
  0
LINE
  5
B28
330
1E
100
AcDbEntity
  8
OBJECT1
  6
CONTINUOUS
100
AcDbLine
 10
21.76213881344165
 20
11.8170343221196
 30
0.0
 11
21.83348267400717
 21
11.81705487838762
 31
0.0
  0
LINE
  5
B29
330
1E
100
AcDbEntity
  8
OBJECT1
  6
CONTINUOUS
100
AcDbLine
 10
21.78595645131787
 20
11.93921006741815
 30
0.0
 11
21.69981726365368
 21
11.93921909423427
 31
0.0
  0
LINE
  5
B2A
330
1E
100
AcDbEntity
  8
OBJECT1
  6
CONTINUOUS
100
AcDbLine
 10
21.73517404463181
 20
11.95607489701492
 30
0.0
 11
21.69979670738566
 21
11.95604389411891
 31
0.0
  0
LINE
  5
B2B
330
1E
100
AcDbEntity
  8
OBJECT1
  6
CONTINUOUS
100
AcDbLine
 10
21.73517404463181
 20
11.97463754401644
 30
0.0
 11
21.70697488877735
 21
11.98132203798788
 31
0.0
  0
LINE
  5
B2C
330
1E
100
AcDbEntity
  8
OBJECT1
  6
CONTINUOUS
100
AcDbLine
 10
21.66610633206839
 20
11.99995675137586
 30
0.0
 11
21.78404371965208
 21
11.99995675137593
 31
0.0
  0
LINE
  5
B2D
330
1E
100
AcDbEntity
  8
OBJECT1
  6
CONTINUOUS
100
AcDbLine
 10
21.68847306978169
 20
12.03219276297286
 30
0.0
 11
21.78404370746824
 21
12.03220313052163
 31
0.0
  0
LINE
  5
B2E
330
1E
100
AcDbEntity
  8
OBJECT2
  6
CONTINUOUS
100
AcDbLine
 10
21.67873495737486
 20
11.97465810028446
 30
0.0
 11
21.67873495737486
 21
11.95604389411891
 31
0.0
  0
LINE
  5
B2F
330
1E
100
AcDbEntity
  8
OBJECT2
  6
CONTINUOUS
100
AcDbLine
 10
21.67873495737486
 20
11.97465810028446
 30
0.0
 11
21.70697488877735
 21
11.98132203798788
 31
0.0
  0
LINE
  5
B30
330
1E
100
AcDbEntity
  8
OBJECT2
  6
CONTINUOUS
100
AcDbLine
 10
21.68847307149732
 20
12.03217694795756
 30
0.0
 11
21.66607415310183
 21
12.03860432008486
 31
0.0
  0
LINE
  5
B31
330
1E
100
AcDbEntity
  8
OBJECT1
  6
CONTINUOUS
100
AcDbLine
 10
21.69979670738566
 20
11.95604389411891
 30
0.0
 11
21.69981726365368
 21
11.93921909423427
 31
0.0
  0
LINE
  5
B32
330
1E
100
AcDbEntity
  8
OBJECT1
  6
CONTINUOUS
100
AcDbLine
 10
21.66610633206839
 20
11.98129137207986
 30
0.0
 11
21.70697488877735
 21
11.98132203798788
 31
0.0
  0
LINE
  5
B33
330
1E
100
AcDbEntity
  8
OBJECT1
  6
CONTINUOUS
100
AcDbLine
 10
21.66610633206839
 20
11.98129137207986
 30
0.0
 11
21.66610633206839
 21
11.99995675137586
 31
0.0
  0
LINE
  5
B34
330
1E
100
AcDbEntity
  8
OBJECT1
  6
CONTINUOUS
100
AcDbLine
 10
21.68847307149732
 20
12.03217694795756
 30
0.0
 11
21.70992539060032
 21
12.03800785132457
 31
0.0
  0
LINE
  5
B35
330
1E
100
AcDbEntity
  8
OBJECT2
  6
CONTINUOUS
100
AcDbLine
 10
21.61557953416792
 20
12.03217694795756
 30
0.0
 11
21.56506435896601
 21
12.03861476671288
 31
0.0
  0
LINE
  5
B36
330
1E
100
AcDbEntity
  8
OBJECT1
  6
CONTINUOUS
100
AcDbLine
 10
21.56499341960452
 20
11.98131192834786
 30
0.0
 11
21.56499341960452
 21
11.99995675137579
 31
0.0
  0
LINE
  5
B37
330
1E
100
AcDbEntity
  8
OBJECT2
  6
CONTINUOUS
100
AcDbLine
 10
21.66607415310183
 20
12.03860432008486
 30
0.0
 11
21.61557953416792
 21
12.03217694795756
 31
0.0
  0
LINE
  5
B38
330
1E
100
AcDbEntity
  8
OBJECT2
  6
CONTINUOUS
100
AcDbLine
 10
21.67873495737486
 20
11.97465810028446
 30
0.0
 11
21.61559081987847
 21
11.98129137207986
 31
0.0
  0
LINE
  5
B39
330
1E
100
AcDbEntity
  8
OBJECT2
  6
CONTINUOUS
100
AcDbLine
 10
21.56499341960452
 20
11.98131192834786
 30
0.0
 11
21.66610633206839
 21
11.98129137207986
 31
0.0
  0
LINE
  5
B3A
330
1E
100
AcDbEntity
  8
OBJECT2
  6
CONTINUOUS
100
AcDbLine
 10
21.66610633206839
 20
11.99995675137586
 30
0.0
 11
21.56499341960452
 21
11.99995675137584
 31
0.0
  0
LINE
  5
B3B
330
1E
100
AcDbEntity
  8
OBJECT1
  6
CONTINUOUS
100
AcDbLine
 10
21.73517404463181
 20
11.97463754401644
 30
0.0
 11
21.73517404463181
 21
11.95607489701492
 31
0.0
  0
ARC
  5
B3C
330
1E
100
AcDbEntity
  8
OBJECT1
  6
CONTINUOUS
100
AcDbCircle
 10
21.79080301273635
 20
11.99996960596544
 30
0.0
 40
0.0067593053074673
100
AcDbArc
 50
180.1089629999999
 51
269.8910220000001
  0
LINE
  5
B3D
330
1E
100
AcDbEntity
  8
OBJECT2
  6
CONTINUOUS
100
AcDbLine
 10
21.78404381131857
 20
12.03216657611985
 30
0.0
 11
21.78404371965208
 21
11.99995675137568
 31
0.0
  0
ARC
  5
B3E
330
1E
100
AcDbEntity
  8
OBJECT1
  6
CONTINUOUS
100
AcDbCircle
 10
21.79073258224432
 20
12.03220385613398
 30
0.0
 40
0.0066888748154311
100
AcDbArc
 50
89.50722499999994
 51
180.3193359999999
  0
ARC
  5
B3F
330
1E
100
AcDbEntity
  8
OBJECT1
  6
CONTINUOUS
100
AcDbCircle
 10
22.00953046605655
 20
12.03218633275797
 30
0.0
 40
0.0067060612034399
100
AcDbArc
 50
359.8297729999999
 51
90.51484699999987
  0
ARC
  5
B40
330
1E
100
AcDbEntity
  8
OBJECT1
  6
CONTINUOUS
100
AcDbCircle
 10
22.00947486303653
 20
11.99996320319344
 30
0.0
 40
0.0067424559074586
100
AcDbArc
 50
270.135193
 51
0.032776000000013
  0
LINE
  5
B41
330
1E
100
AcDbEntity
  8
OBJECT1
  6
CONTINUOUS
100
AcDbLine
 10
22.01623720123599
 20
12.03216645046595
 30
0.0
 11
22.01621664496798
 21
11.99996724704943
 31
0.0
  0
LINE
  5
B42
330
1E
100
AcDbEntity
  8
OBJECT2
  6
CONTINUOUS
100
AcDbLine
 10
21.66607415310183
 20
12.07429000135117
 30
0.0
 11
21.66607415310183
 21
12.10995512634947
 31
0.0
  0
LINE
  5
B43
330
1E
100
AcDbEntity
  8
OBJECT1
  6
CONTINUOUS
100
AcDbLine
 10
21.70992539060032
 20
12.11055159510977
 30
0.0
 11
21.68855529656936
 21
12.11640339173278
 31
0.0
  0
LINE
  5
B44
330
1E
100
AcDbEntity
  8
OBJECT2
  6
CONTINUOUS
100
AcDbLine
 10
21.68855529656936
 20
12.11640339173278
 30
0.0
 11
21.66607415310183
 21
12.10995512634947
 31
0.0
  0
LINE
  5
B45
330
1E
100
AcDbEntity
  8
OBJECT2
  6
CONTINUOUS
100
AcDbLine
 10
21.56502324643
 20
12.07429000135117
 30
0.0
 11
21.565043802698
 21
12.10994467972146
 31
0.0
  0
LINE
  5
B46
330
1E
100
AcDbEntity
  8
OBJECT2
  6
CONTINUOUS
100
AcDbLine
 10
21.565043802698
 20
12.10994467972146
 30
0.0
 11
21.61557953416792
 21
12.11641350137278
 31
0.0
  0
LINE
  5
B47
330
1E
100
AcDbEntity
  8
OBJECT2
  6
CONTINUOUS
100
AcDbLine
 10
21.61557953416792
 20
12.11641350137278
 30
0.0
 11
21.66607415310183
 21
12.10995512634947
 31
0.0
  0
LWPOLYLINE
  5
B48
330
1E
100
AcDbEntity
  8
OBJECT1
  6
CONTINUOUS
100
AcDbPolyline
 90
        2
 70
     0
 43
0.0
 10
22.68709034995413
 20
11.88590334755583
 10
22.54879162315807
 20
11.88590334755583
  0
LWPOLYLINE
  5
B49
330
1E
100
AcDbEntity
  8
OBJECT1
  6
CONTINUOUS
100
AcDbPolyline
 90
        2
 70
     0
 43
0.0
 10
22.4095015897551
 20
11.78946405935037
 10
22.52987260358703
 20
11.78946405935037
  0
LWPOLYLINE
  5
B4A
330
1E
100
AcDbEntity
  8
OBJECT1
  6
CONTINUOUS
100
AcDbPolyline
 90
        2
 70
     0
 43
0.0
 10
22.40205932957204
 20
11.7823318933416
 10
22.4095015897551
 20
11.78946405935037
  0
LWPOLYLINE
  5
B4B
330
1E
100
AcDbEntity
  8
OBJECT1
  6
CONTINUOUS
100
AcDbPolyline
 90
        2
 70
     0
 43
0.0
 10
22.54879162315807
 20
11.88590334755583
 10
22.52987260358703
 20
11.85055261168631
  0
LWPOLYLINE
  5
B4C
330
1E
100
AcDbEntity
  8
OBJECT1
  6
CONTINUOUS
100
AcDbPolyline
 90
        2
 70
     0
 43
0.0
 10
22.52987260358703
 20
11.85055261168631
 10
22.52987260358703
 20
11.78946405935037
  0
LINE
  5
B4D
330
1E
100
AcDbEntity
  8
OBJECT1
  6
CONTINUOUS
100
AcDbLine
 10
22.85702276046862
 20
11.92463040825064
 30
0.0
 11
22.84514832413937
 21
11.93148624253013
 31
0.0
  0
LINE
  5
B4E
330
1E
100
AcDbEntity
  8
OBJECT1
  6
CONTINUOUS
100
AcDbLine
 10
22.74977328704243
 20
11.80590398026523
 30
0.0
 11
22.77365907429854
 21
11.80590398026523
 31
0.0
  0
ARC
  5
B4F
330
1E
100
AcDbEntity
  8
OBJECT1
  6
CONTINUOUS
100
AcDbCircle
 10
22.74977353965237
 20
11.82181916549405
 30
0.0
 40
0.0159149326188719
100
AcDbArc
 50
208.3530219999999
 51
269.9982379999999
  0
LINE
  5
B50
330
1E
100
AcDbEntity
  8
OBJECT1
  6
CONTINUOUS
100
AcDbLine
 10
22.72394543442371
 20
11.8248499797787
 30
0.0
 11
22.73291334056799
 21
11.8093169934174
 31
0.0
  0
LINE
  5
B51
330
1E
100
AcDbEntity
  8
OBJECT1
  6
CONTINUOUS
100
AcDbLine
 10
22.7357675804915
 20
11.81426082291939
 30
0.0
 11
22.73291334056799
 21
11.8093169934174
 31
0.0
  0
LINE
  5
B52
330
1E
100
AcDbEntity
  8
OBJECT1
  6
CONTINUOUS
100
AcDbLine
 10
22.71497727566946
 20
11.8093169934174
 30
0.0
 11
22.72394543442371
 21
11.8248499797787
 31
0.0
  0
LINE
  5
B53
330
1E
100
AcDbEntity
  8
OBJECT1
  6
CONTINUOUS
100
AcDbLine
 10
22.70600936952517
 20
11.8248499797787
 30
0.0
 11
22.71497727566946
 21
11.8093169934174
 31
0.0
  0
LWPOLYLINE
  5
B54
330
1E
100
AcDbEntity
  8
OBJECT1
  6
CONTINUOUS
100
AcDbPolyline
 90
        2
 70
     0
 43
0.0
 10
22.70600936952517
 20
11.85055261168631
 10
22.70600936952517
 20
11.82484997977869
  0
LWPOLYLINE
  5
B55
330
1E
100
AcDbEntity
  8
OBJECT1
  6
CONTINUOUS
100
AcDbPolyline
 90
        2
 70
     0
 43
0.0
 10
22.68709034995413
 20
11.88590334755583
 10
22.70600936952517
 20
11.85055261168631
  0
LINE
  5
B56
330
1E
100
AcDbEntity
  8
OBJECT1
  6
CONTINUOUS
100
AcDbLine
 10
22.85702276046862
 20
11.92463040825064
 30
0.0
 11
22.81155056810558
 21
11.92463040825064
 31
0.0
  0
LINE
  5
B57
330
1E
100
AcDbEntity
  8
OBJECT1
  6
CONTINUOUS
100
AcDbLine
 10
22.79892007016989
 20
11.91199991031496
 30
0.0
 11
22.79892007016989
 21
11.83116472352662
 31
0.0
  0
LINE
  5
B58
330
1E
100
AcDbEntity
  8
OBJECT1
  6
CONTINUOUS
100
AcDbLine
 10
22.79892007016989
 20
11.91199991031496
 30
0.0
 11
22.81155056810558
 21
11.92463040825064
 31
0.0
  0
ARC
  5
B59
330
1E
100
AcDbEntity
  8
OBJECT1
  6
CONTINUOUS
100
AcDbCircle
 10
22.77365932690849
 20
11.83116447091667
 30
0.0
 40
0.0252607432613976
100
AcDbArc
 50
269.9994349999999
 51
0.0002749999999943
  0
ARC
  5
B5A
330
1E
100
AcDbEntity
  8
OBJECT1
  6
CONTINUOUS
100
AcDbCircle
 10
22.89036474891923
 20
11.97542723962843
 30
0.0
 40
0.0159146800089132
100
AcDbArc
 50
299.5111429999999
 51
359.9996749999999
  0
LINE
  5
B5B
330
1E
100
AcDbEntity
  8
OBJECT1
  6
CONTINUOUS
100
AcDbLine
 10
22.89820424637794
 20
11.96157739342205
 30
0.0
 11
22.84509527604804
 21
11.93151680833514
 31
0.0
  0
LINE
  5
B5C
330
1E
100
AcDbEntity
  8
OBJECT1
  6
CONTINUOUS
100
AcDbLine
 10
22.90627942892814
 20
11.97542698701848
 30
0.0
 11
22.90627942892814
 21
11.9818096828453
 31
0.0
  0
LINE
  5
B5D
330
1E
100
AcDbEntity
  8
OBJECT1
  6
CONTINUOUS
100
AcDbLine
 10
22.92219385632709
 20
11.99772411024425
 30
0.0
 11
22.92219385632709
 21
11.99772411024425
 31
0.0
  0
ARC
  5
B5E
330
1E
100
AcDbEntity
  8
OBJECT1
  6
CONTINUOUS
100
AcDbCircle
 10
22.92219360371713
 20
11.98180993545525
 30
0.0
 40
0.0159144273989545
100
AcDbArc
 50
89.99932899999995
 51
180.000549
  0
ARC
  5
B5F
330
1E
100
AcDbEntity
  8
OBJECT2
100
AcDbCircle
 10
25.91342320822146
 20
13.46132048356942
 30
0.0
 40
0.1793274936136985
100
AcDbArc
 50
93.39552386285982
 51
179.0792305562176
  0
ARC
  5
B60
330
1E
100
AcDbEntity
  8
OBJECT2
100
AcDbCircle
 10
25.06899425599318
 20
13.46486613912773
 30
0.0
 40
0.3135159523720282
100
AcDbArc
 50
113.9889970218583
 51
184.9203048995589
  0
ARC
  5
B61
330
1E
100
AcDbEntity
  8
OBJECT2
100
AcDbCircle
 10
25.3638392847543
 20
13.47620270917098
 30
0.0
 40
0.504007817612547
100
AcDbArc
 50
146.9190872071167
 51
178.1271632845422
  0
ARC
  5
B62
330
1E
100
AcDbEntity
  8
OBJECT2
100
AcDbCircle
 10
25.13592016846023
 20
13.29942069593156
 30
0.0
 40
0.3367838488089027
100
AcDbArc
 50
86.43387373698237
 51
144.9828874771073
  0
ARC
  5
B63
330
1E
100
AcDbEntity
  8
OBJECT2
100
AcDbCircle
 10
25.19568116350225
 20
13.36476835980693
 30
0.0
 40
0.2735515459230242
100
AcDbArc
 50
98.15694228845261
 51
161.6083151644313
  0
ARC
  5
B64
330
1E
100
AcDbEntity
  8
OBJECT2
100
AcDbCircle
 10
25.14996207439899
 20
13.24404620139074
 30
0.0
 40
0.2976538477662888
100
AcDbArc
 50
73.10037584237086
 51
135.9295721347801
  0
ARC
  5
B65
330
1E
100
AcDbEntity
  8
OBJECT2
100
AcDbCircle
 10
25.31080622727385
 20
13.06560910003115
 30
0.0
 40
0.4691604346986301
100
AcDbArc
 50
99.11433327758864
 51
127.4685380472997
  0
ARC
  5
B66
330
1E
100
AcDbEntity
  8
OBJECT2
100
AcDbCircle
 10
26.3933462845449
 20
13.54392948446942
 30
0.0
 40
0.6640310366445393
100
AcDbArc
 50
165.9022548620266
 51
186.89588552
  0
ARC
  5
B67
330
1E
100
AcDbEntity
  8
OBJECT2
100
AcDbCircle
 10
25.93351116265265
 20
13.48526764494137
 30
0.0
 40
0.2872392904231438
100
AcDbArc
 50
129.8861757973173
 51
184.7741140652574
  0
ARC
  5
B68
330
1E
100
AcDbEntity
  8
OBJECT2
100
AcDbCircle
 10
25.31450052797831
 20
13.41226033424893
 30
0.0
 40
0.168263125592434
100
AcDbArc
 50
8.790925381628435
 51
93.54521999894766
  0
ARC
  5
B69
330
1E
100
AcDbEntity
  8
OBJECT2
100
AcDbCircle
 10
24.80332613497308
 20
13.0506287326368
 30
0.0
 40
0.7288466831298183
100
AcDbArc
 50
32.10362366777049
 51
46.60127961222004
  0
ARC
  5
B6A
330
1E
100
AcDbEntity
  8
OBJECT2
100
AcDbCircle
 10
24.94651212630565
 20
13.42626944541491
 30
0.0
 40
0.5344031065131995
100
AcDbArc
 50
1.255199542543861
 51
32.81582537463779
  0
ARC
  5
B6B
330
1E
100
AcDbEntity
  8
OBJECT2
100
AcDbCircle
 10
25.27310198870476
 20
13.44494696287536
 30
0.0
 40
0.2973565087348886
100
AcDbArc
 50
10.40066863425724
 51
65.66509217082972
  0
ARC
  5
B6C
330
1E
100
AcDbEntity
  8
OBJECT2
100
AcDbCircle
 10
25.93368147082543
 20
13.55183976534088
 30
0.0
 40
0.3719347136650086
100
AcDbArc
 50
145.790307226681
 51
188.2252446902203
  0
ARC
  5
B6D
330
1E
100
AcDbEntity
  8
OBJECT2
100
AcDbCircle
 10
26.59450316468556
 20
13.67884375731936
 30
0.0
 40
0.9718807622878721
100
AcDbArc
 50
175.1537653321368
 51
192.9308384061592
  0
ARC
  5
B6E
330
1E
100
AcDbEntity
  8
OBJECT2
100
AcDbCircle
 10
26.04941204334838
 20
13.3157461892915
 30
0.0
 40
0.2497024193359457
100
AcDbArc
 50
96.91736956408487
 51
144.5674579136797
  0
ARC
  5
B6F
330
1E
100
AcDbEntity
  8
OBJECT2
100
AcDbCircle
 10
25.95841991783829
 20
13.40446243506669
 30
0.0
 40
0.1704279783370109
100
AcDbArc
 50
69.05667280768641
 51
157.4266699698966
  0
ARC
  5
B70
330
1E
100
AcDbEntity
  8
OBJECT2
100
AcDbCircle
 10
25.96369819828315
 20
13.48838328182744
 30
0.0
 40
0.1636982622175283
100
AcDbArc
 50
111.8392095683268
 51
186.4888148896713
  0
INSERT
  5
B71
330
1E
100
AcDbEntity
  8
OBJECT2
100
AcDbBlockReference
  2
*X0
 10
35.94227832198452
 20
9.087127502047216
 30
0.0
 41
-0.2526099587135633
 42
0.2526099587135633
 43
0.2526099587135633
1001
ACAD
1000
HATCH
1002
{
1070
    16
1000
EARTH
1040
2.5
1040
0.0
1002
}
  0
LINE
  5
B72
330
1E
100
AcDbEntity
  8
OBJECT1
100
AcDbLine
 10
26.15376779555102
 20
11.73710148994527
 30
0.0
 11
23.63505903351179
 21
11.73710148994527
 31
0.0
  0
LINE
  5
B73
330
1E
100
AcDbEntity
  8
OBJECT1
100
AcDbLine
 10
26.15376779555102
 20
11.47654720064013
 30
0.0
 11
23.63505903351179
 21
11.47654720064013
 31
0.0
  0
LINE
  5
B74
330
1E
100
AcDbEntity
  8
OBJECT1
  6
CONTINUOUS
100
AcDbLine
 10
23.36562487263297
 20
12.15146303633724
 30
0.0
 11
23.34661344714019
 21
12.42305107602904
 31
0.0
  0
LINE
  5
B75
330
1E
100
AcDbEntity
  8
OBJECT1
  6
CONTINUOUS
100
AcDbLine
 10
23.33037791936873
 20
12.46785251736112
 30
0.0
 11
23.47719839652652
 21
12.30755009988896
 31
0.0
  0
LINE
  5
B76
330
1E
100
AcDbEntity
  8
OBJECT1
  6
CONTINUOUS
100
AcDbLine
 10
22.96983659976038
 20
12.15146303633724
 30
0.0
 11
22.98884777264322
 21
12.42305082341908
 31
0.0
  0
LINE
  5
B77
330
1E
100
AcDbEntity
  8
OBJECT1
100
AcDbLine
 10
24.75663362152183
 20
13.43797587277739
 30
0.0
 11
24.75663362152183
 21
11.73710148994527
 31
0.0
  0
LINE
  5
B78
330
1E
100
AcDbEntity
  8
OBJECT1
100
AcDbLine
 10
24.19451417098705
 20
11.73710148994527
 30
0.0
 11
24.19451417098705
 21
13.11094693979484
 31
0.0
  0
LINE
  5
B79
330
1E
100
AcDbEntity
  8
OBJECT1
  6
CONTINUOUS
100
AcDbLine
 10
23.63505903351179
 20
11.81316146437907
 30
0.0
 11
23.63505903351179
 21
11.73725078243088
 31
0.0
  0
LINE
  5
B7A
330
1E
100
AcDbEntity
  8
OBJECT2
  6
CONTINUOUS
100
AcDbLine
 10
23.60316197402503
 20
11.72601608082207
 30
0.0
 11
23.63505903351179
 21
11.7717306524405
 31
0.0
  0
LINE
  5
B7B
330
1E
100
AcDbEntity
  8
OBJECT2
  6
CONTINUOUS
100
AcDbLine
 10
23.60316197402503
 20
11.72601608082207
 30
0.0
 11
23.63505903351179
 21
11.68030125659368
 31
0.0
  0
LINE
  5
B7C
330
1E
100
AcDbEntity
  8
OBJECT2
  6
CONTINUOUS
100
AcDbLine
 10
23.60316197402503
 20
11.48793119473453
 30
0.0
 11
23.63505903351179
 21
11.44221637050614
 31
0.0
  0
LINE
  5
B7D
330
1E
100
AcDbEntity
  8
OBJECT1
  6
CONTINUOUS
100
AcDbLine
 10
23.63505903351179
 20
11.40078581117752
 30
0.0
 11
23.60316197402503
 21
11.36888849908081
 31
0.0
  0
LINE
  5
B7E
330
1E
100
AcDbEntity
  8
OBJECT2
  6
CONTINUOUS
100
AcDbLine
 10
23.60316197402503
 20
11.48793119473453
 30
0.0
 11
23.63505903351179
 21
11.53364576635296
 31
0.0
  0
LINE
  5
B7F
330
1E
100
AcDbEntity
  8
OBJECT2
  6
CONTINUOUS
100
AcDbLine
 10
23.50448671412246
 20
11.48793119473453
 30
0.0
 11
23.48768234183896
 21
11.53364576635296
 31
0.0
  0
LINE
  5
B80
330
1E
100
AcDbEntity
  8
OBJECT2
  6
CONTINUOUS
100
AcDbLine
 10
23.40771007066959
 20
11.20595507571055
 30
0.0
 11
22.92775114911381
 21
11.20595507571055
 31
0.0
  0
ARC
  5
B81
330
1E
100
AcDbEntity
  8
OBJECT2
100
AcDbCircle
 10
23.05758644893213
 20
11.33751204303181
 30
0.0
 40
0.1406228163868149
100
AcDbArc
 50
97.43669049776675
 51
147.4034959315881
  0
LINE
  5
B82
330
1E
100
AcDbEntity
  8
OBJECT1
  6
CONTINUOUS
100
AcDbLine
 10
23.4228666681924
 20
11.40804304268141
 30
0.0
 11
23.46681675924922
 21
11.40804304268141
 31
0.0
  0
ARC
  5
B83
330
1E
100
AcDbEntity
  8
OBJECT1
  6
CONTINUOUS
100
AcDbCircle
 10
23.42286641558244
 20
11.39288669776856
 30
0.0
 40
0.0151563449128551
100
AcDbArc
 50
89.9990839999999
 51
180.0018209999999
  0
ARC
  5
B84
330
1E
100
AcDbEntity
  8
OBJECT2
100
AcDbCircle
 10
23.28933183928021
 20
11.27841156647586
 30
0.0
 40
0.1986549424905551
100
AcDbArc
 50
46.18602351102415
 51
88.05458081936912
  0
ARC
  5
B85
330
1E
100
AcDbEntity
  8
OBJECT2
100
AcDbCircle
 10
23.27787477085127
 20
11.33751204303181
 30
0.0
 40
0.1406228163868149
100
AcDbArc
 50
32.59650406841183
 51
82.56330950223345
  0
LINE
  5
B86
330
1E
100
AcDbEntity
  8
OBJECT2
  6
CONTINUOUS
100
AcDbLine
 10
23.50448671412246
 20
11.48793119473453
 30
0.0
 11
23.60316197402503
 21
11.48793119473453
 31
0.0
  0
LINE
  5
B87
330
1E
100
AcDbEntity
  8
OBJECT2
  6
CONTINUOUS
100
AcDbLine
 10
23.50448671412246
 20
11.48793119473453
 30
0.0
 11
23.48768234183896
 21
11.44221637050614
 31
0.0
  0
LINE
  5
B88
330
1E
100
AcDbEntity
  8
OBJECT1
  6
CONTINUOUS
100
AcDbLine
 10
23.50448671412246
 20
11.36888849908081
 30
0.0
 11
23.47948388562891
 21
11.40176240127791
 31
0.0
  0
LINE
  5
B89
330
1E
100
AcDbEntity
  8
OBJECT1
  6
CONTINUOUS
100
AcDbLine
 10
23.50448671412246
 20
11.36888849908081
 30
0.0
 11
23.60316197402503
 21
11.36888849908081
 31
0.0
  0
ARC
  5
B8A
330
1E
100
AcDbEntity
  8
OBJECT1
  6
CONTINUOUS
100
AcDbCircle
 10
23.46681726446913
 20
11.39212987833224
 30
0.0
 40
0.0159131643491609
100
AcDbArc
 50
37.25233500000006
 51
90.00173999999992
  0
LINE
  5
B8B
330
1E
100
AcDbEntity
  8
OBJECT2
  6
CONTINUOUS
100
AcDbLine
 10
23.46066368587487
 20
11.60697338516834
 30
0.0
 11
23.38039914498327
 21
11.62915632869278
 31
0.0
  0
LINE
  5
B8C
330
1E
100
AcDbEntity
  8
OBJECT2
  6
CONTINUOUS
100
AcDbLine
 10
23.46066368587487
 20
11.60697338516834
 30
0.0
 11
23.38039914498327
 21
11.58479069425387
 31
0.0
  0
LINE
  5
B8D
330
1E
100
AcDbEntity
  8
OBJECT2
  6
CONTINUOUS
100
AcDbLine
 10
23.34856751147581
 20
11.60029488307987
 30
0.0
 11
23.39474511714856
 21
11.60029488307987
 31
0.0
  0
LINE
  5
B8E
330
1E
100
AcDbEntity
  8
OBJECT2
  6
CONTINUOUS
100
AcDbLine
 10
23.34856751147581
 20
11.61365239247673
 30
0.0
 11
23.39474511714856
 21
11.61365239247673
 31
0.0
  0
LINE
  5
B8F
330
1E
100
AcDbEntity
  8
OBJECT2
  6
CONTINUOUS
100
AcDbLine
 10
23.34856751147581
 20
11.61365239247673
 30
0.0
 11
23.34856751147581
 21
11.60029488307987
 31
0.0
  0
LINE
  5
B90
330
1E
100
AcDbEntity
  8
OBJECT2
  6
CONTINUOUS
100
AcDbLine
 10
23.38039914498327
 20
11.62915632869278
 30
0.0
 11
23.39423762374151
 21
11.61298423913592
 31
0.0
  0
LINE
  5
B91
330
1E
100
AcDbEntity
  8
OBJECT2
  6
CONTINUOUS
100
AcDbLine
 10
23.38039914498327
 20
11.58479069425387
 30
0.0
 11
23.39423762374151
 21
11.60096278381071
 31
0.0
  0
LINE
  5
B92
330
1E
100
AcDbEntity
  8
OBJECT2
  6
CONTINUOUS
100
AcDbLine
 10
23.50448671412246
 20
11.72601608082207
 30
0.0
 11
23.48768234183896
 21
11.68030125659368
 31
0.0
  0
LINE
  5
B93
330
1E
100
AcDbEntity
  8
OBJECT2
  6
CONTINUOUS
100
AcDbLine
 10
23.50448671412246
 20
11.72601608082207
 30
0.0
 11
23.60316197402503
 21
11.72601608082207
 31
0.0
  0
LINE
  5
B94
330
1E
100
AcDbEntity
  8
OBJECT2
  6
CONTINUOUS
100
AcDbLine
 10
23.50448671412246
 20
11.72601608082207
 30
0.0
 11
23.48768234183896
 21
11.7717306524405
 31
0.0
  0
LINE
  5
B95
330
1E
100
AcDbEntity
  8
OBJECT2
100
AcDbLine
 10
23.69206552289468
 20
11.73725078243088
 30
0.0
 11
23.69206552289468
 21
11.47669649312573
 31
0.0
  0
LINE
  5
B96
330
1E
100
AcDbEntity
  8
OBJECT2
100
AcDbLine
 10
23.63505903351179
 20
11.73725078243088
 30
0.0
 11
23.63505903351179
 21
11.47669649312573
 31
0.0
  0
LINE
  5
B97
330
1E
100
AcDbEntity
  8
OBJECT1
  6
CONTINUOUS
100
AcDbLine
 10
23.63505903351179
 20
11.47669649312573
 30
0.0
 11
23.63505903351179
 21
11.40078581117752
 31
0.0
  0
LINE
  5
B98
330
1E
100
AcDbEntity
  8
OBJECT2
100
AcDbLine
 10
23.72285362466269
 20
11.69829302198811
 30
0.0
 11
23.72285362466269
 21
11.51565425356848
 31
0.0
  0
LINE
  5
B99
330
1E
100
AcDbEntity
  8
OBJECT2
100
AcDbLine
 10
23.66127767373664
 20
11.69829302198811
 30
0.0
 11
23.66127767373664
 21
11.51565425356848
 31
0.0
  0
LINE
  5
B9A
330
1E
100
AcDbEntity
  8
OBJECT1
  6
CONTINUOUS
100
AcDbLine
 10
23.60316197402503
 20
11.84505852386583
 30
0.0
 11
23.63505903351179
 21
11.81316146437907
 31
0.0
  0
LINE
  5
B9B
330
1E
100
AcDbEntity
  8
OBJECT1
  6
CONTINUOUS
100
AcDbLine
 10
23.40518384477747
 20
12.12074516013776
 30
0.0
 11
23.40518384477747
 21
12.00580788153304
 31
0.0
  0
LINE
  5
B9C
330
1E
100
AcDbEntity
  8
OBJECT1
  6
CONTINUOUS
100
AcDbLine
 10
22.93027737500593
 20
12.12074516013776
 30
0.0
 11
22.93027737500593
 21
12.00580788153304
 31
0.0
  0
LINE
  5
B9D
330
1E
100
AcDbEntity
  8
OBJECT2
  6
CONTINUOUS
100
AcDbLine
 10
23.0490040556013
 20
12.13665984014666
 30
0.0
 11
23.0490040556013
 21
11.99772411024425
 31
0.0
  0
LINE
  5
B9E
330
1E
100
AcDbEntity
  8
OBJECT2
  6
CONTINUOUS
100
AcDbLine
 10
23.28645716418209
 20
12.13665984014666
 30
0.0
 11
23.28645716418209
 21
11.99772411024425
 31
0.0
  0
LINE
  5
B9F
330
1E
100
AcDbEntity
  8
OBJECT1
  6
CONTINUOUS
100
AcDbLine
 10
23.49031314825398
 20
11.92463040825064
 30
0.0
 11
23.47843871192473
 21
11.93148624253013
 31
0.0
  0
LINE
  5
BA0
330
1E
100
AcDbEntity
  8
OBJECT1
  6
CONTINUOUS
100
AcDbLine
 10
23.60316197402503
 20
11.84505852386583
 30
0.0
 11
23.55169774713632
 21
11.84505852386583
 31
0.0
  0
LINE
  5
BA1
330
1E
100
AcDbEntity
  8
OBJECT1
  6
CONTINUOUS
100
AcDbLine
 10
23.52391065167782
 20
11.92463040825064
 30
0.0
 11
23.49031314825398
 21
11.92463040825064
 31
0.0
  0
LINE
  5
BA2
330
1E
100
AcDbEntity
  8
OBJECT1
  6
CONTINUOUS
100
AcDbLine
 10
23.52391065167782
 20
11.92463040825064
 30
0.0
 11
23.53654114961351
 21
11.91199991031496
 31
0.0
  0
LINE
  5
BA3
330
1E
100
AcDbEntity
  8
OBJECT1
  6
CONTINUOUS
100
AcDbLine
 10
23.53654114961351
 20
11.91199991031496
 30
0.0
 11
23.53654114961351
 21
11.86021512138864
 31
0.0
  0
ARC
  5
BA4
330
1E
100
AcDbEntity
  8
OBJECT1
  6
CONTINUOUS
100
AcDbCircle
 10
23.55169774713632
 20
11.86021512138864
 30
0.0
 40
0.0151563449128551
100
AcDbArc
 50
180.0
 51
270.0004579999999
  0
LINE
  5
BA5
330
1E
100
AcDbEntity
  8
OBJECT1
  6
CONTINUOUS
100
AcDbLine
 10
23.48436999375533
 20
11.93491062313045
 30
0.0
 11
23.43725722601541
 21
11.96157739342205
 31
0.0
  0
ARC
  5
BA6
330
1E
100
AcDbEntity
  8
OBJECT1
  6
CONTINUOUS
100
AcDbCircle
 10
23.44509647086416
 20
11.97542723962843
 30
0.0
 40
0.0159146800089132
100
AcDbArc
 50
180.000214
 51
240.4889220000001
  0
ARC
  5
BA7
330
1E
100
AcDbEntity
  8
OBJECT1
  6
CONTINUOUS
100
AcDbCircle
 10
23.4132673634563
 20
11.9818096828453
 30
0.0
 40
0.0159144273989545
100
AcDbArc
 50
0.0002140000000833
 51
89.99932899999995
  0
LINE
  5
BA8
330
1E
100
AcDbEntity
  8
OBJECT1
  6
CONTINUOUS
100
AcDbLine
 10
23.41326761606626
 20
11.99772411024425
 30
0.0
 11
23.4132673634563
 21
11.99772411024425
 31
0.0
  0
ARC
  5
BA9
330
1E
100
AcDbEntity
  8
OBJECT1
  6
CONTINUOUS
100
AcDbCircle
 10
23.41326761606626
 20
12.00580788153304
 30
0.0
 40
0.008083518678834
100
AcDbArc
 50
180.0006409999999
 51
269.9985050000001
  0
LINE
  5
BAA
330
1E
100
AcDbEntity
  8
OBJECT1
  6
CONTINUOUS
100
AcDbLine
 10
23.42918204346522
 20
11.97542698701848
 30
0.0
 11
23.42918204346522
 21
11.9818096828453
 31
0.0
  0
LINE
  5
BAB
330
1E
100
AcDbEntity
  8
OBJECT1
  6
CONTINUOUS
100
AcDbLine
 10
23.47843871192473
 20
11.93148624253013
 30
0.0
 11
23.48436999375533
 21
11.93491062313045
 31
0.0
  0
LINE
  5
BAC
330
1E
100
AcDbEntity
  8
OBJECT2
  6
CONTINUOUS
100
AcDbLine
 10
22.95396082168512
 20
12.13665984014666
 30
0.0
 11
23.38150065070824
 21
12.13665984014666
 31
0.0
  0
LINE
  5
BAD
330
1E
100
AcDbEntity
  8
OBJECT1
  6
CONTINUOUS
100
AcDbLine
 10
22.94619180240488
 20
12.13665984014666
 30
0.0
 11
22.95396082168512
 21
12.13665984014666
 31
0.0
  0
ARC
  5
BAE
330
1E
100
AcDbEntity
  8
OBJECT1
  6
CONTINUOUS
100
AcDbCircle
 10
22.94619180240488
 20
12.12074541274771
 30
0.0
 40
0.0159144273989545
100
AcDbArc
 50
89.99957300000001
 51
180.000427
  0
ARC
  5
BAF
330
1E
100
AcDbEntity
  8
OBJECT1
  6
CONTINUOUS
100
AcDbCircle
 10
22.95396107429508
 20
12.15257426754563
 30
0.0
 40
0.0159144273989545
100
AcDbArc
 50
269.9997859999999
 51
355.996076
  0
ARC
  5
BB0
330
1E
100
AcDbEntity
  8
OBJECT1
  6
CONTINUOUS
100
AcDbCircle
 10
23.38150014548832
 20
12.1525737623257
 30
0.0
 40
0.0159139221790371
100
AcDbArc
 50
184.0025479999999
 51
270.0015180000001
  0
LINE
  5
BB1
330
1E
100
AcDbEntity
  8
OBJECT1
  6
CONTINUOUS
100
AcDbLine
 10
23.38926966998847
 20
12.13665984014666
 30
0.0
 11
23.38150065070824
 21
12.13665984014666
 31
0.0
  0
ARC
  5
BB2
330
1E
100
AcDbEntity
  8
OBJECT1
  6
CONTINUOUS
100
AcDbCircle
 10
23.38926941737851
 20
12.12074516013776
 30
0.0
 40
0.0159144273989545
100
AcDbArc
 50
0.0002140000000833
 51
89.99932899999995
  0
LINE
  5
BB3
330
1E
100
AcDbEntity
  8
OBJECT2
100
AcDbLine
 10
24.19451417098705
 20
13.11094693979484
 30
0.0
 11
24.46746225695632
 21
13.11094693979484
 31
0.0
  0
LINE
  5
BB4
330
1E
100
AcDbEntity
  8
OBJECT1
  6
CONTINUOUS
100
AcDbLine
 10
23.21496838230687
 20
12.48425114333701
 30
0.0
 11
23.29312114067821
 21
12.48425114333701
 31
0.0
  0
LINE
  5
BB5
330
1E
100
AcDbEntity
  8
OBJECT1
  6
CONTINUOUS
100
AcDbLine
 10
23.31511424833839
 20
12.45242228853862
 30
0.0
 11
23.24679765327402
 21
12.45242228853862
 31
0.0
  0
LINE
  5
BB6
330
1E
100
AcDbEntity
  8
OBJECT1
  6
CONTINUOUS
100
AcDbLine
 10
23.11576971456984
 20
12.491373228513
 30
0.0
 11
23.11576971456984
 21
12.52316722313659
 31
0.0
  0
LINE
  5
BB7
330
1E
100
AcDbEntity
  8
OBJECT2
  6
CONTINUOUS
100
AcDbLine
 10
23.1423498396456
 20
12.52316722313659
 30
0.0
 11
23.1423498396456
 21
12.491373228513
 31
0.0
  0
LINE
  5
BB8
330
1E
100
AcDbEntity
  8
OBJECT1
  6
CONTINUOUS
100
AcDbLine
 10
23.22209046748284
 20
12.52316722313659
 30
0.0
 11
23.22209046748284
 21
12.491373228513
 31
0.0
  0
LINE
  5
BB9
330
1E
100
AcDbEntity
  8
OBJECT2
  6
CONTINUOUS
100
AcDbLine
 10
23.19551034240709
 20
12.52316722313659
 30
0.0
 11
23.19551034240709
 21
12.491373228513
 31
0.0
  0
ARC
  5
BBA
330
1E
100
AcDbEntity
  8
OBJECT1
  6
CONTINUOUS
100
AcDbCircle
 10
23.08866381911933
 20
12.46833646332761
 30
0.0
 40
0.0159144273989545
100
AcDbArc
 50
269.9995649999999
 51
0.0005490000000164
  0
LINE
  5
BBB
330
1E
100
AcDbEntity
  8
OBJECT2
  6
CONTINUOUS
100
AcDbLine
 10
23.08866381911933
 20
12.45242228853862
 30
0.0
 11
23.24679765327402
 21
12.45242228853862
 31
0.0
  0
LINE
  5
BBC
330
1E
100
AcDbEntity
  8
OBJECT1
  6
CONTINUOUS
100
AcDbLine
 10
23.020346971445
 20
12.45242228853862
 30
0.0
 11
23.08866381911933
 21
12.45242228853862
 31
0.0
  0
ARC
  5
BBD
330
1E
100
AcDbEntity
  8
OBJECT1
  6
CONTINUOUS
100
AcDbCircle
 10
23.020346971445
 20
12.42084604369942
 30
0.0
 40
0.0315762448391954
100
AcDbArc
 50
90.00009199999984
 51
175.995834
  0
LINE
  5
BBE
330
1E
100
AcDbEntity
  8
OBJECT2
  6
CONTINUOUS
100
AcDbLine
 10
23.1423498396456
 20
12.491373228513
 30
0.0
 11
23.15946845871775
 21
12.48425114333701
 31
0.0
  0
LINE
  5
BBF
330
1E
100
AcDbEntity
  8
OBJECT2
  6
CONTINUOUS
100
AcDbLine
 10
23.19551034240709
 20
12.491373228513
 30
0.0
 11
23.17839172333493
 21
12.48425114333701
 31
0.0
  0
LINE
  5
BC0
330
1E
100
AcDbEntity
  8
OBJECT2
  6
CONTINUOUS
100
AcDbLine
 10
23.19551034240709
 20
12.491373228513
 30
0.0
 11
23.2068985045658
 21
12.48425114333701
 31
0.0
  0
LINE
  5
BC1
330
1E
100
AcDbEntity
  8
OBJECT1
  6
CONTINUOUS
100
AcDbLine
 10
23.22209046748284
 20
12.491373228513
 30
0.0
 11
23.21496838230687
 21
12.48425114333701
 31
0.0
  0
ARC
  5
BC2
330
1E
100
AcDbEntity
  8
OBJECT1
  6
CONTINUOUS
100
AcDbCircle
 10
23.21496854586615
 20
12.46833671593758
 30
0.0
 40
0.0159144273989545
100
AcDbArc
 50
0.000152999999969
 51
89.99987799999997
  0
ARC
  5
BC3
330
1E
100
AcDbEntity
  8
OBJECT1
  6
CONTINUOUS
100
AcDbCircle
 10
23.24679765327402
 20
12.46833671593758
 30
0.0
 40
0.0159144273989545
100
AcDbArc
 50
180.000214
 51
269.9992449999999
  0
LINE
  5
BC4
330
1E
100
AcDbEntity
  8
OBJECT1
  6
CONTINUOUS
100
AcDbLine
 10
23.11576971456984
 20
12.491373228513
 30
0.0
 11
23.12289205235577
 21
12.48425114333701
 31
0.0
  0
ARC
  5
BC5
330
1E
100
AcDbEntity
  8
OBJECT1
  6
CONTINUOUS
100
AcDbCircle
 10
23.12049242130728
 20
12.46833696854754
 30
0.0
 40
0.0159144273989545
100
AcDbArc
 50
89.99945099999999
 51
180.000488
  0
LINE
  5
BC6
330
1E
100
AcDbEntity
  8
OBJECT1
  6
CONTINUOUS
100
AcDbLine
 10
23.10299620551091
 20
12.48425114333701
 30
0.0
 11
23.12049237635116
 21
12.48425114333701
 31
0.0
  0
LINE
  5
BC7
330
1E
100
AcDbEntity
  8
OBJECT2
  6
CONTINUOUS
100
AcDbLine
 10
23.12049257379706
 20
12.48425139594576
 30
0.0
 11
23.21496857975277
 21
12.48425114333649
 31
0.0
  0
LINE
  5
BC8
330
1E
100
AcDbEntity
  8
OBJECT2
  6
CONTINUOUS
100
AcDbLine
 10
23.1423498396456
 20
12.491373228513
 30
0.0
 11
23.13096193009684
 21
12.48425114333701
 31
0.0
  0
LINE
  5
BC9
330
1E
100
AcDbEntity
  8
OBJECT2
  6
CONTINUOUS
100
AcDbLine
 10
23.13823810734763
 20
12.56711933507309
 30
0.0
 11
23.19962232731502
 21
12.56711933507309
 31
0.0
  0
LINE
  5
BCA
330
1E
100
AcDbEntity
  8
OBJECT2
  6
CONTINUOUS
100
AcDbLine
 10
23.13823810734763
 20
12.54870432169283
 30
0.0
 11
23.19962232731502
 21
12.54870432169283
 31
0.0
  0
LINE
  5
BCB
330
1E
100
AcDbEntity
  8
OBJECT2
  6
CONTINUOUS
100
AcDbLine
 10
23.19143801726265
 20
12.55791195468795
 30
0.0
 11
23.14642241739999
 21
12.55791195468795
 31
0.0
  0
LINE
  5
BCC
330
1E
100
AcDbEntity
  8
OBJECT2
  6
CONTINUOUS
100
AcDbLine
 10
23.19143801726265
 20
12.5763269680682
 30
0.0
 11
23.14642241739999
 21
12.5763269680682
 31
0.0
  0
LINE
  5
BCD
330
1E
100
AcDbEntity
  8
OBJECT2
  6
CONTINUOUS
100
AcDbLine
 10
23.19962232731502
 20
12.58553434845334
 30
0.0
 11
23.13823810734763
 21
12.58553434845334
 31
0.0
  0
LINE
  5
BCE
330
1E
100
AcDbEntity
  8
OBJECT2
100
AcDbLine
 10
23.19962232731502
 20
12.53028930831258
 30
0.0
 11
23.13823810734763
 21
12.53028930831258
 31
0.0
  0
LINE
  5
BCF
330
1E
100
AcDbEntity
  8
OBJECT2
  6
CONTINUOUS
100
AcDbLine
 10
23.19143801726265
 20
12.53949694130768
 30
0.0
 11
23.14642241739999
 21
12.53949694130768
 31
0.0
  0
LINE
  5
BD0
330
1E
100
AcDbEntity
  8
OBJECT2
  6
CONTINUOUS
100
AcDbLine
 10
23.1423498396456
 20
12.61933482397901
 30
0.0
 11
23.15946845871775
 21
12.62645716176495
 31
0.0
  0
LINE
  5
BD1
330
1E
100
AcDbEntity
  8
OBJECT2
  6
CONTINUOUS
100
AcDbLine
 10
23.1423498396456
 20
12.52316722313659
 30
0.0
 11
23.15946845871775
 21
12.53028930831258
 31
0.0
  0
LINE
  5
BD2
330
1E
100
AcDbEntity
  8
OBJECT1
  6
CONTINUOUS
100
AcDbLine
 10
23.13823810734763
 20
12.53028930831258
 30
0.0
 11
23.13823810734763
 21
12.58553434845334
 31
0.0
  0
LINE
  5
BD3
330
1E
100
AcDbEntity
  8
OBJECT2
  6
CONTINUOUS
100
AcDbLine
 10
23.1423498396456
 20
12.61933482397901
 30
0.0
 11
23.1423498396456
 21
12.58553434845334
 31
0.0
  0
LINE
  5
BD4
330
1E
100
AcDbEntity
  8
OBJECT2
  6
CONTINUOUS
100
AcDbLine
 10
23.19551034240709
 20
12.61933482397901
 30
0.0
 11
23.17839172333493
 21
12.62645716176495
 31
0.0
  0
LINE
  5
BD5
330
1E
100
AcDbEntity
  8
OBJECT2
  6
CONTINUOUS
100
AcDbLine
 10
23.19551034240709
 20
12.52316722313659
 30
0.0
 11
23.17839172333493
 21
12.53028930831258
 31
0.0
  0
LINE
  5
BD6
330
1E
100
AcDbEntity
  8
OBJECT1
  6
CONTINUOUS
100
AcDbLine
 10
23.22209046748284
 20
12.58553434845334
 30
0.0
 11
23.22209046748284
 21
12.61933482397901
 31
0.0
  0
LINE
  5
BD7
330
1E
100
AcDbEntity
  8
OBJECT1
  6
CONTINUOUS
100
AcDbLine
 10
23.19962232731502
 20
12.53028930831258
 30
0.0
 11
23.19962232731502
 21
12.58553434845334
 31
0.0
  0
LINE
  5
BD8
330
1E
100
AcDbEntity
  8
OBJECT2
  6
CONTINUOUS
100
AcDbLine
 10
23.19551034240709
 20
12.61933482397901
 30
0.0
 11
23.2068985045658
 21
12.62645716176495
 31
0.0
  0
LINE
  5
BD9
330
1E
100
AcDbEntity
  8
OBJECT2
  6
CONTINUOUS
100
AcDbLine
 10
23.19551034240709
 20
12.61933482397901
 30
0.0
 11
23.19551034240709
 21
12.58553434845334
 31
0.0
  0
LINE
  5
BDA
330
1E
100
AcDbEntity
  8
OBJECT2
  6
CONTINUOUS
100
AcDbLine
 10
23.19551034240709
 20
12.52316722313659
 30
0.0
 11
23.2068985045658
 21
12.53028930831258
 31
0.0
  0
LINE
  5
BDB
330
1E
100
AcDbEntity
  8
OBJECT1
  6
CONTINUOUS
100
AcDbLine
 10
23.21496838230687
 20
12.53028930831258
 30
0.0
 11
23.19962232731502
 21
12.53028930831258
 31
0.0
  0
LINE
  5
BDC
330
1E
100
AcDbEntity
  8
OBJECT1
  6
CONTINUOUS
100
AcDbLine
 10
23.22209046748284
 20
12.52316722313659
 30
0.0
 11
23.21496838230687
 21
12.53028930831258
 31
0.0
  0
LINE
  5
BDD
330
1E
100
AcDbEntity
  8
OBJECT1
  6
CONTINUOUS
100
AcDbLine
 10
23.22209046748284
 20
12.61933482397901
 30
0.0
 11
23.21496838230687
 21
12.62645716176495
 31
0.0
  0
LINE
  5
BDE
330
1E
100
AcDbEntity
  8
OBJECT1
  6
CONTINUOUS
100
AcDbLine
 10
23.22209046748284
 20
12.58553434845334
 30
0.0
 11
23.19962232731502
 21
12.58553434845334
 31
0.0
  0
LINE
  5
BDF
330
1E
100
AcDbEntity
  8
OBJECT1
  6
CONTINUOUS
100
AcDbLine
 10
23.11576971456984
 20
12.61933482397901
 30
0.0
 11
23.12289205235577
 21
12.62645716176495
 31
0.0
  0
LINE
  5
BE0
330
1E
100
AcDbEntity
  8
OBJECT1
  6
CONTINUOUS
100
AcDbLine
 10
23.11576971456984
 20
12.58553434845334
 30
0.0
 11
23.11576971456984
 21
12.61933482397901
 31
0.0
  0
LINE
  5
BE1
330
1E
100
AcDbEntity
  8
OBJECT1
  6
CONTINUOUS
100
AcDbLine
 10
23.11576971456984
 20
12.52316722313659
 30
0.0
 11
23.12289205235577
 21
12.53028930831258
 31
0.0
  0
LINE
  5
BE2
330
1E
100
AcDbEntity
  8
OBJECT1
  6
CONTINUOUS
100
AcDbLine
 10
23.12289205235577
 20
12.62645716176495
 30
0.0
 11
23.21496838230687
 21
12.62645716176495
 31
0.0
  0
LINE
  5
BE3
330
1E
100
AcDbEntity
  8
OBJECT2
  6
CONTINUOUS
100
AcDbLine
 10
23.1423498396456
 20
12.61933482397901
 30
0.0
 11
23.13096193009684
 21
12.62645716176495
 31
0.0
  0
LINE
  5
BE4
330
1E
100
AcDbEntity
  8
OBJECT1
  6
CONTINUOUS
100
AcDbLine
 10
23.11576971456984
 20
12.58553434845334
 30
0.0
 11
23.13823810734763
 21
12.58553434845334
 31
0.0
  0
LINE
  5
BE5
330
1E
100
AcDbEntity
  8
OBJECT2
  6
CONTINUOUS
100
AcDbLine
 10
23.1423498396456
 20
12.52316722313659
 30
0.0
 11
23.13096193009684
 21
12.53028930831258
 31
0.0
  0
LINE
  5
BE6
330
1E
100
AcDbEntity
  8
OBJECT1
  6
CONTINUOUS
100
AcDbLine
 10
23.13823810734763
 20
12.53028930831258
 30
0.0
 11
23.12289205235577
 21
12.53028930831258
 31
0.0
  0
ARC
  5
BE7
330
1E
100
AcDbEntity
  8
OBJECT1
  6
CONTINUOUS
100
AcDbCircle
 10
23.31511475355831
 20
12.42084629630939
 30
0.0
 40
0.031575739619278
100
AcDbArc
 50
4.003631999999991
 51
90.00067100000004
  0
ARC
  5
BE8
330
1E
100
AcDbEntity
  8
OBJECT1
  6
CONTINUOUS
100
AcDbCircle
 10
23.29312114067821
 20
12.43372915159432
 30
0.0
 40
0.0505219917427127
100
AcDbArc
 50
42.48646977536434
 51
90.0
  0
LINE
  5
BE9
330
1E
100
AcDbEntity
  8
OBJECT2
100
AcDbLine
 10
24.46746225695632
 20
13.43797587277739
 30
0.0
 11
24.46746225695632
 21
13.11094693979484
 31
0.0
  0
ARC
  5
BEA
330
1E
100
AcDbEntity
  8
OBJECT2
100
AcDbCircle
 10
25.27955917834348
 20
13.27623811792179
 30
0.0
 40
0.2146776813795378
100
AcDbArc
 50
48.88559448429395
 51
110.9653653992615
  0
ARC
  5
BEB
330
1E
100
AcDbEntity
  8
OBJECT2
100
AcDbCircle
 10
25.11316497330839
 20
12.83704868575813
 30
0.0
 40
0.6458971543014207
100
AcDbArc
 50
68.4934967781974
 51
82.02774531870751
  0
ARC
  5
BEC
330
1E
100
AcDbEntity
  8
OBJECT1
100
AcDbCircle
 10
26.14581798737721
 20
11.54168577296641
 30
0.0
 40
0.0656218946290567
100
AcDbArc
 50
276.9582268595477
 51
83.04177314045222
  0
ARC
  5
BED
330
1E
100
AcDbEntity
  8
OBJECT2
100
AcDbCircle
 10
26.16171760372482
 20
11.67196291761899
 30
0.0
 40
0.0656218946290567
100
AcDbArc
 50
96.95822685954778
 51
263.0417731404522
  0
ARC
  5
BEE
330
1E
100
AcDbEntity
  8
OBJECT1
100
AcDbCircle
 10
26.14581798737721
 20
11.67196291761899
 30
0.0
 40
0.0656218946290567
100
AcDbArc
 50
276.9582268595477
 51
83.04177314045222
  0
ARC
  5
BEF
330
1E
100
AcDbEntity
  8
OBJECT2
100
AcDbCircle
 10
25.93830509228256
 20
13.36860140021876
 30
0.0
 40
0.1302908259783106
100
AcDbArc
 50
52.67672809740911
 51
135.1374298892565
  0
ARC
  5
BF0
330
1E
100
AcDbEntity
  8
OBJECT2
100
AcDbCircle
 10
26.01461862707213
 20
13.14421269986919
 30
0.0
 40
0.3280104949863258
100
AcDbArc
 50
89.53128755290812
 51
116.4155861104315
  0
TEXT
  5
C22
330
1E
100
AcDbEntity
  8
TEXT
100
AcDbText
 10
1.471814442093497
 20
7.975918570064878
 30
0.0
 40
0.378914938070345
  1
MODEL 90
  7
ROMANS
100
AcDbText
  0
TEXT
  5
C33
330
1E
100
AcDbEntity
  8
TEXT
100
AcDbText
 10
19.19642583808949
 20
8.246253599276885
 30
0.0
 40
0.378914938070345
  1
DIRECTION OF FLOW
  7
ROMANS
100
AcDbText
  0
INSERT
  5
C34
330
1E
100
AcDbEntity
  8
OBJECT1
100
AcDbBlockReference
  2
SPECSHEET_FLOWARROW
 10
25.80062436424916
 20
8.412698257734172
 30
0.0
 41
0.1263049793567817
 42
0.1263049793567817
 43
0.1263049793567817
 50
270.0
  0
CIRCLE
  5
C64
330
1E
100
AcDbEntity
  8
OBJECT2
  6
CONTINUOUS
100
AcDbCircle
 10
11.07661906468672
 20
13.06711808543701
 30
0.0
 40
0.2104754070062619
  0
CIRCLE
  5
C65
330
1E
100
AcDbEntity
  8
OBJECT2
  6
CONTINUOUS
100
AcDbCircle
 10
11.07661906468672
 20
13.06711808543701
 30
0.0
 40
0.2211323896394904
  0
LINE
  5
C66
330
1E
100
AcDbEntity
  8
OBJECT2
  6
CONTINUOUS
100
AcDbLine
 10
11.02333415152058
 20
13.37613522416579
 30
0.0
 11
11.02333415152058
 21
13.28173458275489
 31
0.0
  0
LINE
  5
C67
330
1E
100
AcDbEntity
  8
OBJECT2
  6
CONTINUOUS
100
AcDbLine
 10
11.12990397785287
 20
13.37613522416579
 30
0.0
 11
11.12990397785286
 21
13.28173458275489
 31
0.0
  0
ARC
  5
C68
330
1E
100
AcDbEntity
  8
OBJECT2
  6
CONTINUOUS
100
AcDbCircle
 10
11.07661991724533
 20
13.28824940937823
 30
0.0
 40
0.0629414182697632
100
AcDbArc
 50
118.3672489999999
 51
147.84314
  0
LINE
  5
C69
330
1E
100
AcDbEntity
  8
OBJECT2
  6
CONTINUOUS
100
AcDbLine
 10
11.02333415152058
 20
13.34363268242486
 30
0.0
 11
11.12990397785286
 21
13.34363268242486
 31
0.0
  0
ARC
  5
C6A
330
1E
100
AcDbEntity
  8
OBJECT2
  6
CONTINUOUS
100
AcDbCircle
 10
11.07661821212811
 20
13.28824940937823
 30
0.0
 40
0.0629414182697632
100
AcDbArc
 50
32.15682999999962
 51
61.6326900000001
  0
LINE
  5
C6B
330
1E
100
AcDbEntity
  8
OBJECT2
  6
CONTINUOUS
100
AcDbLine
 10
10.94512099655342
 20
12.93521007797796
 30
0.0
 11
11.06859183943613
 21
13.04883502344352
 31
0.0
  0
LINE
  5
C6C
330
1E
100
AcDbEntity
  8
OBJECT2
  6
CONTINUOUS
100
AcDbLine
 10
10.94512099655342
 20
12.93521007797796
 30
0.0
 11
11.0583611448083
 21
13.05903403162426
 31
0.0
  0
CIRCLE
  5
C6D
330
1E
100
AcDbEntity
  8
OBJECT2
  6
CONTINUOUS
100
AcDbCircle
 10
11.07661906468672
 20
13.06711808543701
 30
0.0
 40
0.0199675620805748
  0
SOLID
  5
C6F
330
1E
100
AcDbEntity
  8
TEXT
100
AcDbTrace
 10
9.229039196803675
 20
14.4158539390995
 30
0.0
 11
9.117035790774163
 21
14.35747427784572
 31
0.0
 12
9.348176477550316
 22
14.05065389038415
 32
0.0
 13
9.348176477550316
 23
14.05065389038415
 33
0.0
  0
LINE
  5
C70
330
1E
100
AcDbEntity
  8
TEXT
100
AcDbLine
 10
9.333581562236844
 20
14.07865474189152
 30
0.0
 11
8.817044710192817
 21
15.09153639753249
 31
0.0
  0
LINE
  5
C71
330
1E
100
AcDbEntity
  8
TEXT
100
AcDbLine
 10
7.745994771059852
 20
15.09153639753249
 30
0.0
 11
8.817044710192817
 21
15.09153639753249
 31
0.0
  0
LINE
  5
C75
330
1E
100
AcDbEntity
  8
TEXT
100
AcDbLine
 10
10.88314121816647
 20
14.72859121393272
 30
0.0
 11
9.893631467797749
 21
16.66892958526139
 31
0.0
  0
SOLID
  5
C76
330
1E
100
AcDbEntity
  8
TEXT
100
AcDbTrace
 10
10.7785988527333
 20
15.0657904111407
 30
0.0
 11
10.66659544670379
 21
15.00741074988691
 31
0.0
 12
10.89773613347994
 22
14.70059036242534
 32
0.0
 13
10.89773613347994
 23
14.70059036242534
 33
0.0
  0
LINE
  5
C77
330
1E
100
AcDbEntity
  8
TEXT
100
AcDbLine
 10
9.08671936880572
 20
16.66892958526139
 30
0.0
 11
9.893631467797749
 21
16.66892958526139
 31
0.0
  0
TEXT
  5
C78
330
1E
100
AcDbEntity
  8
TEXT
100
AcDbText
 10
4.509817590297743
 20
14.86240516050429
 30
0.0
 40
0.378914938070345
  1
MODEL YB
  7
ROMANS
100
AcDbText
  0
TEXT
  5
C79
330
1E
100
AcDbEntity
  8
TEXT
100
AcDbText
 10
5.577046796649957
 20
16.49749553383465
 30
0.0
 40
0.378914938070345
  1
MODEL 90G
  7
ROMANS
100
AcDbText
  0
TEXT
  5
C7A
330
1E
100
AcDbEntity
  8
TEXT
100
AcDbText
 10
4.670802762907298
 20
14.32131743314938
 30
0.0
 40
0.378914938070345
  1
STRAINER
  7
ROMANS
100
AcDbText
  0
TEXT
  5
C7C
330
1E
100
AcDbEntity
  8
TEXT
100
AcDbText
 10
3.514050547941394
 20
12.63396302505018
 30
0.0
 40
0.378914938070345
  1
MODEL DU
  7
ROMANS
100
AcDbText
  0
TEXT
  5
C7D
330
1E
100
AcDbEntity
  8
TEXT
100
AcDbText
 10
1.324026115401675
 20
12.02511772861348
 30
0.0
 40
0.378914938070345
  1
DIELECTRIC UNION
  7
ROMANS
100
AcDbText
  0
LINE
  5
C7E
330
1E
100
AcDbEntity
  8
TEXT
100
AcDbLine
 10
7.885015195996291
 20
12.33827281000323
 30
0.0
 11
7.611781198139516
 21
12.87405975924297
 31
0.0
  0
SOLID
  5
C7F
330
1E
100
AcDbEntity
  8
TEXT
100
AcDbTrace
 10
7.780472830563125
 20
12.67547200721121
 30
0.0
 11
7.668469424533615
 21
12.61709234595742
 31
0.0
 12
7.899610111309768
 22
12.31027195849583
 32
0.0
 13
7.899610111309768
 23
12.31027195849583
 33
0.0
  0
LINE
  5
C80
330
1E
100
AcDbEntity
  8
TEXT
100
AcDbLine
 10
6.721832228611742
 20
12.87405975924297
 30
0.0
 11
7.611781198139516
 21
12.87405975924297
 31
0.0
  0
TEXT
  5
C81
330
1E
100
AcDbEntity
  8
TEXT
100
AcDbText
 10
7.097525898625159
 20
8.246253599276885
 30
0.0
 40
0.378914938070345
  1
DIRECTION OF FLOW
  7
ROMANS
100
AcDbText
  0
INSERT
  5
C82
330
1E
100
AcDbEntity
  8
OBJECT1
100
AcDbBlockReference
  2
SPECSHEET_FLOWARROW
 10
13.70172442478483
 20
8.412698257734172
 30
0.0
 41
0.1263049793567817
 42
0.1263049793567817
 43
0.1263049793567817
 50
270.0
  0
LINE
  5
C91
330
1E
100
AcDbEntity
  8
TEXT
100
AcDbLine
 10
23.33037791936873
 20
12.46785251736112
 30
0.0
 11
24.31988766973747
 21
14.4081908886898
 31
0.0
  0
SOLID
  5
C92
330
1E
100
AcDbEntity
  8
TEXT
100
AcDbTrace
 10
23.4349202848019
 20
12.80505171456911
 30
0.0
 11
23.54692369083142
 21
12.74667205331531
 31
0.0
 12
23.31578300405527
 22
12.43985166585375
 32
0.0
 13
23.31578300405527
 23
12.43985166585375
 33
0.0
  0
TEXT
  5
C93
330
1E
100
AcDbEntity
  8
TEXT
100
AcDbText
 10
25.42471715152709
 20
14.23675683726305
 30
0.0
 40
0.378914938070345
  1
MODEL 90
  7
ROMANS
100
AcDbText
  0
LINE
  5
C94
330
1E
100
AcDbEntity
  8
TEXT
100
AcDbLine
 10
25.12679976872949
 20
14.4081908886898
 30
0.0
 11
24.31988766973747
 21
14.4081908886898
 31
0.0
  0
LINE
  5
C9F
330
1E
100
AcDbEntity
  8
TEXT
100
AcDbLine
 10
21.68297790688026
 20
12.09783753595643
 30
0.0
 11
23.80464176806324
 21
16.25822685943775
 31
0.0
  0
SOLID
  5
CA0
330
1E
100
AcDbEntity
  8
TEXT
100
AcDbTrace
 10
21.78752027231342
 20
12.43503673316441
 30
0.0
 11
21.89952367834294
 21
12.37665707191061
 31
0.0
 12
21.66838299156678
 22
12.06983668444905
 32
0.0
 13
21.66838299156678
 23
12.06983668444905
 33
0.0
  0
LINE
  5
CA1
330
1E
100
AcDbEntity
  8
TEXT
100
AcDbLine
 10
23.80464176806324
 20
16.25822685943775
 30
0.0
 11
25.19616204562046
 21
16.25822685943775
 31
0.0
  0
TEXT
  5
CA2
330
1E
100
AcDbEntity
  8
TEXT
100
AcDbText
 10
25.40257417714439
 20
16.09426015344327
 30
0.0
 40
0.378914938070345
  1
MODEL 850
  7
ROMANS
100
AcDbText
  0
TEXT
  5
CA3
330
1E
100
AcDbEntity
  8
TEXT
100
AcDbText
 10
25.40257417714439
 20
15.50202218358139
 30
0.0
 40
0.378914938070345
  1
SHUT-OFF VALVE
  7
ROMANS
100
AcDbText
  0
TEXT
  5
CAE
330
1E
100
AcDbEntity
  8
TEXT
100
AcDbText
 10
6.354921553326899
 20
6.643001905572692
 30
0.0
 40
0.5683724071055175
  1
WILKINS MODEL 90
  7
ROMANS
 72
     1
 11
10.46885516666207
 21
6.927188109125451
 31
0.0
100
AcDbText
 73
     2
  0
TEXT
  5
CAF
330
1E
100
AcDbEntity
  8
TEXT
100
AcDbText
 10
6.618808742340176
 20
6.012685917026463
 30
0.0
 40
0.2841862035527587
  1
WATER PRESSURE REDUCING VALVE
  7
ROMANS
 72
     1
 11
10.46885516666207
 21
6.154779018802843
 31
0.0
100
AcDbText
 73
     2
  0
TEXT
  5
CB0
330
1E
100
AcDbEntity
  8
TEXT
100
AcDbText
 10
6.544379022362071
 20
5.455699672703675
 30
0.0
 40
0.2841862035527587
  1
HORIZONTAL OUTDOOR INSTALLATION
  7
ROMANS
 72
     1
 11
10.46885516666207
 21
5.597792774480054
 31
0.0
100
AcDbText
 73
     2
  0
TEXT
  5
CB1
330
1E
100
AcDbEntity
  8
TEXT
100
AcDbText
 10
17.80199000105564
 20
6.012685917026463
 30
0.0
 40
0.2841862035527587
  1
PRESSURE REDUCING VALVE W/STRAINER
  7
ROMANS
 72
     1
 11
22.28807221428133
 21
6.154779018802843
 31
0.0
100
AcDbText
 73
     2
  0
TEXT
  5
CB2
330
1E
100
AcDbEntity
  8
TEXT
100
AcDbText
 10
18.17413860094616
 20
6.643001905572692
 30
0.0
 40
0.5683724071055175
  1
WILKINS MODEL 90
  7
ROMANS
 72
     1
 11
22.28807221428133
 21
6.927188109125451
 31
0.0
100
AcDbText
 73
     2
  0
TEXT
  5
CB3
330
1E
100
AcDbEntity
  8
TEXT
100
AcDbText
 10
19.04699622614392
 20
5.455699672703675
 30
0.0
 40
0.2841862035527587
  1
HORIZONTAL PIT INSTALLATION
  7
ROMANS
 72
     1
 11
22.28807221428133
 21
5.597792774480054
 31
0.0
100
AcDbText
 73
     2
  0
ENDSEC
  0
SECTION
  2
OBJECTS
  0
DICTIONARY
  5
C
330
0
100
AcDbDictionary
  3
ACAD_GROUP
350
D
  3
ACAD_LAYOUT
350
19
  3
ACAD_MLINESTYLE
350
16
  3
ACAD_PLOTSETTINGS
350
18
  3
ACAD_PLOTSTYLENAME
350
E
  3
ACDBHEADERROUNDTRIPXREC
350
E90
  3
ACDBVARIABLEDICTIONARY
350
1C8
  0
DICTIONARY
  5
EB3
330
1E
100
AcDbDictionary
280
     1
  3
ACAD_LAYOUTSELFREF
360
EB4
  0
DICTIONARY
  5
EB1
330
1A
100
AcDbDictionary
280
     1
  3
ACAD_LAYOUTSELFREF
360
EB2
  0
DICTIONARY
  5
D
102
{ACAD_REACTORS
330
C
102
}
330
C
100
AcDbDictionary
  0
DICTIONARY
  5
19
102
{ACAD_REACTORS
330
C
102
}
330
C
100
AcDbDictionary
  0
DICTIONARY
  5
16
102
{ACAD_REACTORS
330
C
102
}
330
C
100
AcDbDictionary
  3
STANDARD
350
17
  0
DICTIONARY
  5
18
102
{ACAD_REACTORS
330
C
102
}
330
C
100
AcDbDictionary
  0
ACDBDICTIONARYWDFLT
  5
E
102
{ACAD_REACTORS
330
C
102
}
330
C
100
AcDbDictionary
281
     1
  3
Normal
350
F
100
AcDbDictionaryWithDefault
340
F
  0
DICTIONARY
  5
E90
102
{ACAD_REACTORS
330
C
102
}
330
C
100
AcDbDictionary
  3
CEPSNTYPE
350
E9A
  3
DIMSTYLEDATA
350
E9E
  3
FINGERPRINTGUID
350
E9B
  3
HYPERLINKBASE
350
E93
  3
INSUNITS
350
E99
  3
LAYOUTDICT
350
E95
  3
LWETCUNION
350
E98
  3
PLOTSETDICT
350
E96
  3
PLOTSTYLNAMDICT
350
E97
  3
PSVPSCALE
350
E9D
  3
PUCSBASE
350
EA1
  3
PUCSORGBACK
350
EA7
  3
PUCSORGBOTTOM
350
EA3
  3
PUCSORGFRONT
350
EA6
  3
PUCSORGLEFT
350
EA4
  3
PUCSORGRIGHT
350
EA5
  3
PUCSORGTOP
350
EA2
  3
PUCSORTHOREF
350
E9F
  3
PUCSORTHOVIEW
350
EA0
  3
STYLESHEET
350
E94
  3
TSTACKALIGN
350
E91
  3
TSTACKSIZE
350
E92
  3
UCSBASE
350
EAA
  3
UCSORGBACK
350
EB0
  3
UCSORGBOTTOM
350
EAC
  3
UCSORGFRONT
350
EAF
  3
UCSORGLEFT
350
EAD
  3
UCSORGRIGHT
350
EAE
  3
UCSORGTOP
350
EAB
  3
UCSORTHOREF
350
EA8
  3
UCSORTHOVIEW
350
EA9
  3
VERSIONGUID
350
E9C
  0
DICTIONARY
  5
1C8
102
{ACAD_REACTORS
330
C
102
}
330
C
100
AcDbDictionary
  3
DIMASSOC
350
1CA
  3
HIDETEXT
350
1C9
  0
XRECORD
  5
EB4
102
{ACAD_REACTORS
330
EB3
102
}
330
EB3
100
AcDbXrecord
340
1E
  0
XRECORD
  5
EB2
102
{ACAD_REACTORS
330
EB1
102
}
330
EB1
100
AcDbXrecord
340
1A
  0
MLINESTYLE
  5
17
102
{ACAD_REACTORS
330
16
102
}
330
16
100
AcDbMlineStyle
  2
STANDARD
 70
     0
  3

 62
   256
 51
90.0
 52
90.0
 71
     2
 49
0.5
 62
   256
  6
BYLAYER
 49
-0.5
 62
   256
  6
BYLAYER
  0
ACDBPLACEHOLDER
  5
F
102
{ACAD_REACTORS
330
E
102
}
330
E
100
AcDbPlaceHolder
280
     0
  0
XRECORD
  5
E9A
102
{ACAD_REACTORS
330
E90
102
}
330
E90
100
AcDbXrecord
 90
        0
  0
XRECORD
  5
E9E
102
{ACAD_REACTORS
330
E90
102
}
330
E90
100
AcDbXrecord
1000
DSTYLE
1002
{
1070
   279
 70
     2
1002
}
  0
XRECORD
  5
E9B
102
{ACAD_REACTORS
330
E90
102
}
330
E90
100
AcDbXrecord
  1
{8ACEF66E-27F9-407C-9BB2-2B274788C551}
  0
XRECORD
  5
E93
102
{ACAD_REACTORS
330
E90
102
}
330
E90
100
AcDbXrecord
  1

  0
XRECORD
  5
E99
102
{ACAD_REACTORS
330
E90
102
}
330
E90
100
AcDbXrecord
 90
        0
  0
XRECORD
  5
E95
102
{ACAD_REACTORS
330
E90
102
}
330
E90
100
AcDbXrecord
340
19
  0
XRECORD
  5
E98
102
{ACAD_REACTORS
330
E90
102
}
330
E90
100
AcDbXrecord
 90
    14877
  0
XRECORD
  5
E96
102
{ACAD_REACTORS
330
E90
102
}
330
E90
100
AcDbXrecord
340
18
  0
XRECORD
  5
E97
102
{ACAD_REACTORS
330
E90
102
}
330
E90
100
AcDbXrecord
340
E
  0
XRECORD
  5
E9D
102
{ACAD_REACTORS
330
E90
102
}
330
E90
100
AcDbXrecord
 40
0.0
  0
XRECORD
  5
EA1
102
{ACAD_REACTORS
330
E90
102
}
330
E90
100
AcDbXrecord
340
0
  0
XRECORD
  5
EA7
102
{ACAD_REACTORS
330
E90
102
}
330
E90
100
AcDbXrecord
 10
0.0
 20
0.0
 30
0.0
  0
XRECORD
  5
EA3
102
{ACAD_REACTORS
330
E90
102
}
330
E90
100
AcDbXrecord
 10
0.0
 20
0.0
 30
0.0
  0
XRECORD
  5
EA6
102
{ACAD_REACTORS
330
E90
102
}
330
E90
100
AcDbXrecord
 10
0.0
 20
0.0
 30
0.0
  0
XRECORD
  5
EA4
102
{ACAD_REACTORS
330
E90
102
}
330
E90
100
AcDbXrecord
 10
0.0
 20
0.0
 30
0.0
  0
XRECORD
  5
EA5
102
{ACAD_REACTORS
330
E90
102
}
330
E90
100
AcDbXrecord
 10
0.0
 20
0.0
 30
0.0
  0
XRECORD
  5
EA2
102
{ACAD_REACTORS
330
E90
102
}
330
E90
100
AcDbXrecord
 10
0.0
 20
0.0
 30
0.0
  0
XRECORD
  5
E9F
102
{ACAD_REACTORS
330
E90
102
}
330
E90
100
AcDbXrecord
340
0
  0
XRECORD
  5
EA0
102
{ACAD_REACTORS
330
E90
102
}
330
E90
100
AcDbXrecord
 70
     0
  0
XRECORD
  5
E94
102
{ACAD_REACTORS
330
E90
102
}
330
E90
100
AcDbXrecord
  1

  0
XRECORD
  5
E91
102
{ACAD_REACTORS
330
E90
102
}
330
E90
100
AcDbXrecord
 90
        1
  0
XRECORD
  5
E92
102
{ACAD_REACTORS
330
E90
102
}
330
E90
100
AcDbXrecord
 90
       70
  0
XRECORD
  5
EAA
102
{ACAD_REACTORS
330
E90
102
}
330
E90
100
AcDbXrecord
340
0
  0
XRECORD
  5
EB0
102
{ACAD_REACTORS
330
E90
102
}
330
E90
100
AcDbXrecord
 10
0.0
 20
0.0
 30
0.0
  0
XRECORD
  5
EAC
102
{ACAD_REACTORS
330
E90
102
}
330
E90
100
AcDbXrecord
 10
0.0
 20
0.0
 30
0.0
  0
XRECORD
  5
EAF
102
{ACAD_REACTORS
330
E90
102
}
330
E90
100
AcDbXrecord
 10
0.0
 20
0.0
 30
0.0
  0
XRECORD
  5
EAD
102
{ACAD_REACTORS
330
E90
102
}
330
E90
100
AcDbXrecord
 10
0.0
 20
0.0
 30
0.0
  0
XRECORD
  5
EAE
102
{ACAD_REACTORS
330
E90
102
}
330
E90
100
AcDbXrecord
 10
0.0
 20
0.0
 30
0.0
  0
XRECORD
  5
EAB
102
{ACAD_REACTORS
330
E90
102
}
330
E90
100
AcDbXrecord
 10
0.0
 20
0.0
 30
0.0
  0
XRECORD
  5
EA8
102
{ACAD_REACTORS
330
E90
102
}
330
E90
100
AcDbXrecord
340
0
  0
XRECORD
  5
EA9
102
{ACAD_REACTORS
330
E90
102
}
330
E90
100
AcDbXrecord
 70
     0
  0
XRECORD
  5
E9C
102
{ACAD_REACTORS
330
E90
102
}
330
E90
100
AcDbXrecord
  1
{F5393E70-F9D8-42BF-A8BC-18A1357ABD2D}
  0
DICTIONARYVAR
  5
1CA
102
{ACAD_REACTORS
330
1C8
102
}
330
1C8
100
DictionaryVariables
280
     0
  1
2
  0
DICTIONARYVAR
  5
1C9
102
{ACAD_REACTORS
330
1C8
102
}
330
1C8
100
DictionaryVariables
280
     0
  1
1
  0
ENDSEC
  0
EOF
