  0
SECTION
  2
HEADER
  9
$ACADVER
  1
AC1015
  9
$ACADMAINTVER
 70
     6
  9
$DWGCODEPAGE
  3
ANSI_1252
  9
$INSBASE
 10
0.0
 20
0.0
 30
0.0
  9
$EXTMIN
 10
0.0
 20
0.0
 30
0.0
  9
$EXTMAX
 10
17.0
 20
11.0
 30
0.0
  9
$LIMMIN
 10
0.0
 20
0.0
  9
$LIMMAX
 10
17.0
 20
11.0
  9
$ORTHOMODE
 70
     0
  9
$REGENMODE
 70
     1
  9
$FILLMODE
 70
     1
  9
$QTEXTMODE
 70
     0
  9
$MIRRTEXT
 70
     1
  9
$LTSCALE
 40
1.0
  9
$ATTMODE
 70
     1
  9
$TEXTSIZE
 40
0.125
  9
$TRACEWID
 40
0.05
  9
$TEXTSTYLE
  7
Standard
  9
$CLAYER
  8
0
  9
$CELTYPE
  6
ByLayer
  9
$CECOLOR
 62
   256
  9
$CELTSCALE
 40
1.0
  9
$DISPSILH
 70
     0
  9
$DIMSCALE
 40
1.0
  9
$DIMASZ
 40
0.13
  9
$DIMEXO
 40
0.05
  9
$DIMDLI
 40
0.38
  9
$DIMRND
 40
0.0
  9
$DIMDLE
 40
0.0
  9
$DIMEXE
 40
0.125
  9
$DIMTP
 40
0.0
  9
$DIMTM
 40
0.0
  9
$DIMTXT
 40
0.125
  9
$DIMCEN
 40
0.09
  9
$DIMTSZ
 40
0.0
  9
$DIMTOL
 70
     0
  9
$DIMLIM
 70
     0
  9
$DIMTIH
 70
     1
  9
$DIMTOH
 70
     1
  9
$DIMSE1
 70
     0
  9
$DIMSE2
 70
     0
  9
$DIMTAD
 70
     0
  9
$DIMZIN
 70
     0
  9
$DIMBLK
  1

  9
$DIMASO
 70
     1
  9
$DIMSHO
 70
     1
  9
$DIMPOST
  1

  9
$DIMAPOST
  1

  9
$DIMALT
 70
     0
  9
$DIMALTD
 70
     2
  9
$DIMALTF
 40
25.4
  9
$DIMLFAC
 40
8.0
  9
$DIMTOFL
 70
     0
  9
$DIMTVP
 40
0.0
  9
$DIMTIX
 70
     0
  9
$DIMSOXD
 70
     0
  9
$DIMSAH
 70
     0
  9
$DIMBLK1
  1

  9
$DIMBLK2
  1

  9
$DIMSTYLE
  2
Standard
  9
$DIMCLRD
 70
     0
  9
$DIMCLRE
 70
     0
  9
$DIMCLRT
 70
     0
  9
$DIMTFAC
 40
1.0
  9
$DIMGAP
 40
0.06
  9
$DIMJUST
 70
     0
  9
$DIMSD1
 70
     0
  9
$DIMSD2
 70
     0
  9
$DIMTOLJ
 70
     1
  9
$DIMTZIN
 70
     0
  9
$DIMALTZ
 70
     0
  9
$DIMALTTZ
 70
     0
  9
$DIMUPT
 70
     0
  9
$DIMDEC
 70
     3
  9
$DIMTDEC
 70
     3
  9
$DIMALTU
 70
     2
  9
$DIMALTTD
 70
     2
  9
$DIMTXSTY
  7
Standard
  9
$DIMAUNIT
 70
     0
  9
$DIMADEC
 70
     2
  9
$DIMALTRND
 40
0.0
  9
$DIMAZIN
 70
     0
  9
$DIMDSEP
 70
    46
  9
$DIMATFIT
 70
     3
  9
$DIMFRAC
 70
     0
  9
$DIMLDRBLK
  1

  9
$DIMLUNIT
 70
     2
  9
$DIMLWD
 70
    -2
  9
$DIMLWE
 70
    -2
  9
$DIMTMOVE
 70
     0
  9
$LUNITS
 70
     2
  9
$LUPREC
 70
     3
  9
$SKETCHINC
 40
0.1
  9
$FILLETRAD
 40
0.5
  9
$AUNITS
 70
     0
  9
$AUPREC
 70
     2
  9
$MENU
  1
.
  9
$ELEVATION
 40
0.0
  9
$PELEVATION
 40
0.0
  9
$THICKNESS
 40
0.0
  9
$LIMCHECK
 70
     0
  9
$CHAMFERA
 40
0.5
  9
$CHAMFERB
 40
0.5
  9
$CHAMFERC
 40
1.0
  9
$CHAMFERD
 40
0.0
  9
$SKPOLY
 70
     0
  9
$TDCREATE
 40
2456503.595740151
  9
$TDUCREATE
 40
2456503.804073484
  9
$TDUPDATE
 40
2456503.595740162
  9
$TDUUPDATE
 40
2456503.804073495
  9
$TDINDWG
 40
0.0000000116
  9
$TDUSRTIMER
 40
0.0000000116
  9
$USRTIMER
 70
     1
  9
$ANGBASE
 50
0.0
  9
$ANGDIR
 70
     0
  9
$PDMODE
 70
     0
  9
$PDSIZE
 40
-1.0
  9
$PLINEWID
 40
0.0
  9
$SPLFRAME
 70
     0
  9
$SPLINETYPE
 70
     6
  9
$SPLINESEGS
 70
     8
  9
$HANDSEED
  5
27B
  9
$SURFTAB1
 70
     6
  9
$SURFTAB2
 70
     6
  9
$SURFTYPE
 70
     6
  9
$SURFU
 70
     6
  9
$SURFV
 70
     6
  9
$UCSBASE
  2

  9
$UCSNAME
  2

  9
$UCSORG
 10
0.0
 20
0.0
 30
0.0
  9
$UCSXDIR
 10
1.0
 20
0.0
 30
0.0
  9
$UCSYDIR
 10
0.0
 20
1.0
 30
0.0
  9
$UCSORTHOREF
  2

  9
$UCSORTHOVIEW
 70
     0
  9
$UCSORGTOP
 10
0.0
 20
0.0
 30
0.0
  9
$UCSORGBOTTOM
 10
0.0
 20
0.0
 30
0.0
  9
$UCSORGLEFT
 10
0.0
 20
0.0
 30
0.0
  9
$UCSORGRIGHT
 10
0.0
 20
0.0
 30
0.0
  9
$UCSORGFRONT
 10
0.0
 20
0.0
 30
0.0
  9
$UCSORGBACK
 10
0.0
 20
0.0
 30
0.0
  9
$PUCSBASE
  2

  9
$PUCSNAME
  2

  9
$PUCSORG
 10
0.0
 20
0.0
 30
0.0
  9
$PUCSXDIR
 10
1.0
 20
0.0
 30
0.0
  9
$PUCSYDIR
 10
0.0
 20
1.0
 30
0.0
  9
$PUCSORTHOREF
  2

  9
$PUCSORTHOVIEW
 70
     0
  9
$PUCSORGTOP
 10
0.0
 20
0.0
 30
0.0
  9
$PUCSORGBOTTOM
 10
0.0
 20
0.0
 30
0.0
  9
$PUCSORGLEFT
 10
0.0
 20
0.0
 30
0.0
  9
$PUCSORGRIGHT
 10
0.0
 20
0.0
 30
0.0
  9
$PUCSORGFRONT
 10
0.0
 20
0.0
 30
0.0
  9
$PUCSORGBACK
 10
0.0
 20
0.0
 30
0.0
  9
$USERI1
 70
     0
  9
$USERI2
 70
     0
  9
$USERI3
 70
     0
  9
$USERI4
 70
     0
  9
$USERI5
 70
     0
  9
$USERR1
 40
0.0
  9
$USERR2
 40
0.0
  9
$USERR3
 40
0.0
  9
$USERR4
 40
0.0
  9
$USERR5
 40
0.0
  9
$WORLDVIEW
 70
     1
  9
$SHADEDGE
 70
     3
  9
$SHADEDIF
 70
    70
  9
$TILEMODE
 70
     1
  9
$MAXACTVP
 70
    64
  9
$PINSBASE
 10
0.0
 20
0.0
 30
0.0
  9
$PLIMCHECK
 70
     0
  9
$PEXTMIN
 10
1.0000000000E+20
 20
1.0000000000E+20
 30
1.0000000000E+20
  9
$PEXTMAX
 10
-1.0000000000E+20
 20
-1.0000000000E+20
 30
-1.0000000000E+20
  9
$PLIMMIN
 10
0.0
 20
0.0
  9
$PLIMMAX
 10
12.0
 20
9.0
  9
$UNITMODE
 70
     0
  9
$VISRETAIN
 70
     1
  9
$PLINEGEN
 70
     0
  9
$PSLTSCALE
 70
     1
  9
$TREEDEPTH
 70
  3020
  9
$CMLSTYLE
  2
Standard
  9
$CMLJUST
 70
     0
  9
$CMLSCALE
 40
1.0
  9
$PROXYGRAPHICS
 70
     1
  9
$MEASUREMENT
 70
     0
  9
$CELWEIGHT
370
    -1
  9
$ENDCAPS
280
     0
  9
$JOINSTYLE
280
     0
  9
$LWDISPLAY
290
     1
  9
$INSUNITS
 70
     1
  9
$HYPERLINKBASE
  1

  9
$STYLESHEET
  1

  9
$XEDIT
290
     1
  9
$CEPSNTYPE
380
     0
  9
$PSTYLEMODE
290
     1
  9
$FINGERPRINTGUID
  2
{EF693EB4-ADC3-41AE-B2DC-150B52CEBA78}
  9
$VERSIONGUID
  2
{FAEB1C32-E019-11D5-929B-00C0DF256EC4}
  9
$EXTNAMES
290
     1
  9
$PSVPSCALE
 40
0.0
  9
$OLESTARTUP
290
     0
  0
ENDSEC
  0
SECTION
  2
CLASSES
  0
CLASS
  1
ACDBDICTIONARYWDFLT
  2
AcDbDictionaryWithDefault
  3
ObjectDBX Classes
 90
        0
280
     0
281
     0
  0
CLASS
  1
VISUALSTYLE
  2
AcDbVisualStyle
  3
ObjectDBX Classes
 90
     4095
280
     0
281
     0
  0
CLASS
  1
MATERIAL
  2
AcDbMaterial
  3
ObjectDBX Classes
 90
     1153
280
     0
281
     0
  0
CLASS
  1
DICTIONARYVAR
  2
AcDbDictionaryVar
  3
ObjectDBX Classes
 90
        0
280
     0
281
     0
  0
CLASS
  1
ACDBPLACEHOLDER
  2
AcDbPlaceHolder
  3
ObjectDBX Classes
 90
        0
280
     0
281
     0
  0
CLASS
  1
LAYOUT
  2
AcDbLayout
  3
ObjectDBX Classes
 90
        0
280
     0
281
     0
  0
ENDSEC
  0
SECTION
  2
TABLES
  0
TABLE
  2
VPORT
  5
8
330
0
100
AcDbSymbolTable
 70
     1
  0
VPORT
  5
29
330
8
100
AcDbSymbolTableRecord
100
AcDbViewportTableRecord
  2
*Active
 70
     0
 10
0.0
 20
0.0
 11
1.0
 21
1.0
 12
8.5
 22
5.5
 13
0.0
 23
0.0
 14
0.5
 24
0.5
 15
0.5
 25
0.5
 16
0.0
 26
0.0
 36
1.0
 17
0.0
 27
0.0
 37
0.0
 40
11.0
 41
1.5454545455
 42
50.0
 43
0.0
 44
0.0
 50
0.0
 51
0.0
 71
     0
 72
  2000
 73
     1
 74
     3
 75
     0
 76
     0
 77
     0
 78
     0
281
     0
 65
     1
110
0.0
120
0.0
130
0.0
111
1.0
121
0.0
131
0.0
112
0.0
122
1.0
132
0.0
 79
     0
146
0.0
  0
ENDTAB
  0
TABLE
  2
LTYPE
  5
5
330
0
100
AcDbSymbolTable
 70
     6
  0
LTYPE
  5
14
330
5
100
AcDbSymbolTableRecord
100
AcDbLinetypeTableRecord
  2
ByBlock
 70
     0
  3

 72
    65
 73
     0
 40
0.0
  0
LTYPE
  5
15
330
5
100
AcDbSymbolTableRecord
100
AcDbLinetypeTableRecord
  2
ByLayer
 70
     0
  3

 72
    65
 73
     0
 40
0.0
  0
LTYPE
  5
16
330
5
100
AcDbSymbolTableRecord
100
AcDbLinetypeTableRecord
  2
Continuous
 70
     0
  3
Solid line
 72
    65
 73
     0
 40
0.0
  0
LTYPE
  5
3F
330
5
100
AcDbSymbolTableRecord
100
AcDbLinetypeTableRecord
  2
HIDDEN
 70
     0
  3
Hidden __ __ __ __ __ __ __ __ __ __ __ __ __ __
 72
    65
 73
     2
 40
0.075
 49
0.05
 74
     0
 49
-0.025
 74
     0
  0
LTYPE
  5
40
330
5
100
AcDbSymbolTableRecord
100
AcDbLinetypeTableRecord
  2
PHANTOM
 70
     0
  3
Phantom ______  __  __  ______  __  __  ______
 72
    65
 73
     6
 40
0.5
 49
0.25
 74
     0
 49
-0.05
 74
     0
 49
0.05
 74
     0
 49
-0.05
 74
     0
 49
0.05
 74
     0
 49
-0.05
 74
     0
  0
LTYPE
  5
41
330
5
100
AcDbSymbolTableRecord
100
AcDbLinetypeTableRecord
  2
CENTER
 70
     0
  3
Center ____ _ ____ _ ____ _ ____ _ ____ _ ____
 72
    65
 73
     4
 40
0.4
 49
0.25
 74
     0
 49
-0.05
 74
     0
 49
0.05
 74
     0
 49
-0.05
 74
     0
  0
LTYPE
  5
42
330
5
100
AcDbSymbolTableRecord
100
AcDbLinetypeTableRecord
  2
CENTERX2
 70
     0
  3
Center (2x) ________  __  ________  __  _____
 72
    65
 73
     4
 40
0.8
 49
0.5
 74
     0
 49
-0.1
 74
     0
 49
0.1
 74
     0
 49
-0.1
 74
     0
  0
LTYPE
  5
43
330
5
100
AcDbSymbolTableRecord
100
AcDbLinetypeTableRecord
  2
DOT2
 70
     0
  3
Dot (.5x) ........................................
 72
    65
 73
     2
 40
0.025
 49
0.0
 74
     0
 49
-0.025
 74
     0
  0
ENDTAB
  0
TABLE
  2
LAYER
  5
2
330
0
100
AcDbSymbolTable
 70
     1
  0
LAYER
  5
10
330
2
100
AcDbSymbolTableRecord
100
AcDbLayerTableRecord
  2
0
 70
     0
 62
     7
  6
Continuous
370
    -3
390
F
  0
ENDTAB
  0
TABLE
  2
STYLE
  5
3
330
0
100
AcDbSymbolTable
 70
     1
  0
STYLE
  5
11
330
3
100
AcDbSymbolTableRecord
100
AcDbTextStyleTableRecord
  2
Standard
 70
     0
 40
0.0
 41
1.0
 50
0.0
 71
     0
 42
0.2
  3
txt
  4

  0
ENDTAB
  0
TABLE
  2
VIEW
  5
6
330
0
100
AcDbSymbolTable
 70
     0
  0
ENDTAB
  0
TABLE
  2
UCS
  5
7
330
0
100
AcDbSymbolTable
 70
     0
  0
ENDTAB
  0
TABLE
  2
APPID
  5
9
330
0
100
AcDbSymbolTable
 70
     1
  0
APPID
  5
12
330
9
100
AcDbSymbolTableRecord
100
AcDbRegAppTableRecord
  2
ACAD
 70
     0
  0
ENDTAB
  0
TABLE
  2
DIMSTYLE
  5
A
330
0
100
AcDbSymbolTable
 70
     1
100
AcDbDimStyleTable
  0
DIMSTYLE
105
27
330
A
100
AcDbSymbolTableRecord
100
AcDbDimStyleTableRecord
  2
Standard
 70
     0
340
11
  0
ENDTAB
  0
TABLE
  2
BLOCK_RECORD
  5
1
330
0
100
AcDbSymbolTable
 70
    12
  0
BLOCK_RECORD
  5
1F
330
1
100
AcDbSymbolTableRecord
100
AcDbBlockTableRecord
  2
*Model_Space
340
22
  0
BLOCK_RECORD
  5
1B
330
1
100
AcDbSymbolTableRecord
100
AcDbBlockTableRecord
  2
*Paper_Space
340
1E
  0
BLOCK_RECORD
  5
23
330
1
100
AcDbSymbolTableRecord
100
AcDbBlockTableRecord
  2
*Paper_Space0
340
26
  0
BLOCK_RECORD
  5
E5
330
1
100
AcDbSymbolTableRecord
100
AcDbBlockTableRecord
  2
SW_CENTERMARKSYMBOL_0
340
0
102
{BLKREFS
331
F0
102
}
  0
BLOCK_RECORD
  5
139
330
1
100
AcDbSymbolTableRecord
100
AcDbBlockTableRecord
  2
SW_CENTERMARKSYMBOL_1
340
0
102
{BLKREFS
331
144
102
}
  0
BLOCK_RECORD
  5
145
330
1
100
AcDbSymbolTableRecord
100
AcDbBlockTableRecord
  2
SW_CENTERMARKSYMBOL_2
340
0
102
{BLKREFS
331
150
102
}
  0
BLOCK_RECORD
  5
151
330
1
100
AcDbSymbolTableRecord
100
AcDbBlockTableRecord
  2
SW_CENTERMARKSYMBOL_3
340
0
102
{BLKREFS
331
15C
102
}
  0
BLOCK_RECORD
  5
15D
330
1
100
AcDbSymbolTableRecord
100
AcDbBlockTableRecord
  2
SW_CENTERMARKSYMBOL_4
340
0
102
{BLKREFS
331
168
102
}
  0
BLOCK_RECORD
  5
169
330
1
100
AcDbSymbolTableRecord
100
AcDbBlockTableRecord
  2
SW_CENTERMARKSYMBOL_5
340
0
102
{BLKREFS
331
174
102
}
  0
BLOCK_RECORD
  5
175
330
1
100
AcDbSymbolTableRecord
100
AcDbBlockTableRecord
  2
SW_CENTERMARKSYMBOL_6
340
0
102
{BLKREFS
331
180
102
}
  0
BLOCK_RECORD
  5
181
330
1
100
AcDbSymbolTableRecord
100
AcDbBlockTableRecord
  2
SW_CENTERMARKSYMBOL_7
340
0
102
{BLKREFS
331
18C
102
}
  0
BLOCK_RECORD
  5
18D
330
1
100
AcDbSymbolTableRecord
100
AcDbBlockTableRecord
  2
SW_CENTERMARKSYMBOL_8
340
0
102
{BLKREFS
331
198
102
}
  0
BLOCK_RECORD
  5
199
330
1
100
AcDbSymbolTableRecord
100
AcDbBlockTableRecord
  2
SW_CENTERMARKSYMBOL_9
340
0
102
{BLKREFS
331
1A4
102
}
  0
BLOCK_RECORD
  5
1A5
330
1
100
AcDbSymbolTableRecord
100
AcDbBlockTableRecord
  2
SW_CENTERMARKSYMBOL_10
340
0
102
{BLKREFS
331
1B0
102
}
  0
ENDTAB
  0
ENDSEC
  0
SECTION
  2
BLOCKS
  0
BLOCK
  5
20
330
1F
100
AcDbEntity
  8
0
100
AcDbBlockBegin
  2
*Model_Space
 70
     0
 10
0.0
 20
0.0
 30
0.0
  3
*Model_Space
  1

  0
ENDBLK
  5
21
330
1F
100
AcDbEntity
  8
0
100
AcDbBlockEnd
  0
BLOCK
  5
1C
330
1B
100
AcDbEntity
 67
     1
  8
0
100
AcDbBlockBegin
  2
*Paper_Space
 70
     0
 10
0.0
 20
0.0
 30
0.0
  3
*Paper_Space
  1

  0
ENDBLK
  5
1D
330
1B
100
AcDbEntity
 67
     1
  8
0
100
AcDbBlockEnd
  0
BLOCK
  5
24
330
23
100
AcDbEntity
  8
0
100
AcDbBlockBegin
  2
*Paper_Space0
 70
     0
 10
0.0
 20
0.0
 30
0.0
  3
*Paper_Space0
  1

  0
ENDBLK
  5
25
330
23
100
AcDbEntity
  8
0
100
AcDbBlockEnd
  0
BLOCK
  5
E6
330
E5
100
AcDbEntity
  8
0
100
AcDbBlockBegin
  2
SW_CENTERMARKSYMBOL_0
 70
     0
 10
0.0
 20
0.0
 30
0.0
  3
SW_CENTERMARKSYMBOL_0
  1

  0
LINE
  5
E8
330
E5
100
AcDbEntity
  8
0
  6
Continuous
 62
     0
370
     0
100
AcDbLine
 10
0.0
 20
0.0
 30
0.0
 11
0.0
 21
0.025
 31
0.0
  0
LINE
  5
E9
330
E5
100
AcDbEntity
  8
0
  6
Continuous
 62
     0
370
     0
100
AcDbLine
 10
0.0
 20
0.0
 30
0.0
 11
-0.025
 21
0.0
 31
0.0
  0
LINE
  5
EA
330
E5
100
AcDbEntity
  8
0
  6
Continuous
 62
     0
370
     0
100
AcDbLine
 10
0.0
 20
0.0
 30
0.0
 11
0.0
 21
-0.025
 31
0.0
  0
LINE
  5
EB
330
E5
100
AcDbEntity
  8
0
  6
Continuous
 62
     0
370
     0
100
AcDbLine
 10
0.0
 20
0.0
 30
0.0
 11
0.025
 21
0.0
 31
0.0
  0
LINE
  5
EC
330
E5
100
AcDbEntity
  8
0
  6
Continuous
 62
     0
370
     0
100
AcDbLine
 10
0.0
 20
0.05
 30
0.0
 11
0.0
 21
0.0825
 31
0.0
  0
LINE
  5
ED
330
E5
100
AcDbEntity
  8
0
  6
Continuous
 62
     0
370
     0
100
AcDbLine
 10
-0.05
 20
0.0
 30
0.0
 11
-0.0825
 21
0.0
 31
0.0
  0
LINE
  5
EE
330
E5
100
AcDbEntity
  8
0
  6
Continuous
 62
     0
370
     0
100
AcDbLine
 10
0.0
 20
-0.05
 30
0.0
 11
0.0
 21
-0.0825
 31
0.0
  0
LINE
  5
EF
330
E5
100
AcDbEntity
  8
0
  6
Continuous
 62
     0
370
     0
100
AcDbLine
 10
0.05
 20
0.0
 30
0.0
 11
0.0825
 21
0.0
 31
0.0
  0
ENDBLK
  5
E7
330
E5
100
AcDbEntity
  8
0
100
AcDbBlockEnd
  0
BLOCK
  5
13A
330
139
100
AcDbEntity
  8
0
100
AcDbBlockBegin
  2
SW_CENTERMARKSYMBOL_1
 70
     0
 10
0.0
 20
0.0
 30
0.0
  3
SW_CENTERMARKSYMBOL_1
  1

  0
LINE
  5
13C
330
139
100
AcDbEntity
  8
0
  6
Continuous
 62
     0
370
     0
100
AcDbLine
 10
0.0
 20
0.0
 30
0.0
 11
0.0
 21
0.025
 31
0.0
  0
LINE
  5
13D
330
139
100
AcDbEntity
  8
0
  6
Continuous
 62
     0
370
     0
100
AcDbLine
 10
0.0
 20
0.0
 30
0.0
 11
-0.025
 21
0.0
 31
0.0
  0
LINE
  5
13E
330
139
100
AcDbEntity
  8
0
  6
Continuous
 62
     0
370
     0
100
AcDbLine
 10
0.0
 20
0.0
 30
0.0
 11
0.0
 21
-0.025
 31
0.0
  0
LINE
  5
13F
330
139
100
AcDbEntity
  8
0
  6
Continuous
 62
     0
370
     0
100
AcDbLine
 10
0.0
 20
0.0
 30
0.0
 11
0.025
 21
0.0
 31
0.0
  0
LINE
  5
140
330
139
100
AcDbEntity
  8
0
  6
Continuous
 62
     0
370
     0
100
AcDbLine
 10
0.0
 20
0.05
 30
0.0
 11
0.0
 21
0.2434392707
 31
0.0
  0
LINE
  5
141
330
139
100
AcDbEntity
  8
0
  6
Continuous
 62
     0
370
     0
100
AcDbLine
 10
-0.05
 20
0.0
 30
0.0
 11
-0.2434392707
 21
0.0
 31
0.0
  0
LINE
  5
142
330
139
100
AcDbEntity
  8
0
  6
Continuous
 62
     0
370
     0
100
AcDbLine
 10
0.0
 20
-0.05
 30
0.0
 11
0.0
 21
-0.2434392707
 31
0.0
  0
LINE
  5
143
330
139
100
AcDbEntity
  8
0
  6
Continuous
 62
     0
370
     0
100
AcDbLine
 10
0.05
 20
0.0
 30
0.0
 11
0.2434392707
 21
0.0
 31
0.0
  0
ENDBLK
  5
13B
330
139
100
AcDbEntity
  8
0
100
AcDbBlockEnd
  0
BLOCK
  5
146
330
145
100
AcDbEntity
  8
0
100
AcDbBlockBegin
  2
SW_CENTERMARKSYMBOL_2
 70
     0
 10
0.0
 20
0.0
 30
0.0
  3
SW_CENTERMARKSYMBOL_2
  1

  0
LINE
  5
148
330
145
100
AcDbEntity
  8
0
  6
Continuous
 62
     0
370
     0
100
AcDbLine
 10
0.0
 20
0.0
 30
0.0
 11
0.0
 21
0.025
 31
0.0
  0
LINE
  5
149
330
145
100
AcDbEntity
  8
0
  6
Continuous
 62
     0
370
     0
100
AcDbLine
 10
0.0
 20
0.0
 30
0.0
 11
-0.025
 21
0.0
 31
0.0
  0
LINE
  5
14A
330
145
100
AcDbEntity
  8
0
  6
Continuous
 62
     0
370
     0
100
AcDbLine
 10
0.0
 20
0.0
 30
0.0
 11
0.0
 21
-0.025
 31
0.0
  0
LINE
  5
14B
330
145
100
AcDbEntity
  8
0
  6
Continuous
 62
     0
370
     0
100
AcDbLine
 10
0.0
 20
0.0
 30
0.0
 11
0.025
 21
0.0
 31
0.0
  0
LINE
  5
14C
330
145
100
AcDbEntity
  8
0
  6
Continuous
 62
     0
370
     0
100
AcDbLine
 10
0.0
 20
0.05
 30
0.0
 11
0.0
 21
0.103125
 31
0.0
  0
LINE
  5
14D
330
145
100
AcDbEntity
  8
0
  6
Continuous
 62
     0
370
     0
100
AcDbLine
 10
-0.05
 20
0.0
 30
0.0
 11
-0.103125
 21
0.0
 31
0.0
  0
LINE
  5
14E
330
145
100
AcDbEntity
  8
0
  6
Continuous
 62
     0
370
     0
100
AcDbLine
 10
0.0
 20
-0.05
 30
0.0
 11
0.0
 21
-0.103125
 31
0.0
  0
LINE
  5
14F
330
145
100
AcDbEntity
  8
0
  6
Continuous
 62
     0
370
     0
100
AcDbLine
 10
0.05
 20
0.0
 30
0.0
 11
0.103125
 21
0.0
 31
0.0
  0
ENDBLK
  5
147
330
145
100
AcDbEntity
  8
0
100
AcDbBlockEnd
  0
BLOCK
  5
152
330
151
100
AcDbEntity
  8
0
100
AcDbBlockBegin
  2
SW_CENTERMARKSYMBOL_3
 70
     0
 10
0.0
 20
0.0
 30
0.0
  3
SW_CENTERMARKSYMBOL_3
  1

  0
LINE
  5
154
330
151
100
AcDbEntity
  8
0
  6
Continuous
 62
     0
370
     0
100
AcDbLine
 10
0.0
 20
0.0
 30
0.0
 11
0.0
 21
0.025
 31
0.0
  0
LINE
  5
155
330
151
100
AcDbEntity
  8
0
  6
Continuous
 62
     0
370
     0
100
AcDbLine
 10
0.0
 20
0.0
 30
0.0
 11
-0.025
 21
0.0
 31
0.0
  0
LINE
  5
156
330
151
100
AcDbEntity
  8
0
  6
Continuous
 62
     0
370
     0
100
AcDbLine
 10
0.0
 20
0.0
 30
0.0
 11
0.0
 21
-0.025
 31
0.0
  0
LINE
  5
157
330
151
100
AcDbEntity
  8
0
  6
Continuous
 62
     0
370
     0
100
AcDbLine
 10
0.0
 20
0.0
 30
0.0
 11
0.025
 21
0.0
 31
0.0
  0
LINE
  5
158
330
151
100
AcDbEntity
  8
0
  6
Continuous
 62
     0
370
     0
100
AcDbLine
 10
0.0
 20
0.05
 30
0.0
 11
0.0
 21
0.1
 31
0.0
  0
LINE
  5
159
330
151
100
AcDbEntity
  8
0
  6
Continuous
 62
     0
370
     0
100
AcDbLine
 10
-0.05
 20
0.0
 30
0.0
 11
-0.1
 21
0.0
 31
0.0
  0
LINE
  5
15A
330
151
100
AcDbEntity
  8
0
  6
Continuous
 62
     0
370
     0
100
AcDbLine
 10
0.0
 20
-0.05
 30
0.0
 11
0.0
 21
-0.1
 31
0.0
  0
LINE
  5
15B
330
151
100
AcDbEntity
  8
0
  6
Continuous
 62
     0
370
     0
100
AcDbLine
 10
0.05
 20
0.0
 30
0.0
 11
0.1
 21
0.0
 31
0.0
  0
ENDBLK
  5
153
330
151
100
AcDbEntity
  8
0
100
AcDbBlockEnd
  0
BLOCK
  5
15E
330
15D
100
AcDbEntity
  8
0
100
AcDbBlockBegin
  2
SW_CENTERMARKSYMBOL_4
 70
     0
 10
0.0
 20
0.0
 30
0.0
  3
SW_CENTERMARKSYMBOL_4
  1

  0
LINE
  5
160
330
15D
100
AcDbEntity
  8
0
  6
Continuous
 62
     0
370
     0
100
AcDbLine
 10
0.0
 20
0.0
 30
0.0
 11
0.0
 21
0.025
 31
0.0
  0
LINE
  5
161
330
15D
100
AcDbEntity
  8
0
  6
Continuous
 62
     0
370
     0
100
AcDbLine
 10
0.0
 20
0.0
 30
0.0
 11
-0.025
 21
0.0
 31
0.0
  0
LINE
  5
162
330
15D
100
AcDbEntity
  8
0
  6
Continuous
 62
     0
370
     0
100
AcDbLine
 10
0.0
 20
0.0
 30
0.0
 11
0.0
 21
-0.025
 31
0.0
  0
LINE
  5
163
330
15D
100
AcDbEntity
  8
0
  6
Continuous
 62
     0
370
     0
100
AcDbLine
 10
0.0
 20
0.0
 30
0.0
 11
0.025
 21
0.0
 31
0.0
  0
LINE
  5
164
330
15D
100
AcDbEntity
  8
0
  6
Continuous
 62
     0
370
     0
100
AcDbLine
 10
0.0
 20
0.05
 30
0.0
 11
0.0
 21
0.1
 31
0.0
  0
LINE
  5
165
330
15D
100
AcDbEntity
  8
0
  6
Continuous
 62
     0
370
     0
100
AcDbLine
 10
-0.05
 20
0.0
 30
0.0
 11
-0.1
 21
0.0
 31
0.0
  0
LINE
  5
166
330
15D
100
AcDbEntity
  8
0
  6
Continuous
 62
     0
370
     0
100
AcDbLine
 10
0.0
 20
-0.05
 30
0.0
 11
0.0
 21
-0.1
 31
0.0
  0
LINE
  5
167
330
15D
100
AcDbEntity
  8
0
  6
Continuous
 62
     0
370
     0
100
AcDbLine
 10
0.05
 20
0.0
 30
0.0
 11
0.1
 21
0.0
 31
0.0
  0
ENDBLK
  5
15F
330
15D
100
AcDbEntity
  8
0
100
AcDbBlockEnd
  0
BLOCK
  5
16A
330
169
100
AcDbEntity
  8
0
100
AcDbBlockBegin
  2
SW_CENTERMARKSYMBOL_5
 70
     0
 10
0.0
 20
0.0
 30
0.0
  3
SW_CENTERMARKSYMBOL_5
  1

  0
LINE
  5
16C
330
169
100
AcDbEntity
  8
0
  6
Continuous
 62
     0
370
     0
100
AcDbLine
 10
0.0
 20
0.0
 30
0.0
 11
0.0
 21
0.025
 31
0.0
  0
LINE
  5
16D
330
169
100
AcDbEntity
  8
0
  6
Continuous
 62
     0
370
     0
100
AcDbLine
 10
0.0
 20
0.0
 30
0.0
 11
-0.025
 21
0.0
 31
0.0
  0
LINE
  5
16E
330
169
100
AcDbEntity
  8
0
  6
Continuous
 62
     0
370
     0
100
AcDbLine
 10
0.0
 20
0.0
 30
0.0
 11
0.0
 21
-0.025
 31
0.0
  0
LINE
  5
16F
330
169
100
AcDbEntity
  8
0
  6
Continuous
 62
     0
370
     0
100
AcDbLine
 10
0.0
 20
0.0
 30
0.0
 11
0.025
 21
0.0
 31
0.0
  0
LINE
  5
170
330
169
100
AcDbEntity
  8
0
  6
Continuous
 62
     0
370
     0
100
AcDbLine
 10
0.0
 20
0.05
 30
0.0
 11
0.0
 21
0.1
 31
0.0
  0
LINE
  5
171
330
169
100
AcDbEntity
  8
0
  6
Continuous
 62
     0
370
     0
100
AcDbLine
 10
-0.05
 20
0.0
 30
0.0
 11
-0.1
 21
0.0
 31
0.0
  0
LINE
  5
172
330
169
100
AcDbEntity
  8
0
  6
Continuous
 62
     0
370
     0
100
AcDbLine
 10
0.0
 20
-0.05
 30
0.0
 11
0.0
 21
-0.1
 31
0.0
  0
LINE
  5
173
330
169
100
AcDbEntity
  8
0
  6
Continuous
 62
     0
370
     0
100
AcDbLine
 10
0.05
 20
0.0
 30
0.0
 11
0.1
 21
0.0
 31
0.0
  0
ENDBLK
  5
16B
330
169
100
AcDbEntity
  8
0
100
AcDbBlockEnd
  0
BLOCK
  5
176
330
175
100
AcDbEntity
  8
0
100
AcDbBlockBegin
  2
SW_CENTERMARKSYMBOL_6
 70
     0
 10
0.0
 20
0.0
 30
0.0
  3
SW_CENTERMARKSYMBOL_6
  1

  0
LINE
  5
178
330
175
100
AcDbEntity
  8
0
  6
Continuous
 62
     0
370
     0
100
AcDbLine
 10
0.0
 20
0.0
 30
0.0
 11
0.0
 21
0.025
 31
0.0
  0
LINE
  5
179
330
175
100
AcDbEntity
  8
0
  6
Continuous
 62
     0
370
     0
100
AcDbLine
 10
0.0
 20
0.0
 30
0.0
 11
-0.025
 21
0.0
 31
0.0
  0
LINE
  5
17A
330
175
100
AcDbEntity
  8
0
  6
Continuous
 62
     0
370
     0
100
AcDbLine
 10
0.0
 20
0.0
 30
0.0
 11
0.0
 21
-0.025
 31
0.0
  0
LINE
  5
17B
330
175
100
AcDbEntity
  8
0
  6
Continuous
 62
     0
370
     0
100
AcDbLine
 10
0.0
 20
0.0
 30
0.0
 11
0.025
 21
0.0
 31
0.0
  0
LINE
  5
17C
330
175
100
AcDbEntity
  8
0
  6
Continuous
 62
     0
370
     0
100
AcDbLine
 10
0.0
 20
0.05
 30
0.0
 11
0.0
 21
0.1
 31
0.0
  0
LINE
  5
17D
330
175
100
AcDbEntity
  8
0
  6
Continuous
 62
     0
370
     0
100
AcDbLine
 10
-0.05
 20
0.0
 30
0.0
 11
-0.1
 21
0.0
 31
0.0
  0
LINE
  5
17E
330
175
100
AcDbEntity
  8
0
  6
Continuous
 62
     0
370
     0
100
AcDbLine
 10
0.0
 20
-0.05
 30
0.0
 11
0.0
 21
-0.1
 31
0.0
  0
LINE
  5
17F
330
175
100
AcDbEntity
  8
0
  6
Continuous
 62
     0
370
     0
100
AcDbLine
 10
0.05
 20
0.0
 30
0.0
 11
0.1
 21
0.0
 31
0.0
  0
ENDBLK
  5
177
330
175
100
AcDbEntity
  8
0
100
AcDbBlockEnd
  0
BLOCK
  5
182
330
181
100
AcDbEntity
  8
0
100
AcDbBlockBegin
  2
SW_CENTERMARKSYMBOL_7
 70
     0
 10
0.0
 20
0.0
 30
0.0
  3
SW_CENTERMARKSYMBOL_7
  1

  0
LINE
  5
184
330
181
100
AcDbEntity
  8
0
  6
Continuous
 62
     0
370
     0
100
AcDbLine
 10
0.0
 20
0.0
 30
0.0
 11
0.0
 21
0.025
 31
0.0
  0
LINE
  5
185
330
181
100
AcDbEntity
  8
0
  6
Continuous
 62
     0
370
     0
100
AcDbLine
 10
0.0
 20
0.0
 30
0.0
 11
-0.025
 21
0.0
 31
0.0
  0
LINE
  5
186
330
181
100
AcDbEntity
  8
0
  6
Continuous
 62
     0
370
     0
100
AcDbLine
 10
0.0
 20
0.0
 30
0.0
 11
0.0
 21
-0.025
 31
0.0
  0
LINE
  5
187
330
181
100
AcDbEntity
  8
0
  6
Continuous
 62
     0
370
     0
100
AcDbLine
 10
0.0
 20
0.0
 30
0.0
 11
0.025
 21
0.0
 31
0.0
  0
LINE
  5
188
330
181
100
AcDbEntity
  8
0
  6
Continuous
 62
     0
370
     0
100
AcDbLine
 10
0.0
 20
0.05
 30
0.0
 11
0.0
 21
0.1
 31
0.0
  0
LINE
  5
189
330
181
100
AcDbEntity
  8
0
  6
Continuous
 62
     0
370
     0
100
AcDbLine
 10
-0.05
 20
0.0
 30
0.0
 11
-0.1
 21
0.0
 31
0.0
  0
LINE
  5
18A
330
181
100
AcDbEntity
  8
0
  6
Continuous
 62
     0
370
     0
100
AcDbLine
 10
0.0
 20
-0.05
 30
0.0
 11
0.0
 21
-0.1
 31
0.0
  0
LINE
  5
18B
330
181
100
AcDbEntity
  8
0
  6
Continuous
 62
     0
370
     0
100
AcDbLine
 10
0.05
 20
0.0
 30
0.0
 11
0.1
 21
0.0
 31
0.0
  0
ENDBLK
  5
183
330
181
100
AcDbEntity
  8
0
100
AcDbBlockEnd
  0
BLOCK
  5
18E
330
18D
100
AcDbEntity
  8
0
100
AcDbBlockBegin
  2
SW_CENTERMARKSYMBOL_8
 70
     0
 10
0.0
 20
0.0
 30
0.0
  3
SW_CENTERMARKSYMBOL_8
  1

  0
LINE
  5
190
330
18D
100
AcDbEntity
  8
0
  6
Continuous
 62
     0
370
     0
100
AcDbLine
 10
0.0
 20
0.0
 30
0.0
 11
0.0
 21
0.025
 31
0.0
  0
LINE
  5
191
330
18D
100
AcDbEntity
  8
0
  6
Continuous
 62
     0
370
     0
100
AcDbLine
 10
0.0
 20
0.0
 30
0.0
 11
-0.025
 21
0.0
 31
0.0
  0
LINE
  5
192
330
18D
100
AcDbEntity
  8
0
  6
Continuous
 62
     0
370
     0
100
AcDbLine
 10
0.0
 20
0.0
 30
0.0
 11
0.0
 21
-0.025
 31
0.0
  0
LINE
  5
193
330
18D
100
AcDbEntity
  8
0
  6
Continuous
 62
     0
370
     0
100
AcDbLine
 10
0.0
 20
0.0
 30
0.0
 11
0.025
 21
0.0
 31
0.0
  0
LINE
  5
194
330
18D
100
AcDbEntity
  8
0
  6
Continuous
 62
     0
370
     0
100
AcDbLine
 10
0.0
 20
0.05
 30
0.0
 11
0.0
 21
0.1
 31
0.0
  0
LINE
  5
195
330
18D
100
AcDbEntity
  8
0
  6
Continuous
 62
     0
370
     0
100
AcDbLine
 10
-0.05
 20
0.0
 30
0.0
 11
-0.1
 21
0.0
 31
0.0
  0
LINE
  5
196
330
18D
100
AcDbEntity
  8
0
  6
Continuous
 62
     0
370
     0
100
AcDbLine
 10
0.0
 20
-0.05
 30
0.0
 11
0.0
 21
-0.1
 31
0.0
  0
LINE
  5
197
330
18D
100
AcDbEntity
  8
0
  6
Continuous
 62
     0
370
     0
100
AcDbLine
 10
0.05
 20
0.0
 30
0.0
 11
0.1
 21
0.0
 31
0.0
  0
ENDBLK
  5
18F
330
18D
100
AcDbEntity
  8
0
100
AcDbBlockEnd
  0
BLOCK
  5
19A
330
199
100
AcDbEntity
  8
0
100
AcDbBlockBegin
  2
SW_CENTERMARKSYMBOL_9
 70
     0
 10
0.0
 20
0.0
 30
0.0
  3
SW_CENTERMARKSYMBOL_9
  1

  0
LINE
  5
19C
330
199
100
AcDbEntity
  8
0
  6
Continuous
 62
     0
370
     0
100
AcDbLine
 10
0.0
 20
0.0
 30
0.0
 11
0.0
 21
0.025
 31
0.0
  0
LINE
  5
19D
330
199
100
AcDbEntity
  8
0
  6
Continuous
 62
     0
370
     0
100
AcDbLine
 10
0.0
 20
0.0
 30
0.0
 11
-0.025
 21
0.0
 31
0.0
  0
LINE
  5
19E
330
199
100
AcDbEntity
  8
0
  6
Continuous
 62
     0
370
     0
100
AcDbLine
 10
0.0
 20
0.0
 30
0.0
 11
0.0
 21
-0.025
 31
0.0
  0
LINE
  5
19F
330
199
100
AcDbEntity
  8
0
  6
Continuous
 62
     0
370
     0
100
AcDbLine
 10
0.0
 20
0.0
 30
0.0
 11
0.025
 21
0.0
 31
0.0
  0
LINE
  5
1A0
330
199
100
AcDbEntity
  8
0
  6
Continuous
 62
     0
370
     0
100
AcDbLine
 10
0.0
 20
0.05
 30
0.0
 11
0.0
 21
0.1
 31
0.0
  0
LINE
  5
1A1
330
199
100
AcDbEntity
  8
0
  6
Continuous
 62
     0
370
     0
100
AcDbLine
 10
-0.05
 20
0.0
 30
0.0
 11
-0.1
 21
0.0
 31
0.0
  0
LINE
  5
1A2
330
199
100
AcDbEntity
  8
0
  6
Continuous
 62
     0
370
     0
100
AcDbLine
 10
0.0
 20
-0.05
 30
0.0
 11
0.0
 21
-0.1
 31
0.0
  0
LINE
  5
1A3
330
199
100
AcDbEntity
  8
0
  6
Continuous
 62
     0
370
     0
100
AcDbLine
 10
0.05
 20
0.0
 30
0.0
 11
0.1
 21
0.0
 31
0.0
  0
ENDBLK
  5
19B
330
199
100
AcDbEntity
  8
0
100
AcDbBlockEnd
  0
BLOCK
  5
1A6
330
1A5
100
AcDbEntity
  8
0
100
AcDbBlockBegin
  2
SW_CENTERMARKSYMBOL_10
 70
     0
 10
0.0
 20
0.0
 30
0.0
  3
SW_CENTERMARKSYMBOL_10
  1

  0
LINE
  5
1A8
330
1A5
100
AcDbEntity
  8
0
  6
Continuous
 62
     0
370
     0
100
AcDbLine
 10
0.0
 20
0.0
 30
0.0
 11
0.0
 21
0.025
 31
0.0
  0
LINE
  5
1A9
330
1A5
100
AcDbEntity
  8
0
  6
Continuous
 62
     0
370
     0
100
AcDbLine
 10
0.0
 20
0.0
 30
0.0
 11
-0.025
 21
0.0
 31
0.0
  0
LINE
  5
1AA
330
1A5
100
AcDbEntity
  8
0
  6
Continuous
 62
     0
370
     0
100
AcDbLine
 10
0.0
 20
0.0
 30
0.0
 11
0.0
 21
-0.025
 31
0.0
  0
LINE
  5
1AB
330
1A5
100
AcDbEntity
  8
0
  6
Continuous
 62
     0
370
     0
100
AcDbLine
 10
0.0
 20
0.0
 30
0.0
 11
0.025
 21
0.0
 31
0.0
  0
LINE
  5
1AC
330
1A5
100
AcDbEntity
  8
0
  6
Continuous
 62
     0
370
     0
100
AcDbLine
 10
0.0
 20
0.05
 30
0.0
 11
0.0
 21
0.1
 31
0.0
  0
LINE
  5
1AD
330
1A5
100
AcDbEntity
  8
0
  6
Continuous
 62
     0
370
     0
100
AcDbLine
 10
-0.05
 20
0.0
 30
0.0
 11
-0.1
 21
0.0
 31
0.0
  0
LINE
  5
1AE
330
1A5
100
AcDbEntity
  8
0
  6
Continuous
 62
     0
370
     0
100
AcDbLine
 10
0.0
 20
-0.05
 30
0.0
 11
0.0
 21
-0.1
 31
0.0
  0
LINE
  5
1AF
330
1A5
100
AcDbEntity
  8
0
  6
Continuous
 62
     0
370
     0
100
AcDbLine
 10
0.05
 20
0.0
 30
0.0
 11
0.1
 21
0.0
 31
0.0
  0
ENDBLK
  5
1A7
330
1A5
100
AcDbEntity
  8
0
100
AcDbBlockEnd
  0
ENDSEC
  0
SECTION
  2
ENTITIES
  0
LINE
  5
44
330
1F
100
AcDbEntity
  8
0
  6
Continuous
 62
     7
370
    15
100
AcDbLine
 10
7.3970304962
 20
2.8417323521
 30
0.0
 11
7.3970304962
 21
2.9317323407
 31
0.0
  0
LINE
  5
45
330
1F
100
AcDbEntity
  8
0
  6
Continuous
 62
     7
370
    15
100
AcDbLine
 10
1.7720304633
 20
2.9317323407
 30
0.0
 11
1.7720304633
 21
2.8417323521
 31
0.0
  0
ARC
  5
46
330
1F
100
AcDbEntity
  8
0
  6
Continuous
 62
     7
370
    15
100
AcDbCircle
 10
4.3510821348
 20
5.3624288365
 30
0.0
 40
3.682494561206898
100
AcDbArc
 50
255.3520272589
 51
267.6843177239
  0
ARC
  5
47
330
1F
100
AcDbEntity
  8
0
  6
Continuous
 62
     7
370
    15
100
AcDbCircle
 10
4.8198957653
 20
5.3492831803
 30
0.0
 40
3.669294080420384
100
AcDbArc
 50
272.2833585241
 51
284.6664275402
  0
LWPOLYLINE
  5
48
330
1F
100
AcDbEntity
  8
0
  6
Continuous
 62
     7
370
    15
100
AcDbPolyline
 90
       17
 70
   128
 43
0.0
 10
5.8074458259
 20
1.816187286
 10
5.8904431671
 20
1.8412365632
 10
5.9889159362
 20
1.8747622693
 10
6.0844316461
 20
1.9111612888
 10
6.1780825109
 20
1.9509655023
 10
6.2701055412
 20
1.9944896529
 10
6.3603462987
 20
2.0419564145
 10
6.4135435909
 20
2.072441499
 10
6.4667741759
 20
2.1050197493
 10
6.5234785209
 20
2.1421562737
 10
6.5836758388
 20
2.1845598305
 10
6.6468679088
 20
2.2327093543
 10
6.7124839108
 20
2.2871000593
 10
6.7798914254
 20
2.3482293231
 10
6.8484165272
 20
2.4165782252
 10
6.9173803038
 20
2.4925888963
 10
6.9737078665
 20
2.5614290527
  0
LWPOLYLINE
  5
49
330
1F
100
AcDbEntity
  8
0
  6
Continuous
 62
     7
370
    15
100
AcDbPolyline
 90
        3
 70
   128
 43
0.0
 10
6.9789367661
 20
2.5568596413
 10
6.9801512987
 20
2.5583209011
 10
6.9817981997
 20
2.5603428611
  0
LWPOLYLINE
  5
4A
330
1F
100
AcDbEntity
  8
0
  6
Continuous
 62
     7
370
    15
100
AcDbPolyline
 90
       18
 70
   128
 43
0.0
 10
2.1949694175
 20
2.5618979864
 10
2.2516806557
 20
2.4925889146
 10
2.3206442857
 20
2.4165782802
 10
2.3891695341
 20
2.3482293781
 10
2.4565769021
 20
2.2871001326
 10
2.5221930507
 20
2.2327094276
 10
2.5853849741
 20
2.1845599405
 10
2.645582292
 20
2.1421563837
 10
2.7022864903
 20
2.1050198593
 10
2.755517222
 20
2.072441609
 10
2.8087145142
 20
2.0419565245
 10
2.8859500486
 20
2.001023504
 10
2.964514221
 20
1.9630126365
 10
3.0443011393
 20
1.9277771835
 10
3.1252449509
 20
1.8951921133
 10
3.2079576887
 20
1.8648969966
 10
3.2929591335
 20
1.8366733026
 10
3.3615429745
 20
1.8161578796
  0
LWPOLYLINE
  5
4B
330
1F
100
AcDbEntity
  8
0
  6
Continuous
 62
     7
370
    15
100
AcDbPolyline
 90
        3
 70
   128
 43
0.0
 10
2.1872627599
 20
2.5603428611
 10
2.1889096609
 20
2.5583209011
 10
2.1901241935
 20
2.5568596413
  0
LINE
  5
4C
330
1F
100
AcDbEntity
  8
0
  6
Continuous
 62
     7
370
    15
100
AcDbLine
 10
1.7720304633
 20
2.9317323407
 30
0.0
 11
7.3970304962
 21
2.9317323407
 31
0.0
  0
LINE
  5
4D
330
1F
100
AcDbEntity
  8
0
  6
Continuous
 62
     7
370
    15
100
AcDbLine
 10
7.3970304962
 20
2.8417323521
 30
0.0
 11
1.7731638903
 21
2.8417323521
 31
0.0
  0
LINE
  5
4E
330
1F
100
AcDbEntity
  8
0
  6
Continuous
 62
     7
370
    15
100
AcDbLine
 10
4.6843855479
 20
2.591732346
 30
0.0
 11
4.6846646239
 21
2.5879015485
 31
0.0
  0
LINE
  5
4F
330
1F
100
AcDbEntity
  8
0
  6
Continuous
 62
     7
370
    15
100
AcDbLine
 10
4.6586865081
 20
2.591732346
 30
0.0
 11
4.6846646239
 21
2.5879015485
 31
0.0
  0
LINE
  5
50
330
1F
100
AcDbEntity
  8
0
  6
Continuous
 62
     7
370
    15
100
AcDbLine
 10
4.6348194559
 20
2.5937692108
 30
0.0
 11
4.6586865081
 21
2.591732346
 31
0.0
  0
LWPOLYLINE
  5
51
330
1F
100
AcDbEntity
  8
0
  6
Continuous
 62
     7
370
    15
100
AcDbPolyline
 90
       11
 70
   128
 43
0.0
 10
4.6405442756
 20
2.8417323521
 10
4.6392975134
 20
2.8307895868
 10
4.6383373711
 20
2.8165545596
 10
4.6376880853
 20
2.7995651459
 10
4.6373005414
 20
2.7807947152
 10
4.6370445652
 20
2.7456612219
 10
4.6370337028
 20
2.7094734641
 10
4.6369565112
 20
2.6717076325
 10
4.6365123409
 20
2.6356501184
 10
4.6358460511
 20
2.6132982958
 10
4.6348194559
 20
2.5937692108
  0
LWPOLYLINE
  5
52
330
1F
100
AcDbEntity
  8
0
  6
Continuous
 62
     7
370
    15
100
AcDbPolyline
 90
        9
 70
   128
 43
0.0
 10
4.6785166849
 20
2.8417323521
 10
4.6805388923
 20
2.8199741451
 10
4.6816137999
 20
2.789473175
 10
4.6819837257
 20
2.7556604731
 10
4.6820296776
 20
2.720364805
 10
4.6820732371
 20
2.6781782596
 10
4.6825051746
 20
2.637771292
 10
4.6832275363
 20
2.6130322455
 10
4.6843855479
 20
2.591732346
  0
LWPOLYLINE
  5
53
330
1F
100
AcDbEntity
  8
0
  6
Continuous
 62
     7
370
    15
100
AcDbPolyline
 90
        3
 70
   128
 43
0.0
 10
4.6358603235
 20
2.673747827
 10
4.6342237624
 20
2.7577367083
 10
4.6325870042
 20
2.8417323521
  0
ARC
  5
54
330
1F
100
AcDbEntity
  8
0
  6
Continuous
 62
     7
370
    15
100
AcDbCircle
 10
3.5021563655
 20
2.6485105708
 30
0.0
 40
1.133985137844849
100
AcDbArc
 50
357.2330604477
 51
1.282933906
  0
LWPOLYLINE
  5
55
330
1F
100
AcDbEntity
  8
0
  6
Continuous
 62
     7
370
    15
100
AcDbPolyline
 90
        9
 70
   128
 43
0.0
 10
4.4905442747
 20
2.8417323521
 10
4.4885220672
 20
2.8199741451
 10
4.4874471596
 20
2.789473175
 10
4.4870772339
 20
2.7556604731
 10
4.4870312819
 20
2.720364805
 10
4.4869877224
 20
2.6781782596
 10
4.4865557849
 20
2.637771292
 10
4.4858334233
 20
2.6130322455
 10
4.4846754116
 20
2.591732346
  0
LWPOLYLINE
  5
56
330
1F
100
AcDbEntity
  8
0
  6
Continuous
 62
     7
370
    15
100
AcDbPolyline
 90
       11
 70
   128
 43
0.0
 10
4.5285166839
 20
2.8417323521
 10
4.5297634462
 20
2.8307895868
 10
4.5307235884
 20
2.8165545596
 10
4.5313728743
 20
2.7995651459
 10
4.5317604181
 20
2.7807947152
 10
4.5320163943
 20
2.7456612219
 10
4.5320272567
 20
2.7094734641
 10
4.5321044483
 20
2.6717076325
 10
4.5325486186
 20
2.6356501184
 10
4.5332149084
 20
2.6132982958
 10
4.5342415036
 20
2.5937692108
  0
LINE
  5
57
330
1F
100
AcDbEntity
  8
0
  6
Continuous
 62
     7
370
    15
100
AcDbLine
 10
4.5103744514
 20
2.591732346
 30
0.0
 11
4.5342415036
 21
2.5937692108
 31
0.0
  0
LINE
  5
58
330
1F
100
AcDbEntity
  8
0
  6
Continuous
 62
     7
370
    15
100
AcDbLine
 10
4.5103744514
 20
2.591732346
 30
0.0
 11
4.4846754116
 21
2.591732346
 31
0.0
  0
ARC
  5
59
330
1F
100
AcDbEntity
  8
0
  6
Continuous
 62
     7
370
    15
100
AcDbCircle
 10
5.6476170238
 20
2.6482607752
 30
0.0
 40
1.11470820375254
100
AcDbArc
 50
178.6820333775
 51
182.8019722688
  0
LWPOLYLINE
  5
5A
330
1F
100
AcDbEntity
  8
0
  6
Continuous
 62
     7
370
    15
100
AcDbPolyline
 90
        3
 70
   128
 43
0.0
 10
4.5364739553
 20
2.8417323521
 10
4.5348371972
 20
2.7577367083
 10
4.5332006361
 20
2.673747827
  0
LWPOLYLINE
  5
5B
330
1F
100
AcDbEntity
  8
0
  6
Continuous
 62
     7
370
    15
100
AcDbPolyline
 90
        3
 70
   128
 43
0.0
 10
4.6832842773
 20
2.6737501966
 10
4.6849264483
 20
2.7577372399
 10
4.6865688119
 20
2.8417323521
  0
ARC
  5
5C
330
1F
100
AcDbEntity
  8
0
  6
Continuous
 62
     7
370
    15
100
AcDbCircle
 10
5.7550861329
 20
2.6481006945
 30
0.0
 40
1.072112934454477
100
AcDbArc
 50
178.6210962724
 51
183.218851194
  0
LINE
  5
5D
330
1F
100
AcDbEntity
  8
0
  6
Continuous
 62
     7
370
    15
100
AcDbLine
 10
4.4846754116
 20
2.591732346
 30
0.0
 11
4.4843963357
 21
2.5879015485
 31
0.0
  0
ARC
  5
5E
330
1F
100
AcDbEntity
  8
0
  6
Continuous
 62
     7
370
    15
100
AcDbCircle
 10
3.4023609323
 20
2.6482871898
 30
0.0
 40
1.083719077945611
100
AcDbArc
 50
356.805781757
 51
1.3542707766
  0
LWPOLYLINE
  5
5F
330
1F
100
AcDbEntity
  8
0
  6
Continuous
 62
     7
370
    15
100
AcDbPolyline
 90
        3
 70
   128
 43
0.0
 10
4.4824921477
 20
2.8417323521
 10
4.4841345112
 20
2.7577372399
 10
4.4857766823
 20
2.6737501966
  0
LWPOLYLINE
  5
60
330
1F
100
AcDbEntity
  8
0
  6
Continuous
 62
     7
370
    15
100
AcDbPolyline
 90
        3
 70
   128
 43
0.0
 10
5.2404907421
 20
2.8417323521
 10
5.2401273796
 20
2.7577639054
 10
5.2397639438
 20
2.6737692126
  0
LWPOLYLINE
  5
61
330
1F
100
AcDbEntity
  8
0
  6
Continuous
 62
     7
370
    15
100
AcDbPolyline
 90
        5
 70
   128
 43
0.0
 10
5.2397651904
 20
2.6738921775
 10
5.1461916548
 20
2.6738943568
 10
4.9925104868
 20
2.6738999209
 10
4.8381134837
 20
2.6739023936
 10
4.6832847356
 20
2.6739001134
  0
LWPOLYLINE
  5
62
330
1F
100
AcDbEntity
  8
0
  6
Continuous
 62
     7
370
    15
100
AcDbPolyline
 90
        5
 70
   128
 43
0.0
 10
3.9292957691
 20
2.6738921775
 10
4.0228693048
 20
2.6738943568
 10
4.1765504728
 20
2.6738999209
 10
4.3309474759
 20
2.6739023936
 10
4.4857762239
 20
2.6739001134
  0
LWPOLYLINE
  5
63
330
1F
100
AcDbEntity
  8
0
  6
Continuous
 62
     7
370
    15
100
AcDbPolyline
 90
        3
 70
   128
 43
0.0
 10
3.9292970158
 20
2.6737692126
 10
3.92893358
 20
2.7577639054
 10
3.9285702175
 20
2.8417323521
  0
LWPOLYLINE
  5
64
330
1F
100
AcDbEntity
  8
0
  6
Continuous
 62
     7
370
    15
100
AcDbPolyline
 90
        3
 70
   128
 43
0.0
 10
2.1899508355
 20
2.5570825262
 10
2.1903705906
 20
2.5567877663
 10
2.1908346386
 20
2.556557704
  0
ARC
  5
65
330
1F
100
AcDbEntity
  8
0
  6
Continuous
 62
     7
370
    15
100
AcDbCircle
 10
2.3517723409
 20
2.6923445058
 30
0.0
 40
0.2108381564865008
100
AcDbArc
 50
185.0609042036
 51
218.9770419407
  0
LINE
  5
66
330
1F
100
AcDbEntity
  8
0
  6
Continuous
 62
     7
370
    15
100
AcDbLine
 10
2.2196667722
 20
2.586997854
 30
0.0
 11
2.2241482671
 21
2.591732346
 31
0.0
  0
LINE
  5
67
330
1F
100
AcDbEntity
  8
0
  6
Continuous
 62
     7
370
    15
100
AcDbLine
 10
2.2241482671
 20
2.591732346
 30
0.0
 11
2.2298596945
 21
2.5949110113
 31
0.0
  0
ARC
  5
68
330
1F
100
AcDbEntity
  8
0
  6
Continuous
 62
     7
370
    15
100
AcDbCircle
 10
2.391194502
 20
2.690719624
 30
0.0
 40
0.1876385098469648
100
AcDbArc
 50
185.1807561929
 51
210.703942062
  0
LINE
  5
69
330
1F
100
AcDbEntity
  8
0
  6
Continuous
 62
     7
370
    15
100
AcDbLine
 10
2.2645433205
 20
2.5985375503
 30
0.0
 11
2.2782488688
 21
2.591732346
 31
0.0
  0
ARC
  5
6A
330
1F
100
AcDbEntity
  8
0
  6
Continuous
 62
     7
370
    15
100
AcDbCircle
 10
2.2401278059
 20
2.5135869422
 30
0.0
 40
0.0869477979099793
100
AcDbArc
 50
47.8727067266
 51
63.995852354
  0
ARC
  5
6B
330
1F
100
AcDbEntity
  8
0
  6
Continuous
 62
     7
370
    15
100
AcDbCircle
 10
2.4368354399
 20
2.6897833154
 30
0.0
 40
0.1778473899066055
100
AcDbArc
 50
185.1463724269
 51
218.9121682353
  0
LINE
  5
6C
330
1F
100
AcDbEntity
  8
0
  6
Continuous
 62
     7
370
    15
100
AcDbLine
 10
2.762704099
 20
2.5885068578
 30
0.0
 11
2.7808817557
 21
2.591732346
 31
0.0
  0
LINE
  5
6D
330
1F
100
AcDbEntity
  8
0
  6
Continuous
 62
     7
370
    15
100
AcDbLine
 10
2.7808817557
 20
2.591732346
 30
0.0
 11
2.7992917297
 21
2.5938505594
 31
0.0
  0
ARC
  5
6E
330
1F
100
AcDbEntity
  8
0
  6
Continuous
 62
     7
370
    15
100
AcDbCircle
 10
2.9680345719
 20
2.6808988989
 30
0.0
 40
0.1898724841187424
100
AcDbArc
 50
182.0999308711
 51
207.2875751063
  0
LINE
  5
6F
330
1F
100
AcDbEntity
  8
0
  6
Continuous
 62
     7
370
    15
100
AcDbLine
 10
2.8819837877
 20
2.5921908161
 30
0.0
 11
2.8859019425
 21
2.591732346
 31
0.0
  0
ARC
  5
70
330
1F
100
AcDbEntity
  8
0
  6
Continuous
 62
     7
370
    15
100
AcDbCircle
 10
2.8714062441
 20
2.412752531
 30
0.0
 40
0.1795658638038768
100
AcDbArc
 50
71.3183604404
 51
85.3696819299
  0
ARC
  5
71
330
1F
100
AcDbEntity
  8
0
  6
Continuous
 62
     7
370
    15
100
AcDbCircle
 10
3.0818792293
 20
2.6797717462
 30
0.0
 40
0.1810745545822441
100
AcDbArc
 50
181.8439082442
 51
212.3586154068
  0
LWPOLYLINE
  5
72
330
1F
100
AcDbEntity
  8
0
  6
Continuous
 62
     7
370
    15
100
AcDbPolyline
 90
        7
 70
   128
 43
0.0
 10
2.9008975559
 20
2.6739453618
 10
3.0315530199
 20
2.6739416677
 10
3.1663516227
 20
2.6739349578
 10
3.3047533439
 20
2.673932767
 10
3.4461291374
 20
2.6739293639
 10
3.5899636224
 20
2.6739171518
 10
3.7358036777
 20
2.6739022607
  0
LINE
  5
73
330
1F
100
AcDbEntity
  8
0
  6
Continuous
 62
     7
370
    15
100
AcDbLine
 10
3.7430899935
 20
2.5908168494
 30
0.0
 11
3.7684349474
 21
2.591732346
 31
0.0
  0
LINE
  5
74
330
1F
100
AcDbEntity
  8
0
  6
Continuous
 62
     7
370
    15
100
AcDbLine
 10
3.7684349474
 20
2.591732346
 30
0.0
 11
3.7925005427
 21
2.5923339978
 31
0.0
  0
ARC
  5
75
330
1F
100
AcDbEntity
  8
0
  6
Continuous
 62
     7
370
    15
100
AcDbCircle
 10
4.1062280871
 20
2.67192227
 30
0.0
 40
0.3236653598798513
100
AcDbArc
 50
179.650250331
 51
194.2348372774
  0
LINE
  5
76
330
1F
100
AcDbEntity
  8
0
  6
Continuous
 62
     7
370
    15
100
AcDbLine
 10
3.7825680241
 20
2.6738980028
 30
0.0
 11
3.8820465483
 21
2.6738925075
 31
0.0
  0
LINE
  5
77
330
1F
100
AcDbEntity
  8
0
  6
Continuous
 62
     7
370
    15
100
AcDbLine
 10
3.8891577461
 20
2.5920823207
 30
0.0
 11
3.9022108553
 21
2.591732346
 31
0.0
  0
LINE
  5
78
330
1F
100
AcDbEntity
  8
0
  6
Continuous
 62
     7
370
    15
100
AcDbLine
 10
3.9022108553
 20
2.591732346
 30
0.0
 11
3.9398839535
 21
2.590302995
 31
0.0
  0
ARC
  5
79
330
1F
100
AcDbEntity
  8
0
  6
Continuous
 62
     7
370
    15
100
AcDbCircle
 10
4.2458797837
 20
2.6715256896
 30
0.0
 40
0.3165921260069166
100
AcDbArc
 50
179.5717169816
 51
194.8656337344
  0
LINE
  5
7A
330
1F
100
AcDbEntity
  8
0
  6
Continuous
 62
     7
370
    15
100
AcDbLine
 10
4.4843963357
 20
2.5879015485
 30
0.0
 11
4.5103744514
 21
2.591732346
 31
0.0
  0
LINE
  5
7B
330
1F
100
AcDbEntity
  8
0
  6
Continuous
 62
     7
370
    15
100
AcDbLine
 10
4.5332021119
 20
2.6738999874
 30
0.0
 11
4.5845305775
 21
2.6738998315
 31
0.0
  0
LINE
  5
7C
330
1F
100
AcDbEntity
  8
0
  6
Continuous
 62
     7
370
    15
100
AcDbLine
 10
4.5845304798
 20
2.5512097216
 30
0.0
 11
4.5845304798
 21
2.6738998315
 31
0.0
  0
LWPOLYLINE
  5
7D
330
1F
100
AcDbEntity
  8
0
  6
Continuous
 62
     7
370
    15
100
AcDbPolyline
 90
       26
 70
   128
 43
0.0
 10
2.1908356653
 20
2.5565566406
 10
2.1933203166
 20
2.555646117
 10
2.1969944208
 20
2.5549400443
 10
2.2019904164
 20
2.5541939963
 10
2.21870069
 20
2.5526177603
 10
2.245769764
 20
2.5510802347
 10
2.2808498254
 20
2.5498180177
 10
2.323248029
 20
2.548819605
 10
2.3722487962
 20
2.5480618696
 10
2.4271447621
 20
2.5475239025
 10
2.4872307613
 20
2.5471828239
 10
2.5743606081
 20
2.5469845971
 10
2.6682990829
 20
2.5470077976
 10
2.7680117577
 20
2.5471874714
 10
2.8726500289
 20
2.5474741372
 10
2.9814807183
 20
2.5478295981
 10
3.0938605535
 20
2.5482241086
 10
3.2326579767
 20
2.5487143637
 10
3.3750809581
 20
2.5491934724
 10
3.5204911383
 20
2.5496431105
 10
3.6683619168
 20
2.5500502158
 10
3.8182260189
 20
2.55040718
 10
4.0077248998
 20
2.5507800757
 10
4.1989991968
 20
2.55106005
 10
4.3914550452
 20
2.551228293
 10
4.5844954585
 20
2.5512807899
  0
LINE
  5
7E
330
1F
100
AcDbEntity
  8
0
  6
Continuous
 62
     7
370
    15
100
AcDbLine
 10
4.6358588568
 20
2.6738999874
 30
0.0
 11
4.584530382
 21
2.6738998315
 31
0.0
  0
ARC
  5
7F
330
1F
100
AcDbEntity
  8
0
  6
Continuous
 62
     7
370
    15
100
AcDbCircle
 10
4.9221559836
 20
2.671655541
 30
0.0
 40
0.317616348755709
100
AcDbArc
 50
345.1591722876
 51
0.4034769964
  0
LINE
  5
80
330
1F
100
AcDbEntity
  8
0
  6
Continuous
 62
     7
370
    15
100
AcDbLine
 10
5.2291770061
 20
2.590302995
 30
0.0
 11
5.2668501042
 21
2.591732346
 31
0.0
  0
LINE
  5
81
330
1F
100
AcDbEntity
  8
0
  6
Continuous
 62
     7
370
    15
100
AcDbLine
 10
5.2668501042
 20
2.591732346
 30
0.0
 11
5.2799032134
 21
2.5920823207
 31
0.0
  0
LINE
  5
82
330
1F
100
AcDbEntity
  8
0
  6
Continuous
 62
     7
370
    15
100
AcDbLine
 10
5.3864929354
 20
2.6738980028
 30
0.0
 11
5.287014338
 21
2.6738925075
 31
0.0
  0
ARC
  5
83
330
1F
100
AcDbEntity
  8
0
  6
Continuous
 62
     7
370
    15
100
AcDbCircle
 10
5.0722635902
 20
2.670773922
 30
0.0
 40
0.314244141411011
100
AcDbArc
 50
345.5452928842
 51
0.5696195073
  0
LINE
  5
84
330
1F
100
AcDbEntity
  8
0
  6
Continuous
 62
     7
370
    15
100
AcDbLine
 10
5.3765604168
 20
2.5923339978
 30
0.0
 11
5.4006260122
 21
2.591732346
 31
0.0
  0
LINE
  5
85
330
1F
100
AcDbEntity
  8
0
  6
Continuous
 62
     7
370
    15
100
AcDbLine
 10
5.4006260122
 20
2.591732346
 30
0.0
 11
5.4259709661
 21
2.5908168494
 31
0.0
  0
LWPOLYLINE
  5
86
330
1F
100
AcDbEntity
  8
0
  6
Continuous
 62
     7
370
    15
100
AcDbPolyline
 90
        7
 70
   128
 43
0.0
 10
6.2681634036
 20
2.6739453618
 10
6.1375079396
 20
2.6739416677
 10
6.0027093369
 20
2.6739349578
 10
5.8643076157
 20
2.673932767
 10
5.7229318222
 20
2.6739293639
 10
5.5790973371
 20
2.6739171518
 10
5.4332572819
 20
2.6739022607
  0
ARC
  5
87
330
1F
100
AcDbEntity
  8
0
  6
Continuous
 62
     7
370
    15
100
AcDbCircle
 10
6.0890292823
 20
2.6792033205
 30
0.0
 40
0.1792103911498286
100
AcDbArc
 50
327.4787520439
 51
358.3187243051
  0
ARC
  5
88
330
1F
100
AcDbEntity
  8
0
  6
Continuous
 62
     7
370
    15
100
AcDbCircle
 10
6.3013692102
 20
2.3947462561
 30
0.0
 40
0.1978260112934327
100
AcDbArc
 50
95.2816429104
 51
108.0303147193
  0
LINE
  5
89
330
1F
100
AcDbEntity
  8
0
  6
Continuous
 62
     7
370
    15
100
AcDbLine
 10
6.2831590171
 20
2.591732346
 30
0.0
 11
6.2870771718
 21
2.5921908161
 31
0.0
  0
ARC
  5
8A
330
1F
100
AcDbEntity
  8
0
  6
Continuous
 62
     7
370
    15
100
AcDbCircle
 10
6.2017409053
 20
2.680711532
 30
0.0
 40
0.1891516492751756
100
AcDbArc
 50
332.6636385123
 51
357.9488555103
  0
LINE
  5
8B
330
1F
100
AcDbEntity
  8
0
  6
Continuous
 62
     7
370
    15
100
AcDbLine
 10
6.3697692299
 20
2.5938505594
 30
0.0
 11
6.3881792039
 21
2.591732346
 31
0.0
  0
LINE
  5
8C
330
1F
100
AcDbEntity
  8
0
  6
Continuous
 62
     7
370
    15
100
AcDbLine
 10
6.3881792039
 20
2.591732346
 30
0.0
 11
6.4063568605
 21
2.5885068578
 31
0.0
  0
ARC
  5
8D
330
1F
100
AcDbEntity
  8
0
  6
Continuous
 62
     7
370
    15
100
AcDbCircle
 10
6.7297167513
 20
2.6907984147
 30
0.0
 40
0.1804388115400183
100
AcDbArc
 50
321.3374060687
 51
354.6040532691
  0
ARC
  5
8E
330
1F
100
AcDbEntity
  8
0
  6
Continuous
 62
     7
370
    15
100
AcDbCircle
 10
6.9302169889
 20
2.5116882797
 30
0.0
 40
0.0892177030819753
100
AcDbArc
 50
116.2105648044
 51
131.9208761149
  0
LINE
  5
8F
330
1F
100
AcDbEntity
  8
0
  6
Continuous
 62
     7
370
    15
100
AcDbLine
 10
6.8908120907
 20
2.591732346
 30
0.0
 11
6.9045176391
 21
2.5985375503
 31
0.0
  0
LWPOLYLINE
  5
90
330
1F
100
AcDbEntity
  8
0
  6
Continuous
 62
     7
370
    15
100
AcDbPolyline
 90
        3
 70
   128
 43
0.0
 10
6.9392012651
 20
2.5949110113
 10
6.955455704
 20
2.6301592929
 10
6.9647384234
 20
2.6737762251
  0
LINE
  5
91
330
1F
100
AcDbEntity
  8
0
  6
Continuous
 62
     7
370
    15
100
AcDbLine
 10
6.9392012651
 20
2.5949110113
 30
0.0
 11
6.9449126924
 21
2.591732346
 31
0.0
  0
LINE
  5
92
330
1F
100
AcDbEntity
  8
0
  6
Continuous
 62
     7
370
    15
100
AcDbLine
 10
6.9449126924
 20
2.591732346
 30
0.0
 11
6.9493941873
 21
2.586997854
 31
0.0
  0
ARC
  5
93
330
1F
100
AcDbEntity
  8
0
  6
Continuous
 62
     7
370
    15
100
AcDbCircle
 10
6.8172886187
 20
2.6923445058
 30
0.0
 40
0.2108381564865004
100
AcDbArc
 50
321.0229580593
 51
354.9390957964
  0
LINE
  5
94
330
1F
100
AcDbEntity
  8
0
  6
Continuous
 62
     7
370
    15
100
AcDbLine
 10
6.9791101241
 20
2.5570825262
 30
0.0
 11
6.978246414
 21
2.5565499124
 31
0.0
  0
LWPOLYLINE
  5
95
330
1F
100
AcDbEntity
  8
0
  6
Continuous
 62
     7
370
    15
100
AcDbPolyline
 90
       23
 70
   128
 43
0.0
 10
6.9782323342
 20
2.5565505265
 10
6.9676953359
 20
2.5542811886
 10
6.9467986573
 20
2.5523658357
 10
6.9158696546
 20
2.5507643001
 10
6.8752678036
 20
2.5494667367
 10
6.8253258872
 20
2.5484618067
 10
6.7663205156
 20
2.5477296459
 10
6.6985131922
 20
2.5472571006
 10
6.622123768
 20
2.5470171292
 10
6.5374156532
 20
2.5469778688
 10
6.4447811767
 20
2.5470963099
 10
6.3446088539
 20
2.5473266381
 10
6.2373052401
 20
2.5476516293
 10
6.0998071218
 20
2.5481342029
 10
5.9537641556
 20
2.5486599969
 10
5.8002367292
 20
2.5491778709
 10
5.6402929302
 20
2.5496657886
 10
5.4747188096
 20
2.5501141251
 10
5.3041185537
 20
2.5505077189
 10
5.1291002722
 20
2.5508340942
 10
4.9503304107
 20
2.5510821139
 10
4.7685610122
 20
2.5512309697
 10
4.5845654871
 20
2.5512737225
  0
LWPOLYLINE
  5
96
330
1F
100
AcDbEntity
  8
0
  6
Continuous
 62
     7
370
    15
100
AcDbPolyline
 90
       12
 70
   128
 43
0.0
 10
3.9391804749
 20
2.591732346
 10
3.9347169465
 20
2.603084499
 10
3.9310127759
 20
2.6171364494
 10
3.9274082642
 20
2.638137727
 10
3.9248441205
 20
2.661029067
 10
3.9214794061
 20
2.708856825
 10
3.9184886139
 20
2.7571086522
 10
3.9164847304
 20
2.779994777
 10
3.9137127625
 20
2.8017664955
 10
3.9108289624
 20
2.8172214636
 10
3.9072072176
 20
2.8307320208
 10
3.9027924553
 20
2.8417323521
  0
LINE
  5
97
330
1F
100
AcDbEntity
  8
0
  6
Continuous
 62
     7
370
    15
100
AcDbLine
 10
3.9022108553
 20
2.591732346
 30
0.0
 11
3.9391804749
 21
2.591732346
 31
0.0
  0
LWPOLYLINE
  5
98
330
1F
100
AcDbEntity
  8
0
  6
Continuous
 62
     7
370
    15
100
AcDbPolyline
 90
       12
 70
   128
 43
0.0
 10
3.8891577461
 20
2.5920823207
 10
3.8868986655
 20
2.6029073919
 10
3.8848331827
 20
2.6166090719
 10
3.8830424034
 20
2.6322517586
 10
3.8810935193
 20
2.6543806223
 10
3.8794580582
 20
2.6776169292
 10
3.8765510117
 20
2.7266687955
 10
3.873439221
 20
2.7751533204
 10
3.8715826625
 20
2.7971889717
 10
3.8693315751
 20
2.8173429755
 10
3.8672596391
 20
2.830832743
 10
3.8649468791
 20
2.8417323521
  0
LINE
  5
99
330
1F
100
AcDbEntity
  8
0
  6
Continuous
 62
     7
370
    15
100
AcDbLine
 10
3.9391804749
 20
2.591732346
 30
0.0
 11
3.9398839535
 21
2.590302995
 31
0.0
  0
LWPOLYLINE
  5
9A
330
1F
100
AcDbEntity
  8
0
  6
Continuous
 62
     7
370
    15
100
AcDbPolyline
 90
       12
 70
   128
 43
0.0
 10
5.2298804846
 20
2.591732346
 10
5.2343440131
 20
2.603084499
 10
5.2380481836
 20
2.6171364494
 10
5.2416526953
 20
2.638137727
 10
5.244216839
 20
2.661029067
 10
5.2475815535
 20
2.708856825
 10
5.2505723456
 20
2.7571086522
 10
5.2525762291
 20
2.779994777
 10
5.2553481971
 20
2.8017664955
 10
5.2582319971
 20
2.8172214636
 10
5.2618537419
 20
2.8307320208
 10
5.2662685043
 20
2.8417323521
  0
LINE
  5
9B
330
1F
100
AcDbEntity
  8
0
  6
Continuous
 62
     7
370
    15
100
AcDbLine
 10
5.2298804846
 20
2.591732346
 30
0.0
 11
5.2291770061
 21
2.590302995
 31
0.0
  0
LWPOLYLINE
  5
9C
330
1F
100
AcDbEntity
  8
0
  6
Continuous
 62
     7
370
    15
100
AcDbPolyline
 90
       12
 70
   128
 43
0.0
 10
5.2799032134
 20
2.5920823207
 10
5.282162294
 20
2.6029073919
 10
5.2842277768
 20
2.6166090719
 10
5.2860185561
 20
2.6322517586
 10
5.2879674403
 20
2.6543806223
 10
5.2896029014
 20
2.6776169292
 10
5.2925099478
 20
2.7266687955
 10
5.2956217385
 20
2.7751533204
 10
5.2974782971
 20
2.7971889717
 10
5.2997293844
 20
2.8173429755
 10
5.3018013205
 20
2.830832743
 10
5.3041140804
 20
2.8417323521
  0
LINE
  5
9D
330
1F
100
AcDbEntity
  8
0
  6
Continuous
 62
     7
370
    15
100
AcDbLine
 10
5.2668501042
 20
2.591732346
 30
0.0
 11
5.2298804846
 21
2.591732346
 31
0.0
  0
LINE
  5
9E
330
1F
100
AcDbEntity
  8
0
  6
Continuous
 62
     7
370
    15
100
AcDbLine
 10
4.5845304798
 20
2.8417323521
 30
0.0
 11
4.5845304798
 21
2.6737440046
 31
0.0
  0
LWPOLYLINE
  5
9F
330
1F
100
AcDbEntity
  8
0
  6
Continuous
 62
     7
370
    15
100
AcDbPolyline
 90
        3
 70
   128
 43
0.0
 10
6.2742903329
 20
2.8417323521
 10
6.2712294349
 20
2.7578491453
 10
6.2681664836
 20
2.6738844546
  0
LWPOLYLINE
  5
A0
330
1F
100
AcDbEntity
  8
0
  6
Continuous
 62
     7
370
    15
100
AcDbPolyline
 90
        3
 70
   128
 43
0.0
 10
2.9008944759
 20
2.6738844546
 10
2.8978315247
 20
2.7578491453
 10
2.8947706267
 20
2.8417323521
  0
LINE
  5
A1
330
1F
100
AcDbEntity
  8
0
  6
Continuous
 62
     7
370
    15
100
AcDbLine
 10
5.4006260122
 20
2.591732346
 30
0.0
 11
5.42620299
 21
2.591732346
 31
0.0
  0
LWPOLYLINE
  5
A2
330
1F
100
AcDbEntity
  8
0
  6
Continuous
 62
     7
370
    15
100
AcDbPolyline
 90
       12
 70
   128
 43
0.0
 10
5.3765604168
 20
2.5923339978
 10
5.3806918225
 20
2.6029073919
 10
5.3843135673
 20
2.6166090719
 10
5.3871900341
 20
2.6322517586
 10
5.3899630287
 20
2.6543806223
 10
5.3919633189
 20
2.6776169292
 10
5.3949761108
 20
2.7266687955
 10
5.3984827236
 20
2.7751533204
 10
5.4010575005
 20
2.7971889717
 10
5.4046389858
 20
2.8173429755
 10
5.408289917
 20
2.830832743
 10
5.4126563532
 20
2.8417323521
  0
LWPOLYLINE
  5
A3
330
1F
100
AcDbEntity
  8
0
  6
Continuous
 62
     7
370
    15
100
AcDbPolyline
 90
       12
 70
   128
 43
0.0
 10
5.42620299
 20
2.591732346
 10
5.4285738293
 20
2.603084499
 10
5.4306875649
 20
2.6171364494
 10
5.4329756851
 20
2.638137727
 10
5.4348545368
 20
2.661029067
 10
5.4378815551
 20
2.708856825
 10
5.4407534019
 20
2.7571086522
 10
5.4423794765
 20
2.779994777
 10
5.4443166275
 20
2.8017664955
 10
5.4461047668
 20
2.8172214636
 10
5.4481642363
 20
2.8307320208
 10
5.4505019293
 20
2.8417323521
  0
LWPOLYLINE
  5
A4
330
1F
100
AcDbEntity
  8
0
  6
Continuous
 62
     7
370
    15
100
AcDbPolyline
 90
        3
 70
   128
 43
0.0
 10
5.3864903688
 20
2.673783902
 10
5.3868664178
 20
2.7577719262
 10
5.3872424668
 20
2.8417323521
  0
LWPOLYLINE
  5
A5
330
1F
100
AcDbEntity
  8
0
  6
Continuous
 62
     7
370
    15
100
AcDbPolyline
 90
       12
 70
   128
 43
0.0
 10
3.7428579695
 20
2.591732346
 10
3.7404871302
 20
2.603084499
 10
3.7383733947
 20
2.6171364494
 10
3.7360852744
 20
2.638137727
 10
3.7342064228
 20
2.661029067
 10
3.7311794044
 20
2.708856825
 10
3.7283075576
 20
2.7571086522
 10
3.7266814831
 20
2.779994777
 10
3.7247443321
 20
2.8017664955
 10
3.7229561928
 20
2.8172214636
 10
3.7208967232
 20
2.8307320208
 10
3.7185590302
 20
2.8417323521
  0
LWPOLYLINE
  5
A6
330
1F
100
AcDbEntity
  8
0
  6
Continuous
 62
     7
370
    15
100
AcDbPolyline
 90
       12
 70
   128
 43
0.0
 10
3.7925005427
 20
2.5923339978
 10
3.7883691371
 20
2.6029073919
 10
3.7847473923
 20
2.6166090719
 10
3.7818709255
 20
2.6322517586
 10
3.7790979309
 20
2.6543806223
 10
3.7770976406
 20
2.6776169292
 10
3.7740848488
 20
2.7266687955
 10
3.770578236
 20
2.7751533204
 10
3.768003459
 20
2.7971889717
 10
3.7644219737
 20
2.8173429755
 10
3.7607710426
 20
2.830832743
 10
3.7564046064
 20
2.8417323521
  0
LINE
  5
A7
330
1F
100
AcDbEntity
  8
0
  6
Continuous
 62
     7
370
    15
100
AcDbLine
 10
3.7684349474
 20
2.591732346
 30
0.0
 11
3.7428579695
 21
2.591732346
 31
0.0
  0
LWPOLYLINE
  5
A8
330
1F
100
AcDbEntity
  8
0
  6
Continuous
 62
     7
370
    15
100
AcDbPolyline
 90
        3
 70
   128
 43
0.0
 10
3.7818184928
 20
2.8417323521
 10
3.7821945418
 20
2.7577719262
 10
3.7825705908
 20
2.673783902
  0
ARC
  5
A9
330
1F
100
AcDbEntity
  8
0
  6
Continuous
 62
     7
370
    15
100
AcDbCircle
 10
3.9297706476
 20
4.0294148678
 30
0.0
 40
2.279195077332596
100
AcDbArc
 50
220.2467480814
 51
246.9166584504
  0
LINE
  5
AA
330
1F
100
AcDbEntity
  8
0
  6
Continuous
 62
     7
370
    15
100
AcDbLine
 10
4.5845304798
 20
1.692079533
 30
0.0
 11
4.5845304798
 21
2.5512394579
 31
0.0
  0
LWPOLYLINE
  5
AB
330
1F
100
AcDbEntity
  8
0
  6
Continuous
 62
     7
370
    15
100
AcDbPolyline
 90
       10
 70
   128
 43
0.0
 10
4.5845304798
 20
1.692079533
 10
4.5207708347
 20
1.6917421302
 10
4.4570111896
 20
1.6906958223
 10
4.3986080242
 20
1.6891423469
 10
4.3438700532
 20
1.6872877683
 10
4.2973060878
 20
1.685557855
 10
4.2576658091
 20
1.6841219316
 10
4.2282862485
 20
1.6831986756
 10
4.2083155758
 20
1.6827612473
 10
4.2022797622
 20
1.682760514
  0
LINE
  5
AC
330
1F
100
AcDbEntity
  8
0
  6
Continuous
 62
     7
370
    15
100
AcDbLine
 10
3.4200809983
 20
1.8004417012
 30
0.0
 11
3.3617172125
 21
1.8167493795
 31
0.0
  0
ARC
  5
AD
330
1F
100
AcDbEntity
  8
0
  6
Continuous
 62
     7
370
    15
100
AcDbCircle
 10
5.2392855972
 20
4.0294214769
 30
0.0
 40
2.279203005845403
100
AcDbArc
 50
293.0833854438
 51
319.7531941994
  0
LINE
  5
AE
330
1F
100
AcDbEntity
  8
0
  6
Continuous
 62
     7
370
    15
100
AcDbLine
 10
5.7487028378
 20
1.8003641154
 30
0.0
 11
5.8072838344
 21
1.8167326596
 31
0.0
  0
LWPOLYLINE
  5
AF
330
1F
100
AcDbEntity
  8
0
  6
Continuous
 62
     7
370
    15
100
AcDbPolyline
 90
       11
 70
   128
 43
0.0
 10
4.9660918353
 20
1.6828040735
 10
4.9647567807
 20
1.6827310343
 10
4.9485384214
 20
1.6829980379
 10
4.9224536894
 20
1.6837520425
 10
4.8859201231
 20
1.6850322811
 10
4.841981589
 20
1.6866708221
 10
4.7893900782
 20
1.6885357406
 10
4.7324670833
 20
1.6902127812
 10
4.66963151
 20
1.6914718267
 10
4.6276123575
 20
1.6919274414
 10
4.5845304798
 20
1.692079533
  0
LINE
  5
B0
330
1F
100
AcDbEntity
  8
0
  6
Continuous
 62
     7
370
    15
100
AcDbLine
 10
5.42620299
 20
2.591732346
 30
0.0
 11
5.4259709661
 21
2.5908168494
 31
0.0
  0
LINE
  5
B1
330
1F
100
AcDbEntity
  8
0
  6
Continuous
 62
     7
370
    15
100
AcDbLine
 10
3.7428579695
 20
2.591732346
 30
0.0
 11
3.7430899935
 21
2.5908168494
 31
0.0
  0
LWPOLYLINE
  5
B2
330
1F
100
AcDbEntity
  8
0
  6
Continuous
 62
     7
370
    15
100
AcDbPolyline
 90
       11
 70
   128
 43
0.0
 10
6.3618452148
 20
2.8417323521
 10
6.3517025986
 20
2.8278677823
 10
6.3442012719
 20
2.812800578
 10
6.3379716772
 20
2.7956883415
 10
6.3296421334
 20
2.7630989996
 10
6.3233054733
 20
2.7287230584
 10
6.3175636863
 20
2.693972457
 10
6.3115975019
 20
2.6622716241
 10
6.3039681367
 20
2.6319242248
 10
6.2963917175
 20
2.6106622335
 10
6.2870771718
 20
2.5921908161
  0
LINE
  5
B3
330
1F
100
AcDbEntity
  8
0
  6
Continuous
 62
     7
370
    15
100
AcDbLine
 10
6.2466885717
 20
2.591732346
 30
0.0
 11
6.2401380741
 21
2.5828576026
 31
0.0
  0
LWPOLYLINE
  5
B4
330
1F
100
AcDbEntity
  8
0
  6
Continuous
 62
     7
370
    15
100
AcDbPolyline
 90
       10
 70
   128
 43
0.0
 10
6.3305793226
 20
2.8417323521
 10
6.320273615
 20
2.830428296
 10
6.3114329438
 20
2.8165230267
 10
6.3024608608
 20
2.795746375
 10
6.2957081121
 20
2.7729414018
 10
6.2863601268
 20
2.7257943331
 10
6.2781905945
 20
2.6779931455
 10
6.2716028439
 20
2.648589317
 10
6.2625772282
 20
2.620937185
 10
6.2466885717
 20
2.591732346
  0
LWPOLYLINE
  5
B5
330
1F
100
AcDbEntity
  8
0
  6
Continuous
 62
     7
370
    15
100
AcDbPolyline
 90
       10
 70
   128
 43
0.0
 10
2.8384816369
 20
2.8417323521
 10
2.8487873446
 20
2.830428296
 10
2.8576280158
 20
2.8165230267
 10
2.8666000988
 20
2.795746375
 10
2.8733528474
 20
2.7729414018
 10
2.8827008328
 20
2.7257943331
 10
2.8908703651
 20
2.6779931455
 10
2.8974581156
 20
2.648589317
 10
2.9064837314
 20
2.620937185
 10
2.9223723878
 20
2.591732346
  0
LINE
  5
B6
330
1F
100
AcDbEntity
  8
0
  6
Continuous
 62
     7
370
    15
100
AcDbLine
 10
2.8859019425
 20
2.591732346
 30
0.0
 11
2.9223723878
 21
2.591732346
 31
0.0
  0
LWPOLYLINE
  5
B7
330
1F
100
AcDbEntity
  8
0
  6
Continuous
 62
     7
370
    15
100
AcDbPolyline
 90
       11
 70
   128
 43
0.0
 10
2.8072157448
 20
2.8417323521
 10
2.817358361
 20
2.8278677823
 10
2.8248596876
 20
2.812800578
 10
2.8310892823
 20
2.7956883415
 10
2.8394188261
 20
2.7630989996
 10
2.8457554863
 20
2.7287230584
 10
2.8514972733
 20
2.693972457
 10
2.8574634577
 20
2.6622716241
 10
2.8650928229
 20
2.6319242248
 10
2.872669242
 20
2.6106622335
 10
2.8819837877
 20
2.5921908161
  0
LINE
  5
B8
330
1F
100
AcDbEntity
  8
0
  6
Continuous
 62
     7
370
    15
100
AcDbLine
 10
2.9223723878
 20
2.591732346
 30
0.0
 11
2.9289228855
 21
2.5828576026
 31
0.0
  0
LWPOLYLINE
  5
B9
330
1F
100
AcDbEntity
  8
0
  6
Continuous
 62
     7
370
    15
100
AcDbPolyline
 90
        3
 70
   128
 43
0.0
 10
6.3907697473
 20
2.6738889119
 10
6.3938885779
 20
2.7578702284
 10
6.3970035953
 20
2.8417323521
  0
LWPOLYLINE
  5
BA
330
1F
100
AcDbEntity
  8
0
  6
Continuous
 62
     7
370
    15
100
AcDbPolyline
 90
        3
 70
   128
 43
0.0
 10
2.7720573643
 20
2.8417323521
 10
2.7751723816
 20
2.7578702284
 10
2.7782912123
 20
2.6738889119
  0
LWPOLYLINE
  5
BB
330
1F
100
AcDbEntity
  8
0
  6
Continuous
 62
     7
370
    15
100
AcDbPolyline
 90
       11
 70
   128
 43
0.0
 10
2.7169239479
 20
2.8417323521
 10
2.7291327802
 20
2.8278677823
 10
2.7379517449
 20
2.812800578
 10
2.7450745293
 20
2.7956883415
 10
2.7541731842
 20
2.7630989996
 10
2.7606757224
 20
2.7287230584
 10
2.7664103229
 20
2.693972457
 10
2.7725618918
 20
2.6622716241
 10
2.7808741291
 20
2.6319242248
 10
2.7890333948
 20
2.6116489565
 10
2.7992917297
 20
2.5938505594
  0
LWPOLYLINE
  5
BC
330
1F
100
AcDbEntity
  8
0
  6
Continuous
 62
     7
370
    15
100
AcDbPolyline
 90
       10
 70
   128
 43
0.0
 10
2.6856580557
 20
2.8417323521
 10
2.6942056903
 20
2.830428296
 10
2.7016839906
 20
2.8165230267
 10
2.7095041669
 20
2.795746375
 10
2.715638136
 20
2.7729414018
 10
2.7246690317
 20
2.7257943331
 10
2.7327897246
 20
2.6779931455
 10
2.7390216659
 20
2.648589317
 10
2.7471222657
 20
2.620937185
 10
2.7607082821
 20
2.591732346
  0
LINE
  5
BD
330
1F
100
AcDbEntity
  8
0
  6
Continuous
 62
     7
370
    15
100
AcDbLine
 10
2.7808817557
 20
2.591732346
 30
0.0
 11
2.7607082821
 21
2.591732346
 31
0.0
  0
LWPOLYLINE
  5
BE
330
1F
100
AcDbEntity
  8
0
  6
Continuous
 62
     7
370
    15
100
AcDbPolyline
 90
       11
 70
   128
 43
0.0
 10
6.4521370117
 20
2.8417323521
 10
6.4399281794
 20
2.8278677823
 10
6.4311092146
 20
2.812800578
 10
6.4239864302
 20
2.7956883415
 10
6.4148877753
 20
2.7630989996
 10
6.4083852371
 20
2.7287230584
 10
6.4026506367
 20
2.693972457
 10
6.3964990678
 20
2.6622716241
 10
6.3881868305
 20
2.6319242248
 10
6.3800275647
 20
2.6116489565
 10
6.3697692299
 20
2.5938505594
  0
LWPOLYLINE
  5
BF
330
1F
100
AcDbEntity
  8
0
  6
Continuous
 62
     7
370
    15
100
AcDbPolyline
 90
       10
 70
   128
 43
0.0
 10
6.4834029038
 20
2.8417323521
 10
6.4748552692
 20
2.830428296
 10
6.467376969
 20
2.8165230267
 10
6.4595567926
 20
2.795746375
 10
6.4534228235
 20
2.7729414018
 10
6.4443919278
 20
2.7257943331
 10
6.436271235
 20
2.6779931455
 10
6.4300392936
 20
2.648589317
 10
6.4219386939
 20
2.620937185
 10
6.4083526775
 20
2.591732346
  0
LINE
  5
C0
330
1F
100
AcDbEntity
  8
0
  6
Continuous
 62
     7
370
    15
100
AcDbLine
 10
6.4083526775
 20
2.591732346
 30
0.0
 11
6.4063568605
 21
2.5885068578
 31
0.0
  0
LWPOLYLINE
  5
C1
330
1F
100
AcDbEntity
  8
0
  6
Continuous
 62
     7
370
    15
100
AcDbPolyline
 90
        3
 70
   128
 43
0.0
 10
6.9093523032
 20
2.673820197
 10
6.9155928978
 20
2.7577792228
 10
6.9218331991
 20
2.8417323521
  0
LWPOLYLINE
  5
C2
330
1F
100
AcDbEntity
  8
0
  6
Continuous
 62
     7
370
    15
100
AcDbPolyline
 90
        3
 70
   128
 43
0.0
 10
2.2472277605
 20
2.8417323521
 10
2.2534680617
 20
2.7577792228
 10
2.2597086563
 20
2.673820197
  0
LINE
  5
C3
330
1F
100
AcDbEntity
  8
0
  6
Continuous
 62
     7
370
    15
100
AcDbLine
 10
2.7607082821
 20
2.591732346
 30
0.0
 11
2.762704099
 21
2.5885068578
 31
0.0
  0
LWPOLYLINE
  5
C4
330
1F
100
AcDbEntity
  8
0
  6
Continuous
 62
     7
370
    15
100
AcDbPolyline
 90
       10
 70
   128
 43
0.0
 10
2.1634794213
 20
2.8417323521
 10
2.1774200736
 20
2.8318806642
 10
2.1919447458
 20
2.8174721507
 10
2.2039888733
 20
2.8007441306
 10
2.2199515956
 20
2.7669538409
 10
2.2311567995
 20
2.7309296238
 10
2.2406379566
 20
2.6947126842
 10
2.2511771549
 20
2.6588500678
 10
2.2659375177
 20
2.6234119319
 10
2.2868139565
 20
2.591732346
  0
LINE
  5
C5
330
1F
100
AcDbEntity
  8
0
  6
Continuous
 62
     7
370
    15
100
AcDbLine
 10
2.2868139565
 20
2.591732346
 30
0.0
 11
2.2782488688
 21
2.591732346
 31
0.0
  0
LWPOLYLINE
  5
C6
330
1F
100
AcDbEntity
  8
0
  6
Continuous
 62
     7
370
    15
100
AcDbPolyline
 90
       10
 70
   128
 43
0.0
 10
2.149939751
 20
2.8417323521
 10
2.1652432143
 20
2.8300075692
 10
2.178567287
 20
2.8156099822
 10
2.192074251
 20
2.7945321724
 10
2.2025016905
 20
2.7713554034
 10
2.2168433248
 20
2.7252537443
 10
2.2292354883
 20
2.6783761473
 10
2.2412250565
 20
2.6423338394
 10
2.2577531722
 20
2.6086944846
 10
2.2645433205
 20
2.5985375503
  0
LINE
  5
C7
330
1F
100
AcDbEntity
  8
0
  6
Continuous
 62
     7
370
    15
100
AcDbLine
 10
2.2868139565
 20
2.591732346
 30
0.0
 11
2.2984506488
 21
2.5780723325
 31
0.0
  0
LINE
  5
C8
330
1F
100
AcDbEntity
  8
0
  6
Continuous
 62
     7
370
    15
100
AcDbLine
 10
6.882247003
 20
2.591732346
 30
0.0
 11
6.8706103108
 21
2.5780723325
 31
0.0
  0
LWPOLYLINE
  5
C9
330
1F
100
AcDbEntity
  8
0
  6
Continuous
 62
     7
370
    15
100
AcDbPolyline
 90
       10
 70
   128
 43
0.0
 10
7.0055815383
 20
2.8417323521
 10
6.991640886
 20
2.8318806642
 10
6.9771162138
 20
2.8174721507
 10
6.9650720862
 20
2.8007441306
 10
6.949109364
 20
2.7669538409
 10
6.9379041601
 20
2.7309296238
 10
6.9284230029
 20
2.6947126842
 10
6.9178838047
 20
2.6588500678
 10
6.9031234419
 20
2.6234119319
 10
6.882247003
 20
2.591732346
  0
LWPOLYLINE
  5
CA
330
1F
100
AcDbEntity
  8
0
  6
Continuous
 62
     7
370
    15
100
AcDbPolyline
 90
       10
 70
   128
 43
0.0
 10
7.0191212085
 20
2.8417323521
 10
7.0038177453
 20
2.8300075692
 10
6.9904936726
 20
2.8156099822
 10
6.9769867086
 20
2.7945321724
 10
6.966559269
 20
2.7713554034
 10
6.9522176347
 20
2.7252537443
 10
6.9398254712
 20
2.6783761473
 10
6.927835903
 20
2.6423338394
 10
6.9113077873
 20
2.6086944846
 10
6.9045176391
 20
2.5985375503
  0
LWPOLYLINE
  5
CB
330
1F
100
AcDbEntity
  8
0
  6
Continuous
 62
     7
370
    15
100
AcDbPolyline
 90
        3
 70
   128
 43
0.0
 10
2.1956634362
 20
2.7865544595
 10
2.1978714773
 20
2.7577683146
 10
2.2043159362
 20
2.6737731611
  0
LWPOLYLINE
  5
CC
330
1F
100
AcDbEntity
  8
0
  6
Continuous
 62
     7
370
    15
100
AcDbPolyline
 90
        3
 70
   128
 43
0.0
 10
6.9647450233
 20
2.6737731611
 10
6.9711894822
 20
2.7577683146
 10
6.9733975234
 20
2.7865544595
  0
LWPOLYLINE
  5
CD
330
1F
100
AcDbEntity
  8
0
  6
Continuous
 62
     7
370
    15
100
AcDbPolyline
 90
       11
 70
   128
 43
0.0
 10
6.9392012651
 20
2.5949110113
 10
6.9456823902
 20
2.6029696053
 10
6.9611168252
 20
2.6284938021
 10
6.9725572798
 20
2.6563092885
 10
6.9826783362
 20
2.6907723189
 10
6.9913438894
 20
2.7257101841
 10
7.0060615727
 20
2.7744957297
 10
7.0162213487
 20
2.7965443241
 10
7.0295562746
 20
2.8165910242
 10
7.0429815462
 20
2.8304500391
 10
7.0584857938
 20
2.8417323521
  0
LWPOLYLINE
  5
CE
330
1F
100
AcDbEntity
  8
0
  6
Continuous
 62
     7
370
    15
100
AcDbPolyline
 90
       10
 70
   128
 43
0.0
 10
6.9535742857
 20
2.591732346
 10
6.9702480398
 20
2.6150429742
 10
6.9830027591
 20
2.6412784964
 10
6.9994654622
 20
2.6942936349
 10
7.0132617962
 20
2.7484039119
 10
7.0213512494
 20
2.7733200174
 10
7.0319106874
 20
2.7970364126
 10
7.0425744042
 20
2.8140192722
 10
7.0555566009
 20
2.8288619324
 10
7.0720200374
 20
2.8417323521
  0
LINE
  5
CF
330
1F
100
AcDbEntity
  8
0
  6
Continuous
 62
     7
370
    15
100
AcDbLine
 10
6.9535742857
 20
2.591732346
 30
0.0
 11
6.9493941873
 21
2.586997854
 31
0.0
  0
LWPOLYLINE
  5
D0
330
1F
100
AcDbEntity
  8
0
  6
Continuous
 62
     7
370
    15
100
AcDbPolyline
 90
       10
 70
   128
 43
0.0
 10
2.2154866738
 20
2.591732346
 10
2.1988129198
 20
2.6150429742
 10
2.1860582005
 20
2.6412784964
 10
2.1695954973
 20
2.6942936349
 10
2.1557991634
 20
2.7484039119
 10
2.1477097101
 20
2.7733200174
 10
2.1371502721
 20
2.7970364126
 10
2.1264865553
 20
2.8140192722
 10
2.1135043586
 20
2.8288619324
 10
2.0970409221
 20
2.8417323521
  0
LWPOLYLINE
  5
D1
330
1F
100
AcDbEntity
  8
0
  6
Continuous
 62
     7
370
    15
100
AcDbPolyline
 90
       11
 70
   128
 43
0.0
 10
2.2298596945
 20
2.5949110113
 10
2.2233785693
 20
2.6029696053
 10
2.2079441343
 20
2.6284938021
 10
2.1965036798
 20
2.6563092885
 10
2.1863826234
 20
2.6907723189
 10
2.1777170702
 20
2.7257101841
 10
2.1629993868
 20
2.7744957297
 10
2.1528396109
 20
2.7965443241
 10
2.1395046849
 20
2.8165910242
 10
2.1260794133
 20
2.8304500391
 10
2.1105751658
 20
2.8417323521
  0
LINE
  5
D2
330
1F
100
AcDbEntity
  8
0
  6
Continuous
 62
     7
370
    15
100
AcDbLine
 10
2.2241482671
 20
2.591732346
 30
0.0
 11
2.2154866738
 21
2.591732346
 31
0.0
  0
LINE
  5
D3
330
1F
100
AcDbEntity
  8
0
  6
Continuous
 62
     7
370
    15
100
AcDbLine
 10
2.2154866738
 20
2.591732346
 30
0.0
 11
2.2196667722
 21
2.586997854
 31
0.0
  0
LINE
  5
D4
330
1F
100
AcDbEntity
  8
0
  6
Continuous
 62
     7
370
    15
100
AcDbLine
 10
7.0390902312
 20
2.8084704047
 30
0.0
 11
7.027303354
 21
2.6737456317
 31
0.0
  0
LINE
  5
D5
330
1F
100
AcDbEntity
  8
0
  6
Continuous
 62
     7
370
    15
100
AcDbLine
 10
2.1299707284
 20
2.8084704047
 30
0.0
 11
2.1417576056
 21
2.6737456317
 31
0.0
  0
LINE
  5
D6
330
1F
100
AcDbEntity
  8
0
  6
Continuous
 62
     7
370
    15
100
AcDbLine
 10
4.9702282642
 20
1.6830369774
 30
0.0
 11
4.9702282642
 21
1.5567323299
 31
0.0
  0
LINE
  5
D7
330
1F
100
AcDbEntity
  8
0
  6
Continuous
 62
     7
370
    15
100
AcDbLine
 10
4.9702282642
 20
1.5567323299
 30
0.0
 11
4.1988326954
 21
1.5567323299
 31
0.0
  0
LINE
  5
D8
330
1F
100
AcDbEntity
  8
0
  6
Continuous
 62
     7
370
    15
100
AcDbLine
 10
4.1988326954
 20
1.6830369774
 30
0.0
 11
4.1988326954
 21
1.5567323299
 31
0.0
  0
ARC
  5
D9
330
1F
100
AcDbEntity
  8
0
  6
Continuous
 62
     7
370
    15
100
AcDbCircle
 10
2.0417465949
 20
2.7636203644
 30
0.0
 40
0.0955631008910402
100
AcDbArc
 50
21.1381335426
 51
54.8240207486
  0
ARC
  5
DA
330
1F
100
AcDbEntity
  8
0
  6
Continuous
 62
     7
370
    15
100
AcDbCircle
 10
7.1273143646
 20
2.7636203644
 30
0.0
 40
0.0955631008910344
100
AcDbArc
 50
125.1759792514
 51
158.8618664574
  0
ARC
  5
DB
330
1F
100
AcDbEntity
  8
0
  6
Continuous
 62
     7
370
    15
100
AcDbCircle
 10
2.161966931
 20
-3.8306098802
 30
0.0
 40
6.504387000471073
100
AcDbArc
 50
89.8766395004
 51
90.1780109475
  0
LINE
  5
DC
330
1F
100
AcDbEntity
  8
0
  6
Continuous
 62
     7
370
    15
100
AcDbLine
 10
2.2043225361
 20
2.6737762251
 30
0.0
 11
2.2307564041
 21
2.6738039081
 31
0.0
  0
LWPOLYLINE
  5
DD
330
1F
100
AcDbEntity
  8
0
  6
Continuous
 62
     7
370
    15
100
AcDbPolyline
 90
        8
 70
   128
 43
0.0
 10
2.2597051364
 20
2.6738303307
 10
2.2800000486
 20
2.6738433609
 10
2.3471661527
 20
2.6738721417
 10
2.4244591798
 20
2.6738943087
 10
2.5104116002
 20
2.6739111797
 10
2.603805068
 20
2.6739250373
 10
2.6710478778
 20
2.6739326914
 10
2.7336490346
 20
2.6739382646
  0
LINE
  5
DE
330
1F
100
AcDbEntity
  8
0
  6
Continuous
 62
     7
370
    15
100
AcDbLine
 10
2.778289159
 20
2.6739414959
 30
0.0
 11
2.855266563
 21
2.6739447523
 31
0.0
  0
LINE
  5
DF
330
1F
100
AcDbEntity
  8
0
  6
Continuous
 62
     7
370
    15
100
AcDbLine
 10
6.3907718006
 20
2.6739414959
 30
0.0
 11
6.3137943965
 21
2.6739447523
 31
0.0
  0
LWPOLYLINE
  5
E0
330
1F
100
AcDbEntity
  8
0
  6
Continuous
 62
     7
370
    15
100
AcDbPolyline
 90
        8
 70
   128
 43
0.0
 10
6.9093558232
 20
2.6738303307
 10
6.889060911
 20
2.6738433609
 10
6.8218948069
 20
2.6738721417
 10
6.7446017798
 20
2.6738943087
 10
6.6586493594
 20
2.6739111797
 10
6.5652558916
 20
2.6739250373
 10
6.4980130817
 20
2.6739326914
 10
6.4354119249
 20
2.6739382646
  0
LINE
  5
E1
330
1F
100
AcDbEntity
  8
0
  6
Continuous
 62
     7
370
    15
100
AcDbLine
 10
6.9647384234
 20
2.6737762251
 30
0.0
 11
6.9383045554
 21
2.6738039081
 31
0.0
  0
ARC
  5
E2
330
1F
100
AcDbEntity
  8
0
  6
Continuous
 62
     7
370
    15
100
AcDbCircle
 10
7.0070940286
 20
-3.8306098801
 30
0.0
 40
6.504387000397161
100
AcDbArc
 50
89.8219890525
 51
90.1233604996
  0
ARC
  5
E3
330
1F
100
AcDbEntity
  8
0
  6
Continuous
 62
     7
370
    15
100
AcDbCircle
 10
3.9856127189
 20
4.0833836691
 30
0.0
 40
2.350931008313155
100
AcDbArc
 50
246.1803359427
 51
254.6103289272
  0
ARC
  5
E4
330
1F
100
AcDbEntity
  8
0
  6
Continuous
 62
     7
370
    15
100
AcDbCircle
 10
5.1834999525
 20
4.0832339895
 30
0.0
 40
2.350773194001368
100
AcDbArc
 50
285.3879079943
 51
293.8199843779
  0
INSERT
  5
F0
330
1F
100
AcDbEntity
  8
0
  6
Continuous
 62
     7
370
     0
100
AcDbBlockReference
  2
SW_CENTERMARKSYMBOL_0
 10
4.5845304798
 20
2.781732347
 30
0.0
  0
LINE
  5
F1
330
1F
100
AcDbEntity
  8
0
  6
CENTERX2
 62
     7
100
AcDbLine
 10
1.7720304798
 20
6.8144725631
 30
0.0
 11
7.3970304798
 21
6.8144725631
 31
0.0
  0
LINE
  5
F2
330
1F
100
AcDbEntity
  8
0
  6
CENTERX2
 62
     7
100
AcDbLine
 10
4.5845304798
 20
4.8379100631
 30
0.0
 11
4.5845304798
 21
8.7910350631
 31
0.0
  0
ELLIPSE
  5
F3
330
1F
100
AcDbEntity
  8
0
  6
Continuous
 62
     7
370
    15
100
AcDbEllipse
 10
4.5845304798
 20
6.8144725631
 30
0.0
 11
2.8125
 21
0.0
 31
0.0
210
0.0
220
0.0
230
1.0
 40
0.7027777778
 41
0.0
 42
6.283185307179586
  0
LWPOLYLINE
  5
F4
330
1F
100
AcDbEntity
  8
0
  6
Continuous
 62
     7
370
    15
100
AcDbPolyline
 90
       25
 70
   128
 43
0.0
 10
6.9595304969
 20
6.9160347525
 10
6.9551213078
 20
6.8171263874
 10
6.9420103393
 20
6.7189900311
 10
6.9204224287
 20
6.622365534
 10
6.8907853977
 20
6.5278887437
 10
6.853596734
 20
6.436130407
 10
6.8094338575
 20
6.3475049075
 10
6.759446475
 20
6.2632055113
 10
6.7025941451
 20
6.1808923622
 10
6.6417669011
 20
6.1040327301
 10
6.5750063256
 20
6.0295528105
 10
6.5055063418
 20
5.9604719952
 10
6.4308060581
 20
5.893866078
 10
6.3278696872
 20
5.8124768449
 10
6.2193478742
 20
5.7372815669
 10
6.105881545
 20
5.6682030249
 10
5.9662303849
 20
5.5943296383
 10
5.8220936233
 20
5.5290842586
 10
5.6740268272
 20
5.4721055035
 10
5.5231164905
 20
5.4233110939
 10
5.3697294958
 20
5.3824153263
 10
5.1758118926
 20
5.3421984709
 10
4.97982129
 20
5.3137038134
 10
4.7825023978
 20
5.2966881833
 10
4.5845304798
 20
5.2910351286
  0
LWPOLYLINE
  5
F5
330
1F
100
AcDbEntity
  8
0
  6
Continuous
 62
     7
370
    15
100
AcDbPolyline
 90
       28
 70
   128
 43
0.0
 10
4.5845304798
 20
8.5410349977
 10
4.7433017656
 20
8.5374078262
 10
4.9011997716
 20
8.5265268986
 10
5.05916869
 20
8.5082553763
 10
5.2158148005
 20
8.4825865129
 10
5.3697294958
 20
8.4496548
 10
5.4991136678
 20
8.415722392
 10
5.6251822581
 20
8.3767414823
 10
5.7479352667
 20
8.3327120709
 10
5.8722844302
 20
8.2814366766
 10
5.9915999052
 20
8.2251550201
 10
6.105881545
 20
8.1638671014
 10
6.1916111813
 20
8.1125080347
 10
6.2735435148
 20
8.0584609657
 10
6.3543139684
 20
7.9997059511
 10
6.4308060581
 20
7.9382040483
 10
6.5055023819
 20
7.8716017977
 10
6.5750063256
 20
7.8025173158
 10
6.6417633811
 20
7.7280415761
 10
6.7025941451
 20
7.651177764
 10
6.7594435417
 20
7.5688691615
 10
6.8094338575
 20
7.4845651821
 10
6.8539472633
 20
7.3951782714
 10
6.8907853977
 20
7.3041813459
 10
6.9204224287
 20
7.209704574
 10
6.9420103393
 20
7.1130800952
 10
6.9551213078
 20
7.0149436655
 10
6.9595304969
 20
6.9160347525
  0
LWPOLYLINE
  5
F6
330
1F
100
AcDbEntity
  8
0
  6
Continuous
 62
     7
370
    15
100
AcDbPolyline
 90
       28
 70
   128
 43
0.0
 10
4.5845304798
 20
8.5410349977
 10
4.4257591939
 20
8.5374078262
 10
4.267861188
 20
8.5265268986
 10
4.1098922695
 20
8.5082553763
 10
3.9532461591
 20
8.4825865129
 10
3.7993314638
 20
8.4496548
 10
3.6699472918
 20
8.415722392
 10
3.5438787015
 20
8.3767414823
 10
3.4211256929
 20
8.3327120709
 10
3.2967765294
 20
8.2814366766
 10
3.1774610544
 20
8.2251550201
 10
3.0631794146
 20
8.1638671014
 10
2.9774497782
 20
8.1125080347
 10
2.8955174447
 20
8.0584609657
 10
2.8147469911
 20
7.9997059511
 10
2.7382549014
 20
7.9382040483
 10
2.6635585777
 20
7.8716017977
 10
2.5940546339
 20
7.8025173158
 10
2.5272975784
 20
7.7280415761
 10
2.4664668145
 20
7.651177764
 10
2.4096174179
 20
7.5688691615
 10
2.359627102
 20
7.4845651821
 10
2.3151136963
 20
7.3951782714
 10
2.2782755618
 20
7.3041813459
 10
2.2486385309
 20
7.209704574
 10
2.2270506203
 20
7.1130800952
 10
2.2139396517
 20
7.0149436655
 10
2.2095304626
 20
6.9160347525
  0
LWPOLYLINE
  5
F7
330
1F
100
AcDbEntity
  8
0
  6
Continuous
 62
     7
370
    15
100
AcDbPolyline
 90
       25
 70
   128
 43
0.0
 10
2.2095304626
 20
6.9160347525
 10
2.2139396517
 20
6.8171263874
 10
2.2270506203
 20
6.7189900311
 10
2.2486385309
 20
6.622365534
 10
2.2782755618
 20
6.5278887437
 10
2.3154642256
 20
6.436130407
 10
2.359627102
 20
6.3475049075
 10
2.4096144846
 20
6.2632055113
 10
2.4664668145
 20
6.1808923622
 10
2.5272940585
 20
6.1040327301
 10
2.5940546339
 20
6.0295528105
 10
2.6635546177
 20
5.9604719952
 10
2.7382549014
 20
5.893866078
 10
2.8411912723
 20
5.8124768449
 10
2.9497130853
 20
5.7372815669
 10
3.0631794146
 20
5.6682030249
 10
3.2028305746
 20
5.5943296383
 10
3.3469673362
 20
5.5290842586
 10
3.4950341324
 20
5.4721055035
 10
3.6459444691
 20
5.4233110939
 10
3.7993314638
 20
5.3824153263
 10
3.993249067
 20
5.3421984709
 10
4.1892396695
 20
5.3137038134
 10
4.3865585618
 20
5.2966881833
 10
4.5845304798
 20
5.2910351286
  0
LINE
  5
F8
330
1F
100
AcDbEntity
  8
0
  6
Continuous
 62
     7
370
    15
100
AcDbLine
 10
2.2095304626
 20
6.9160347525
 30
0.0
 11
2.2314150765
 21
6.9160347568
 31
0.0
  0
LINE
  5
F9
330
1F
100
AcDbEntity
  8
0
  6
Continuous
 62
     7
370
    15
100
AcDbLine
 10
4.5845304798
 20
8.5329423178
 30
0.0
 11
4.5845304798
 21
8.5410349977
 31
0.0
  0
LWPOLYLINE
  5
FA
330
1F
100
AcDbEntity
  8
0
  6
Continuous
 62
     7
370
    15
100
AcDbPolyline
 90
       11
 70
   128
 43
0.0
 10
4.5845304798
 20
8.5228811007
 10
4.5655356551
 20
8.5231115114
 10
4.5486825218
 20
8.5237930635
 10
4.5358500792
 20
8.5248924641
 10
4.5284710986
 20
8.5263393141
 10
4.5273992068
 20
8.5280096815
 10
4.5327991957
 20
8.5297221417
 10
4.5440880536
 20
8.531252004
 10
4.5599603134
 20
8.5323729644
 10
4.578555967
 20
8.5329100515
 10
4.5845304798
 20
8.5329423178
  0
LINE
  5
FB
330
1F
100
AcDbEntity
  8
0
  6
Continuous
 62
     7
370
    15
100
AcDbLine
 10
4.5845304798
 20
8.5191503838
 30
0.0
 11
4.5845304798
 21
8.5228811007
 31
0.0
  0
LWPOLYLINE
  5
FC
330
1F
100
AcDbEntity
  8
0
  6
Continuous
 62
     7
370
    15
100
AcDbPolyline
 90
       24
 70
   128
 43
0.0
 10
2.2314150765
 20
6.9160347574
 10
2.235813119
 20
7.0139022526
 10
2.2488773014
 20
7.1109947026
 10
2.270385573
 20
7.2065734418
 10
2.2999042453
 20
7.299991421
 10
2.3369271776
 20
7.3906989031
 10
2.3808763632
 20
7.4782628416
 10
2.431137716
 20
7.5623638367
 10
2.4871132827
 20
7.6427775277
 10
2.5696102763
 20
7.7440496912
 10
2.6599230463
 20
7.838422441
 10
2.7569494055
 20
7.9258851439
 10
2.8597034718
 20
8.0065359189
 10
2.9673246152
 20
8.0805726903
 10
3.0790928574
 20
8.1481828959
 10
3.2178540544
 20
8.2210712806
 10
3.3608158096
 20
8.2853250583
 10
3.5072208916
 20
8.3412786253
 10
3.6564425278
 20
8.3891994984
 10
3.8079387177
 20
8.4293282081
 10
3.9997860715
 20
8.4688640981
 10
4.1936386287
 20
8.4968754945
 10
4.3887745228
 20
8.5135983813
 10
4.5845305674
 20
8.5191075576
  0
LWPOLYLINE
  5
FD
330
1F
100
AcDbEntity
  8
0
  6
Continuous
 62
     7
370
    15
100
AcDbPolyline
 90
       11
 70
   128
 43
0.0
 10
4.5845304798
 20
8.5329423178
 10
4.6034898837
 20
8.5326092417
 10
4.6203111781
 20
8.5316653059
 10
4.6331516689
 20
8.5302564422
 10
4.6405706936
 20
8.5285851948
 10
4.6416660381
 20
8.5268752279
 10
4.6362674471
 20
8.5253302591
 10
4.6249953319
 20
8.5241013533
 10
4.6091633844
 20
8.5232785628
 10
4.5905857288
 20
8.5229038338
 10
4.5845304798
 20
8.5228811007
  0
LINE
  5
FE
330
1F
100
AcDbEntity
  8
0
  6
Continuous
 62
     7
370
    15
100
AcDbLine
 10
6.9595304969
 20
6.9160347525
 30
0.0
 11
6.9376458831
 21
6.9160347568
 31
0.0
  0
LWPOLYLINE
  5
FF
330
1F
100
AcDbEntity
  8
0
  6
Continuous
 62
     7
370
    15
100
AcDbPolyline
 90
       24
 70
   128
 43
0.0
 10
6.9376458831
 20
6.9160347574
 10
6.9332478405
 20
7.0139022526
 10
6.9201836581
 20
7.1109947026
 10
6.8986753866
 20
7.2065734418
 10
6.8691567142
 20
7.299991421
 10
6.8321337819
 20
7.3906989031
 10
6.7881845963
 20
7.4782628416
 10
6.7379232436
 20
7.5623638367
 10
6.6819476769
 20
7.6427775277
 10
6.5994506832
 20
7.7440496912
 10
6.5091379132
 20
7.838422441
 10
6.4121115541
 20
7.9258851439
 10
6.3093574878
 20
8.0065359189
 10
6.2017363443
 20
8.0805726903
 10
6.0899681022
 20
8.1481828959
 10
5.9512069051
 20
8.2210712806
 10
5.80824515
 20
8.2853250583
 10
5.6618400679
 20
8.3412786253
 10
5.5126184318
 20
8.3891994984
 10
5.3611222419
 20
8.4293282081
 10
5.1692748881
 20
8.4688640981
 10
4.9754223308
 20
8.4968754945
 10
4.7802864367
 20
8.5135983813
 10
4.5845303922
 20
8.5191075576
  0
LWPOLYLINE
  5
100
330
1F
100
AcDbEntity
  8
0
  6
Continuous
 62
     7
370
    15
100
AcDbPolyline
 90
       29
 70
   128
 43
0.0
 10
6.9376458831
 20
6.9160347568
 10
6.9373154469
 20
6.8904097981
 10
6.9361721934
 20
6.8590775653
 10
6.9340691644
 20
6.8277921209
 10
6.9311009587
 20
6.7965742982
 10
6.9272435232
 20
6.7654513402
 10
6.9225041913
 20
6.7344479142
 10
6.9168945494
 20
6.7035875874
 10
6.8970757117
 20
6.6196446421
 10
6.8710577856
 20
6.5373923773
 10
6.8344289421
 20
6.4464431179
 10
6.7908163526
 20
6.3586039626
 10
6.7408179702
 20
6.2742132309
 10
6.6850550677
 20
6.19349059
 10
6.6027726449
 20
6.0917852516
 10
6.5125807268
 20
5.9969820401
 10
6.4155810607
 20
5.9091168151
 10
6.3127901814
 20
5.8280730514
 10
6.2050688658
 20
5.7536740175
 10
6.0931486788
 20
5.6857302957
 10
5.9541639643
 20
5.6124544955
 10
5.8109272857
 20
5.547863535
 10
5.6642062873
 20
5.491628958
 10
5.5146457817
 20
5.4434666744
 10
5.3627971558
 20
5.4031377669
 10
5.1705006039
 20
5.3634182524
 10
4.9762084184
 20
5.3352852708
 10
4.7806588191
 20
5.3184924248
 10
4.5845303973
 20
5.3129613953
  0
LINE
  5
101
330
1F
100
AcDbEntity
  8
0
  6
Continuous
 62
     7
370
    15
100
AcDbLine
 10
4.5845304798
 20
5.2910351286
 30
0.0
 11
4.5845304798
 21
5.3129197425
 31
0.0
  0
LWPOLYLINE
  5
102
330
1F
100
AcDbEntity
  8
0
  6
Continuous
 62
     7
370
    15
100
AcDbPolyline
 90
       29
 70
   128
 43
0.0
 10
2.2314150765
 20
6.9160347568
 10
2.2317455127
 20
6.8904097981
 10
2.2328887661
 20
6.8590775653
 10
2.2349917952
 20
6.8277921209
 10
2.2379600009
 20
6.7965742982
 10
2.2418174363
 20
6.7654513402
 10
2.2465567682
 20
6.7344479142
 10
2.2521664101
 20
6.7035875874
 10
2.2719852478
 20
6.6196446421
 10
2.2980031739
 20
6.5373923773
 10
2.3346320175
 20
6.4464431179
 10
2.378244607
 20
6.3586039626
 10
2.4282429894
 20
6.2742132309
 10
2.4840058919
 20
6.19349059
 10
2.5662883147
 20
6.0917852516
 10
2.6564802328
 20
5.9969820401
 10
2.7534798989
 20
5.9091168151
 10
2.8562707781
 20
5.8280730514
 10
2.9639920937
 20
5.7536740175
 10
3.0759122808
 20
5.6857302957
 10
3.2148969952
 20
5.6124544955
 10
3.3581336739
 20
5.547863535
 10
3.5048546723
 20
5.491628958
 10
3.6544151779
 20
5.4434666744
 10
3.8062638037
 20
5.4031377669
 10
3.9985603556
 20
5.3634182524
 10
4.1928525411
 20
5.3352852708
 10
4.3884021405
 20
5.3184924248
 10
4.5845305623
 20
5.3129613953
  0
ARC
  5
103
330
1F
100
AcDbEntity
  8
0
  6
Continuous
 62
     7
370
    15
100
AcDbCircle
 10
2.1576557999
 20
7.035386466
 30
0.0
 40
0.1403041739497563
100
AcDbArc
 50
301.7160376977
 51
316.0455112409
  0
LWPOLYLINE
  5
104
330
1F
100
AcDbEntity
  8
0
  6
Continuous
 62
     7
370
    15
100
AcDbPolyline
 90
        3
 70
   128
 43
0.0
 10
2.2586595618
 20
6.9380031958
 10
2.2586683617
 20
6.9270140191
 10
2.2587890669
 20
6.9160347574
  0
LWPOLYLINE
  5
105
330
1F
100
AcDbEntity
  8
0
  6
Continuous
 62
     7
370
    15
100
AcDbPolyline
 90
       24
 70
   128
 43
0.0
 10
2.2587994802
 20
6.9160350051
 10
2.264637186
 20
6.8198957887
 10
2.2789895269
 20
6.724679147
 10
2.3015687461
 20
6.6310940431
 10
2.3319437952
 20
6.5397618599
 10
2.3695836004
 20
6.451195833
 10
2.4139186615
 20
6.3658027561
 10
2.4643670121
 20
6.2838899657
 10
2.5203114858
 20
6.205643103
 10
2.6024605901
 20
6.1071987869
 10
2.692071275
 20
6.0155157993
 10
2.7880397397
 20
5.9305270411
 10
2.8894600347
 20
5.8521481799
 10
2.9955438359
 20
5.7802203042
 10
3.1055956579
 20
5.7145344896
 10
3.2420614014
 20
5.643638402
 10
3.382562485
 20
5.5811201109
 10
3.5263919101
 20
5.5266785131
 10
3.6729526037
 20
5.4800594383
 10
3.8217316784
 20
5.4410383424
 10
4.0101227254
 20
5.4025547737
 10
4.2004900096
 20
5.375204103
 10
4.3921699819
 20
5.3588973047
 10
4.5845307698
 20
5.3535955126
  0
LINE
  5
106
330
1F
100
AcDbEntity
  8
0
  6
Continuous
 62
     7
370
    15
100
AcDbLine
 10
4.5845304798
 20
5.3535955126
 30
0.0
 11
4.5845304798
 21
5.3129613953
 31
0.0
  0
LWPOLYLINE
  5
107
330
1F
100
AcDbEntity
  8
0
  6
Continuous
 62
     7
370
    15
100
AcDbPolyline
 90
       24
 70
   128
 43
0.0
 10
6.9102614794
 20
6.9160350051
 10
6.9044237735
 20
6.8198957887
 10
6.8900714326
 20
6.724679147
 10
6.8674922135
 20
6.6310940431
 10
6.8371171644
 20
6.5397618599
 10
6.7994773592
 20
6.451195833
 10
6.755142298
 20
6.3658027561
 10
6.7046939475
 20
6.2838899657
 10
6.6487494737
 20
6.205643103
 10
6.5666003694
 20
6.1071987869
 10
6.4769896846
 20
6.0155157993
 10
6.3810212199
 20
5.9305270411
 10
6.2796009248
 20
5.8521481799
 10
6.1735171237
 20
5.7802203042
 10
6.0634653017
 20
5.7145344896
 10
5.9269995581
 20
5.643638402
 10
5.7864984745
 20
5.5811201109
 10
5.6426690494
 20
5.5266785131
 10
5.4961083558
 20
5.4800594383
 10
5.3473292812
 20
5.4410383424
 10
5.1589382342
 20
5.4025547737
 10
4.96857095
 20
5.375204103
 10
4.7768909776
 20
5.3588973047
 10
4.5845301897
 20
5.3535955126
  0
LWPOLYLINE
  5
108
330
1F
100
AcDbEntity
  8
0
  6
Continuous
 62
     7
370
    15
100
AcDbPolyline
 90
        3
 70
   128
 43
0.0
 10
6.9104013978
 20
6.9380031958
 10
6.9103839447
 20
6.9256918802
 10
6.9102614794
 20
6.9160350051
  0
ARC
  5
109
330
1F
100
AcDbEntity
  8
0
  6
Continuous
 62
     7
370
    15
100
AcDbCircle
 10
7.0114051597
 20
7.035386466
 30
0.0
 40
0.1403041739497199
100
AcDbArc
 50
223.9544887591
 51
238.2839623023
  0
LINE
  5
10A
330
1F
100
AcDbEntity
  8
0
  6
Continuous
 62
     7
370
    15
100
AcDbLine
 10
4.5845304798
 20
8.5110956902
 30
0.0
 11
4.5845304798
 21
8.5191075576
 31
0.0
  0
LWPOLYLINE
  5
10B
330
1F
100
AcDbEntity
  8
0
  6
Continuous
 62
     7
370
    15
100
AcDbPolyline
 90
       24
 70
   128
 43
0.0
 10
4.5845303999
 20
8.5110956902
 10
4.77783781
 20
8.5057201256
 10
4.9705164242
 20
8.4894365004
 10
5.1619339762
 20
8.4621798419
 10
5.3514037075
 20
8.4237322061
 10
5.501051772
 20
8.384667844
 10
5.6484883488
 20
8.3379793967
 10
5.7931967372
 20
8.2834429067
 10
5.9345567642
 20
8.2207637241
 10
6.0718303384
 20
8.1495993862
 10
6.1824911133
 20
8.0835876088
 10
6.2890958685
 20
8.0112217914
 10
6.3909128923
 20
7.9322748235
 10
6.4871044344
 20
7.8465685802
 10
6.5766956128
 20
7.7539987096
 10
6.6585175076
 20
7.6545069122
 10
6.7139596538
 20
7.5753758797
 10
6.763655173
 20
7.4925204735
 10
6.806993499
 20
7.406173671
 10
6.8434190649
 20
7.3166960113
 10
6.8723746904
 20
7.2245347493
 10
6.8933972076
 20
7.1302516118
 10
6.9061438603
 20
7.0345021363
 10
6.9104013978
 20
6.9380031958
  0
LWPOLYLINE
  5
10C
330
1F
100
AcDbEntity
  8
0
  6
Continuous
 62
     7
370
    15
100
AcDbPolyline
 90
       24
 70
   128
 43
0.0
 10
4.5845305597
 20
8.5110956902
 10
4.3912231495
 20
8.5057201256
 10
4.1985445354
 20
8.4894365004
 10
4.0071269833
 20
8.4621798419
 10
3.8176572521
 20
8.4237322061
 10
3.6680091875
 20
8.384667844
 10
3.5205726107
 20
8.3379793967
 10
3.3758642224
 20
8.2834429067
 10
3.2345041954
 20
8.2207637241
 10
3.0972306212
 20
8.1495993862
 10
2.9865698462
 20
8.0835876088
 10
2.8799650911
 20
8.0112217914
 10
2.7781480673
 20
7.9322748235
 10
2.6819565251
 20
7.8465685802
 10
2.5923653468
 20
7.7539987096
 10
2.510543452
 20
7.6545069122
 10
2.4551013058
 20
7.5753758797
 10
2.4054057865
 20
7.4925204735
 10
2.3620674605
 20
7.406173671
 10
2.3256418946
 20
7.3166960113
 10
2.2966862691
 20
7.2245347493
 10
2.275663752
 20
7.1302516118
 10
2.2629170993
 20
7.0345021363
 10
2.2586595618
 20
6.9380031958
  0
ARC
  5
10D
330
1F
100
AcDbEntity
  8
0
  6
Continuous
 62
     7
370
    15
100
AcDbCircle
 10
4.5848347161
 20
7.6082516982
 30
0.0
 40
0.3713084835225119
100
AcDbArc
 50
269.9530539685
 51
298.267832154
  0
ARC
  5
10E
330
1F
100
AcDbEntity
  8
0
  6
Continuous
 62
     7
370
    15
100
AcDbCircle
 10
4.5999538811
 20
7.5802899493
 30
0.0
 40
0.3395210232396592
100
AcDbArc
 50
298.2554128937
 51
327.7283025156
  0
ARC
  5
10F
330
1F
100
AcDbEntity
  8
0
  6
Continuous
 62
     7
370
    15
100
AcDbCircle
 10
4.6047016475
 20
7.5757716497
 30
0.0
 40
0.3330966676286339
100
AcDbArc
 50
327.9493938672
 51
0.1360922334
  0
LINE
  5
110
330
1F
100
AcDbEntity
  8
0
  6
Continuous
 62
     7
370
    15
100
AcDbLine
 10
4.9378119686
 20
7.576562546
 30
0.0
 11
4.9377973755
 21
7.5765628393
 31
0.0
  0
LWPOLYLINE
  5
111
330
1F
100
AcDbEntity
  8
0
  6
Continuous
 62
     7
370
    15
100
AcDbPolyline
 90
       15
 70
   128
 43
0.0
 10
4.9378119686
 20
7.576562546
 10
5.1180932127
 20
7.5679244925
 10
5.2920217734
 20
7.5538579283
 10
5.4595976509
 20
7.5343627802
 10
5.6208208085
 20
7.5094390848
 10
5.7756913194
 20
7.4790868054
 10
5.9242091104
 20
7.4433060154
 10
6.0663742547
 20
7.4020966414
 10
6.2021867525
 20
7.3554587202
 10
6.3376528276
 20
7.3007774719
 10
6.4661467432
 20
7.2401383624
 10
6.5876684994
 20
7.1735413734
 10
6.7022182427
 20
7.1009865232
 10
6.8097959733
 20
7.0224737936
 10
6.9104013978
 20
6.9380031958
  0
LINE
  5
112
330
1F
100
AcDbEntity
  8
0
  6
Continuous
 62
     7
370
    15
100
AcDbLine
 10
4.5845304798
 20
7.2369433393
 30
0.0
 11
4.5845304798
 21
5.3535180735
 31
0.0
  0
LWPOLYLINE
  5
113
330
1F
100
AcDbEntity
  8
0
  6
Continuous
 62
     7
370
    15
100
AcDbPolyline
 90
       15
 70
   128
 43
0.0
 10
4.2312489909
 20
7.576562546
 10
4.0509677469
 20
7.5679244925
 10
3.8770391861
 20
7.5538579283
 10
3.7094633086
 20
7.5343627802
 10
3.5482401511
 20
7.5094390848
 10
3.3933696402
 20
7.4790868054
 10
3.2448518492
 20
7.4433060154
 10
3.1026867048
 20
7.4020966414
 10
2.9668742071
 20
7.3554587202
 10
2.831408132
 20
7.3007774719
 10
2.7029142164
 20
7.2401383624
 10
2.5813924602
 20
7.1735413734
 10
2.4668427168
 20
7.1009865232
 10
2.3592649862
 20
7.0224737936
 10
2.2586595618
 20
6.9380031958
  0
LINE
  5
114
330
1F
100
AcDbEntity
  8
0
  6
Continuous
 62
     7
370
    15
100
AcDbLine
 10
4.2312635841
 20
7.5765628393
 30
0.0
 11
4.2312489909
 21
7.576562546
 31
0.0
  0
ARC
  5
115
330
1F
100
AcDbEntity
  8
0
  6
Continuous
 62
     7
370
    15
100
AcDbCircle
 10
4.5643071
 20
7.5757535775
 30
0.0
 40
0.3330444990915211
100
AcDbArc
 50
179.8607773555
 51
211.8196216984
  0
ARC
  5
116
330
1F
100
AcDbEntity
  8
0
  6
Continuous
 62
     7
370
    15
100
AcDbCircle
 10
4.5689326341
 20
7.5801124412
 30
0.0
 40
0.3392754270969052
100
AcDbArc
 50
212.0332483241
 51
241.4467551905
  0
ARC
  5
117
330
1F
100
AcDbEntity
  8
0
  6
Continuous
 62
     7
370
    15
100
AcDbCircle
 10
4.5842127004
 20
7.6081464459
 30
0.0
 40
0.3712032425617966
100
AcDbArc
 50
241.4433529059
 51
270.0490497236
  0
LINE
  5
118
330
1F
100
AcDbEntity
  8
0
  6
Continuous
 62
     7
370
    15
100
AcDbLine
 10
4.5845304798
 20
8.5111363164
 30
0.0
 11
4.5845304798
 21
7.9274826921
 31
0.0
  0
ARC
  5
119
330
1F
100
AcDbEntity
  8
0
  6
Continuous
 62
     7
370
    15
100
AcDbCircle
 10
4.5877734245
 20
7.5763628617
 30
0.0
 40
0.3500386010793492
100
AcDbArc
 50
0.0326851571
 51
31.2147796437
  0
ARC
  5
11A
330
1F
100
AcDbEntity
  8
0
  6
Continuous
 62
     7
370
    15
100
AcDbCircle
 10
4.5867680993
 20
7.5758779325
 30
0.0
 40
0.3511497154610845
100
AcDbArc
 50
31.1974381521
 51
59.8554694345
  0
ARC
  5
11B
330
1F
100
AcDbEntity
  8
0
  6
Continuous
 62
     7
370
    15
100
AcDbCircle
 10
4.5846845501
 20
7.5715044476
 30
0.0
 40
0.355978277919017
100
AcDbArc
 50
59.9189681323
 51
90.0247980923
  0
ARC
  5
11C
330
1F
100
AcDbEntity
  8
0
  6
Continuous
 62
     7
370
    15
100
AcDbCircle
 10
4.5811561348
 20
7.5763995787
 30
0.0
 40
0.3499071817972175
100
AcDbArc
 50
148.7718379489
 51
179.9733148131
  0
ARC
  5
11D
330
1F
100
AcDbEntity
  8
0
  6
Continuous
 62
     7
370
    15
100
AcDbCircle
 10
4.5843747489
 20
7.5715104744
 30
0.0
 40
0.3559722517612278
100
AcDbArc
 50
89.9749342263
 51
120.0740624844
  0
ARC
  5
11E
330
1F
100
AcDbEntity
  8
0
  6
Continuous
 62
     7
370
    15
100
AcDbCircle
 10
4.5822936442
 20
7.5758771492
 30
0.0
 40
0.3511507582770373
100
AcDbArc
 50
120.1372534606
 51
148.7951713534
  0
ARC
  5
11F
330
1F
100
AcDbEntity
  8
0
  6
Continuous
 62
     7
370
    15
100
AcDbCircle
 10
1.4568150783
 20
5.3067360218
 30
0.0
 40
3.848915976779854
100
AcDbArc
 50
30.8637666349
 51
32.2515396167
  0
ARC
  5
120
330
1F
100
AcDbEntity
  8
0
  6
Continuous
 62
     7
370
    15
100
AcDbCircle
 10
4.5799609029
 20
7.5782794335
 30
0.0
 40
0.2544886569614336
100
AcDbArc
 50
301.2269333661
 51
329.6767349248
  0
ARC
  5
121
330
1F
100
AcDbEntity
  8
0
  6
Continuous
 62
     7
370
    15
100
AcDbCircle
 10
1.4413440988
 20
1.5701076234
 30
0.0
 40
6.771175167086146
100
AcDbArc
 50
59.4110595764
 51
60.2663709011
  0
ARC
  5
122
330
1F
100
AcDbEntity
  8
0
  6
Continuous
 62
     7
370
    15
100
AcDbCircle
 10
7.6910101994
 20
5.2956448396
 30
0.0
 40
3.83826299006595
100
AcDbArc
 50
147.4396083709
 51
148.8325727487
  0
ARC
  5
123
330
1F
100
AcDbEntity
  8
0
  6
Continuous
 62
     7
370
    15
100
AcDbCircle
 10
4.5846465439
 20
7.5710829105
 30
0.0
 40
0.2460274263993765
100
AcDbArc
 50
238.4808751384
 51
269.9729705567
  0
LINE
  5
124
330
1F
100
AcDbEntity
  8
0
  6
Continuous
 62
     7
370
    15
100
AcDbLine
 10
4.5845304798
 20
7.2369433393
 30
0.0
 11
4.5845304798
 21
7.3250555114
 31
0.0
  0
ARC
  5
125
330
1F
100
AcDbEntity
  8
0
  6
Continuous
 62
     7
370
    15
100
AcDbCircle
 10
4.5844245532
 20
7.5710363998
 30
0.0
 40
0.2459809111622968
100
AcDbArc
 50
270.0246732419
 51
301.2125010378
  0
ARC
  5
126
330
1F
100
AcDbEntity
  8
0
  6
Continuous
 62
     7
370
    15
100
AcDbCircle
 10
4.5893998856
 20
7.5785696497
 30
0.0
 40
0.2548946192281771
100
AcDbArc
 50
210.1263891062
 51
238.449828277
  0
ARC
  5
127
330
1F
100
AcDbEntity
  8
0
  6
Continuous
 62
     7
370
    15
100
AcDbCircle
 10
7.7437067958
 20
1.4914139245
 30
0.0
 40
6.848459670793753
100
AcDbArc
 50
119.5233374254
 51
120.3693517962
  0
ARC
  5
128
330
1F
100
AcDbEntity
  8
0
  6
Continuous
 62
     7
370
    15
100
AcDbCircle
 10
-1.4671771963
 20
18.495048388
 30
0.0
 40
12.47663688154888
100
AcDbArc
 50
300.1536099573
 51
300.6170178674
  0
ARC
  5
129
330
1F
100
AcDbEntity
  8
0
  6
Continuous
 62
     7
370
    15
100
AcDbCircle
 10
4.5841040276
 20
7.5795364163
 30
0.0
 40
0.250651838419654
100
AcDbArc
 50
30.4935788697
 51
59.2007994835
  0
ARC
  5
12A
330
1F
100
AcDbEntity
  8
0
  6
Continuous
 62
     7
370
    15
100
AcDbCircle
 10
-8.7268729516
 20
15.8911266136
 30
0.0
 40
15.6896516413308
100
AcDbArc
 50
328.9338542957
 51
329.2942772201
  0
ARC
  5
12B
330
1F
100
AcDbEntity
  8
0
  6
Continuous
 62
     7
370
    15
100
AcDbCircle
 10
17.9088362912
 20
15.8964866635
 30
0.0
 40
15.70343736315954
100
AcDbArc
 50
210.6985011573
 51
211.0586058058
  0
ARC
  5
12C
330
1F
100
AcDbEntity
  8
0
  6
Continuous
 62
     7
370
    15
100
AcDbCircle
 10
4.5849506578
 20
7.5795426022
 30
0.0
 40
0.2506432640577415
100
AcDbArc
 50
120.7913395814
 51
149.499573413
  0
ARC
  5
12D
330
1F
100
AcDbEntity
  8
0
  6
Continuous
 62
     7
370
    15
100
AcDbCircle
 10
10.6421408123
 20
18.5019531628
 30
0.0
 40
12.48554034279978
100
AcDbArc
 50
239.3758109581
 51
239.8388857367
  0
LINE
  5
12E
330
1F
100
AcDbEntity
  8
0
  6
Continuous
 62
     7
370
    15
100
AcDbLine
 10
4.5845304798
 20
7.8300705308
 30
0.0
 11
4.5845304798
 21
7.9274826921
 31
0.0
  0
ARC
  5
12F
330
1F
100
AcDbEntity
  8
0
  6
Continuous
 62
     7
370
    15
100
AcDbCircle
 10
4.5845434226
 20
7.5802032988
 30
0.0
 40
0.2498672323665043
100
AcDbArc
 50
90.0029678631
 51
120.7886771313
  0
ARC
  5
130
330
1F
100
AcDbEntity
  8
0
  6
Continuous
 62
     7
370
    15
100
AcDbCircle
 10
4.584517355
 20
7.580202306
 30
0.0
 40
0.2498682250946854
100
AcDbArc
 50
59.2040277463
 51
89.9969904293
  0
ARC
  5
131
330
1F
100
AcDbEntity
  8
0
  6
Continuous
 62
     7
370
    15
100
AcDbCircle
 10
4.5858102079
 20
7.5790131975
 30
0.0
 40
0.2516525716021494
100
AcDbArc
 50
149.4950452776
 51
180.332629619
  0
ARC
  5
132
330
1F
100
AcDbEntity
  8
0
  6
Continuous
 62
     7
370
    15
100
AcDbCircle
 10
4.1596272866
 20
20.3780052968
 30
0.0
 40
12.80164289266055
100
AcDbArc
 50
270.3206212643
 51
270.7811813942
  0
ARC
  5
133
330
1F
100
AcDbEntity
  8
0
  6
Continuous
 62
     7
370
    15
100
AcDbCircle
 10
5.009433673
 20
20.3780052968
 30
0.0
 40
12.80164289265993
100
AcDbArc
 50
269.2188186058
 51
269.6793787357
  0
ARC
  5
134
330
1F
100
AcDbEntity
  8
0
  6
Continuous
 62
     7
370
    15
100
AcDbCircle
 10
4.5832503355
 20
7.5790131369
 30
0.0
 40
0.2516529874562891
100
AcDbArc
 50
359.6673847399
 51
30.4976095753
  0
ARC
  5
135
330
1F
100
AcDbEntity
  8
0
  6
Continuous
 62
     7
370
    15
100
AcDbCircle
 10
4.5777646409
 20
7.5797839675
 30
0.0
 40
0.2571441261974479
100
AcDbArc
 50
329.6344322317
 51
359.5027298287
  0
ARC
  5
136
330
1F
100
AcDbEntity
  8
0
  6
Continuous
 62
     7
370
    15
100
AcDbCircle
 10
4.5913080071
 20
7.5797866583
 30
0.0
 40
0.2571558376206562
100
AcDbArc
 50
180.4978470621
 51
210.1475359954
  0
CIRCLE
  5
137
330
1F
100
AcDbEntity
  8
0
  6
Continuous
 62
     7
370
    15
100
AcDbCircle
 10
4.5845304798
 20
7.5783820724
 30
0.0
 40
0.2184392706633034
  0
CIRCLE
  5
138
330
1F
100
AcDbEntity
  8
0
  6
Continuous
 62
     7
370
    15
100
AcDbCircle
 10
4.5845304798
 20
7.5783820724
 30
0.0
 40
0.2037015006638185
  0
INSERT
  5
144
330
1F
100
AcDbEntity
  8
0
  6
Continuous
 62
     7
370
     0
100
AcDbBlockReference
  2
SW_CENTERMARKSYMBOL_1
 10
4.5845304798
 20
7.5783820724
 30
0.0
  0
INSERT
  5
150
330
1F
100
AcDbEntity
  8
0
  6
Continuous
 62
     7
370
     0
100
AcDbBlockReference
  2
SW_CENTERMARKSYMBOL_2
 10
4.5845304798
 20
8.6774203277
 30
0.0
  0
INSERT
  5
15C
330
1F
100
AcDbEntity
  8
0
  6
Continuous
 62
     7
370
     0
100
AcDbBlockReference
  2
SW_CENTERMARKSYMBOL_3
 10
5.7095304798
 20
8.525975256
 30
0.0
  0
INSERT
  5
168
330
1F
100
AcDbEntity
  8
0
  6
Continuous
 62
     7
370
     0
100
AcDbBlockReference
  2
SW_CENTERMARKSYMBOL_4
 10
6.9595304798
 20
7.6471382827
 30
0.0
  0
INSERT
  5
174
330
1F
100
AcDbEntity
  8
0
  6
Continuous
 62
     7
370
     0
100
AcDbBlockReference
  2
SW_CENTERMARKSYMBOL_5
 10
6.7720304798
 20
5.8462058949
 30
0.0
  0
INSERT
  5
180
330
1F
100
AcDbEntity
  8
0
  6
Continuous
 62
     7
370
     0
100
AcDbBlockReference
  2
SW_CENTERMARKSYMBOL_6
 10
5.5845304798
 20
5.1619947006
 30
0.0
  0
INSERT
  5
18C
330
1F
100
AcDbEntity
  8
0
  6
Continuous
 62
     7
370
     0
100
AcDbBlockReference
  2
SW_CENTERMARKSYMBOL_7
 10
3.5845304798
 20
5.1619947006
 30
0.0
  0
INSERT
  5
198
330
1F
100
AcDbEntity
  8
0
  6
Continuous
 62
     7
370
     0
100
AcDbBlockReference
  2
SW_CENTERMARKSYMBOL_8
 10
2.3970304798
 20
5.8462058949
 30
0.0
  0
INSERT
  5
1A4
330
1F
100
AcDbEntity
  8
0
  6
Continuous
 62
     7
370
     0
100
AcDbBlockReference
  2
SW_CENTERMARKSYMBOL_9
 10
2.2095304798
 20
7.6471382827
 30
0.0
  0
INSERT
  5
1B0
330
1F
100
AcDbEntity
  8
0
  6
Continuous
 62
     7
370
     0
100
AcDbBlockReference
  2
SW_CENTERMARKSYMBOL_10
 10
3.4595304798
 20
8.525975256
 30
0.0
  0
LINE
  5
1B1
330
1F
100
AcDbEntity
  8
0
  6
Continuous
 62
     7
370
    15
100
AcDbLine
 10
10.4845250206
 20
2.9317323407
 30
0.0
 11
10.4845250206
 21
2.8417323521
 31
0.0
  0
LINE
  5
1B2
330
1F
100
AcDbEntity
  8
0
  6
Continuous
 62
     7
370
    15
100
AcDbLine
 10
14.4376501138
 20
2.8417323521
 30
0.0
 11
14.4376501138
 21
2.9317323407
 31
0.0
  0
LINE
  5
1B3
330
1F
100
AcDbEntity
  8
0
  6
Continuous
 62
     7
370
    15
100
AcDbLine
 10
12.8392992964
 20
1.692079533
 30
0.0
 11
12.8392992964
 21
1.5567323299
 31
0.0
  0
LINE
  5
1B4
330
1F
100
AcDbEntity
  8
0
  6
Continuous
 62
     7
370
    15
100
AcDbLine
 10
12.4610875581
 20
2.9317323407
 30
0.0
 11
14.4376501138
 21
2.9317323407
 31
0.0
  0
LINE
  5
1B5
330
1F
100
AcDbEntity
  8
0
  6
Continuous
 62
     7
370
    15
100
AcDbLine
 10
10.4845250206
 20
2.9317323407
 30
0.0
 11
12.4610875581
 21
2.9317323407
 31
0.0
  0
LINE
  5
1B6
330
1F
100
AcDbEntity
  8
0
  6
Continuous
 62
     7
370
    15
100
AcDbLine
 10
14.4361648376
 20
2.8417323521
 30
0.0
 11
14.4368975758
 21
2.8417323521
 31
0.0
  0
LINE
  5
1B7
330
1F
100
AcDbEntity
  8
0
  6
Continuous
 62
     7
370
    15
100
AcDbLine
 10
14.4349384251
 20
2.8417323521
 30
0.0
 11
14.4363208892
 21
2.8417323521
 31
0.0
  0
LINE
  5
1B8
330
1F
100
AcDbEntity
  8
0
  6
Continuous
 62
     7
370
    15
100
AcDbLine
 10
14.4347184277
 20
2.8417323521
 30
0.0
 11
14.4349384251
 21
2.8417323521
 31
0.0
  0
LINE
  5
1B9
330
1F
100
AcDbEntity
  8
0
  6
Continuous
 62
     7
370
    15
100
AcDbLine
 10
14.4347184277
 20
2.8417323521
 30
0.0
 11
14.4345226299
 21
2.8342580301
 31
0.0
  0
ARC
  5
1BA
330
1F
100
AcDbEntity
  8
0
  6
Continuous
 62
     7
370
    15
100
AcDbCircle
 10
14.3977250331
 20
2.8338288406
 30
0.0
 40
0.0368000996590559
100
AcDbArc
 50
0.6682402021
 51
12.4019609142
  0
LINE
  5
1BB
330
1F
100
AcDbEntity
  8
0
  6
Continuous
 62
     7
370
    15
100
AcDbLine
 10
14.4336663998
 20
2.8417323521
 30
0.0
 11
10.4846703656
 21
2.8417323521
 31
0.0
  0
LINE
  5
1BC
330
1F
100
AcDbEntity
  8
0
  6
Continuous
 62
     7
370
    15
100
AcDbLine
 10
12.8885134796
 20
2.4667323475
 30
0.0
 11
12.8574331369
 21
2.4583324412
 31
0.0
  0
LINE
  5
1BD
330
1F
100
AcDbEntity
  8
0
  6
Continuous
 62
     7
370
    15
100
AcDbLine
 10
12.8625222465
 20
2.4667323475
 30
0.0
 11
12.8574331369
 21
2.4583324412
 31
0.0
  0
LWPOLYLINE
  5
1BE
330
1F
100
AcDbEntity
  8
0
  6
Continuous
 62
     7
370
    15
100
AcDbPolyline
 90
       13
 70
   128
 43
0.0
 10
12.8625222465
 20
2.4667323475
 10
12.8718273323
 20
2.48454369
 10
12.8799882114
 20
2.5051492478
 10
12.8900504185
 20
2.5405101635
 10
12.8977030667
 20
2.5792453681
 10
12.9043776063
 20
2.6288806608
 10
12.9093753619
 20
2.6799207678
 10
12.9142320625
 20
2.7310943744
 10
12.9204836202
 20
2.7811301655
 10
12.9242208271
 20
2.802182199
 10
12.9292339092
 20
2.8215609868
 10
12.9335243363
 20
2.8327287728
 10
12.9386623036
 20
2.8417323521
  0
LWPOLYLINE
  5
1BF
330
1F
100
AcDbEntity
  8
0
  6
Continuous
 62
     7
370
    15
100
AcDbPolyline
 90
       11
 70
   128
 43
0.0
 10
12.9172271812
 20
2.4736028314
 10
12.9244906173
 20
2.4961039973
 10
12.9308544838
 20
2.5220259679
 10
12.9393398958
 20
2.5697042113
 10
12.9459128332
 20
2.6210582822
 10
12.9516782332
 20
2.6783473964
 10
12.9571233903
 20
2.7360033427
 10
12.9632434629
 20
2.7890208419
 10
12.9661047866
 20
2.8069794819
 10
12.9695826897
 20
2.8234649548
 10
12.9757970679
 20
2.8417323521
  0
LINE
  5
1C0
330
1F
100
AcDbEntity
  8
0
  6
Continuous
 62
     7
370
    15
100
AcDbLine
 10
12.9172271812
 20
2.4736028314
 30
0.0
 11
12.8885134796
 21
2.4667323475
 31
0.0
  0
LWPOLYLINE
  5
1C1
330
1F
100
AcDbEntity
  8
0
  6
Continuous
 62
     7
370
    15
100
AcDbPolyline
 90
        3
 70
   128
 43
0.0
 10
12.8870160669
 20
2.5673581996
 10
12.8733211517
 20
2.5114606541
 10
12.8574331369
 20
2.4583324412
  0
ARC
  5
1C2
330
1F
100
AcDbEntity
  8
0
  6
Continuous
 62
     7
370
    15
100
AcDbCircle
 10
12.3609164284
 20
2.677546202
 30
0.0
 40
0.5375149476171108
100
AcDbArc
 50
348.1716489735
 51
359.5966752079
  0
LWPOLYLINE
  5
1C3
330
1F
100
AcDbEntity
  8
0
  6
Continuous
 62
     7
370
    15
100
AcDbPolyline
 90
        3
 70
   128
 43
0.0
 10
12.8984177285
 20
2.6737589415
 10
12.8997648463
 20
2.757759258
 10
12.9011115974
 20
2.8417323521
  0
LINE
  5
1C4
330
1F
100
AcDbEntity
  8
0
  6
Continuous
 62
     7
370
    15
100
AcDbLine
 10
12.5626497447
 20
2.8417323521
 30
0.0
 11
12.5626497476
 21
2.6737456317
 31
0.0
  0
LWPOLYLINE
  5
1C5
330
1F
100
AcDbEntity
  8
0
  6
Continuous
 62
     7
370
    15
100
AcDbPolyline
 90
        7
 70
   128
 43
0.0
 10
12.5622054056
 20
2.6737457279
 10
12.5473521869
 20
2.6737476139
 10
12.5266636534
 20
2.6737510743
 10
12.4348399638
 20
2.6737697535
 10
12.3440269929
 20
2.6737656606
 10
12.2546234357
 20
2.6737604127
 10
12.2262363936
 20
2.6737642306
  0
LWPOLYLINE
  5
1C6
330
1F
100
AcDbEntity
  8
0
  6
Continuous
 62
     7
370
    15
100
AcDbPolyline
 90
        3
 70
   128
 43
0.0
 10
12.2262363203
 20
2.6737599017
 10
12.2248815026
 20
2.7577603855
 10
12.2235270149
 20
2.8417323521
  0
LWPOLYLINE
  5
1C7
330
1F
100
AcDbEntity
  8
0
  6
Continuous
 62
     7
370
    15
100
AcDbPolyline
 90
        6
 70
   128
 43
0.0
 10
12.5626497622
 20
2.6737457462
 10
12.6050080576
 20
2.6737531551
 10
12.6966226213
 20
2.673773129
 10
12.7873542665
 20
2.6737687681
 10
12.8766053471
 20
2.6737609994
 10
12.8984179852
 20
2.6737624798
  0
LWPOLYLINE
  5
1C8
330
1F
100
AcDbEntity
  8
0
  6
Continuous
 62
     7
370
    15
100
AcDbPolyline
 90
       10
 70
   128
 43
0.0
 10
12.2362858408
 20
2.591732346
 10
12.228910316
 20
2.6150429742
 10
12.2234779921
 20
2.6412784964
 10
12.2169442143
 20
2.6942936349
 10
12.2117101447
 20
2.7484039119
 10
12.2084713055
 20
2.7733200174
 10
12.2040237635
 20
2.7970364126
 10
12.1993584974
 20
2.8140192722
 10
12.1935334414
 20
2.8288619324
 10
12.1859978684
 20
2.8417323521
  0
LINE
  5
1C9
330
1F
100
AcDbEntity
  8
0
  6
Continuous
 62
     7
370
    15
100
AcDbLine
 10
12.2362858408
 20
2.591732346
 30
0.0
 11
12.2381625658
 21
2.586997854
 31
0.0
  0
LINE
  5
1CA
330
1F
100
AcDbEntity
  8
0
  6
Continuous
 62
     7
370
    15
100
AcDbLine
 10
12.2133396659
 20
2.591732346
 30
0.0
 11
12.2381625658
 21
2.586997854
 31
0.0
  0
LINE
  5
1CB
330
1F
100
AcDbEntity
  8
0
  6
Continuous
 62
     7
370
    15
100
AcDbLine
 10
12.1897834747
 20
2.5949110113
 30
0.0
 11
12.2133396659
 21
2.591732346
 31
0.0
  0
LWPOLYLINE
  5
1CC
330
1F
100
AcDbEntity
  8
0
  6
Continuous
 62
     7
370
    15
100
AcDbPolyline
 90
       11
 70
   128
 43
0.0
 10
12.1897834747
 20
2.5949110113
 10
12.1877549148
 20
2.6029696053
 10
12.1827758223
 20
2.6284938021
 10
12.1788769907
 20
2.6563092885
 10
12.1751971299
 20
2.6907723189
 10
12.1719193877
 20
2.7257101841
 10
12.1665994092
 20
2.7744957297
 10
12.1631990918
 20
2.7965443241
 10
12.1589442309
 20
2.8165910242
 10
12.1548085354
 20
2.8304500391
 10
12.150142976
 20
2.8417323521
  0
ARC
  5
1CD
330
1F
100
AcDbEntity
  8
0
  6
Continuous
 62
     7
370
    15
100
AcDbCircle
 10
12.5896144251
 20
2.679508124
 30
0.0
 40
0.3634233887231563
100
AcDbArc
 50
180.9055954061
 51
194.7470601669
  0
ARC
  5
1CE
330
1F
100
AcDbEntity
  8
0
  6
Continuous
 62
     7
370
    15
100
AcDbCircle
 10
11.0053961575
 20
2.6885684822
 30
0.0
 40
0.1349993463736301
100
AcDbArc
 50
186.2377943348
 51
228.2179346474
  0
LINE
  5
1CF
330
1F
100
AcDbEntity
  8
0
  6
Continuous
 62
     7
370
    15
100
AcDbLine
 10
10.9714935018
 20
2.590302995
 30
0.0
 11
10.9774108468
 21
2.591732346
 31
0.0
  0
LINE
  5
1D0
330
1F
100
AcDbEntity
  8
0
  6
Continuous
 62
     7
370
    15
100
AcDbLine
 10
10.9774108468
 20
2.591732346
 30
0.0
 11
10.9797202334
 21
2.5920823207
 31
0.0
  0
ARC
  5
1D1
330
1F
100
AcDbEntity
  8
0
  6
Continuous
 62
     7
370
    15
100
AcDbCircle
 10
11.0755285399
 20
2.6874783669
 30
0.0
 40
0.1352022086121308
100
AcDbArc
 50
185.7671274904
 51
224.8764633957
  0
LINE
  5
1D2
330
1F
100
AcDbEntity
  8
0
  6
Continuous
 62
     7
370
    15
100
AcDbLine
 10
11.0008929355
 20
2.5923339978
 30
0.0
 11
11.0073118747
 21
2.591732346
 31
0.0
  0
LINE
  5
1D3
330
1F
100
AcDbEntity
  8
0
  6
Continuous
 62
     7
370
    15
100
AcDbLine
 10
11.0073118747
 20
2.591732346
 30
0.0
 11
11.0145800041
 21
2.5908168494
 31
0.0
  0
ARC
  5
1D4
330
1F
100
AcDbEntity
  8
0
  6
Continuous
 62
     7
370
    15
100
AcDbCircle
 10
11.1119075668
 20
2.6884833352
 30
0.0
 40
0.1378818222113433
100
AcDbArc
 50
186.0704089882
 51
225.0995868401
  0
ARC
  5
1D5
330
1F
100
AcDbEntity
  8
0
  6
Continuous
 62
     7
370
    15
100
AcDbCircle
 10
11.3903039668
 20
2.5649114746
 30
0.0
 40
0.0268668922308527
100
AcDbArc
 50
93.3540420911
 51
138.0898487052
  0
LINE
  5
1D6
330
1F
100
AcDbEntity
  8
0
  6
Continuous
 62
     7
370
    15
100
AcDbLine
 10
11.3887321018
 20
2.591732346
 30
0.0
 11
11.3909133766
 21
2.5921908161
 31
0.0
  0
ARC
  5
1D7
330
1F
100
AcDbEntity
  8
0
  6
Continuous
 62
     7
370
    15
100
AcDbCircle
 10
11.5148247023
 20
2.6842147406
 30
0.0
 40
0.1543451304659364
100
AcDbArc
 50
183.8151295013
 51
216.5997772937
  0
LINE
  5
1D8
330
1F
100
AcDbEntity
  8
0
  6
Continuous
 62
     7
370
    15
100
AcDbLine
 10
11.4483999592
 20
2.5938505594
 30
0.0
 11
11.4646602647
 21
2.591732346
 31
0.0
  0
LINE
  5
1D9
330
1F
100
AcDbEntity
  8
0
  6
Continuous
 62
     7
370
    15
100
AcDbLine
 10
11.4646602647
 20
2.591732346
 30
0.0
 11
11.4824114196
 21
2.5885068578
 31
0.0
  0
ARC
  5
1DA
330
1F
100
AcDbEntity
  8
0
  6
Continuous
 62
     7
370
    15
100
AcDbCircle
 10
11.6073325549
 20
2.6845376731
 30
0.0
 40
0.1575665177813027
100
AcDbArc
 50
183.8569320418
 51
217.5506169261
  0
ARC
  5
1DB
330
1F
100
AcDbEntity
  8
0
  6
Continuous
 62
     7
370
    15
100
AcDbCircle
 10
12.0795958954
 20
2.5634468556
 30
0.0
 40
0.0288878464547622
100
AcDbArc
 50
101.7209883265
 51
149.583323982
  0
LINE
  5
1DC
330
1F
100
AcDbEntity
  8
0
  6
Continuous
 62
     7
370
    15
100
AcDbLine
 10
12.0737274454
 20
2.591732346
 30
0.0
 11
12.0938553062
 21
2.5985375503
 31
0.0
  0
ARC
  5
1DD
330
1F
100
AcDbEntity
  8
0
  6
Continuous
 62
     7
370
    15
100
AcDbCircle
 10
12.43409728
 20
2.6793894423
 30
0.0
 40
0.3497164983456519
100
AcDbArc
 50
180.9134566758
 51
193.3672995527
  0
ARC
  5
1DE
330
1F
100
AcDbEntity
  8
0
  6
Continuous
 62
     7
370
    15
100
AcDbCircle
 10
12.8350650067
 20
2.6639634605
 30
0.0
 40
0.2725052108581556
100
AcDbArc
 50
177.942829025
 51
203.0966931053
  0
LINE
  5
1DF
330
1F
100
AcDbEntity
  8
0
  6
Continuous
 62
     7
370
    15
100
AcDbLine
 10
12.5841336148
 20
2.5570825262
 30
0.0
 11
12.5607590758
 21
2.5565499124
 31
0.0
  0
ARC
  5
1E0
330
1F
100
AcDbEntity
  8
0
  6
Continuous
 62
     7
370
    15
100
AcDbCircle
 10
11.6117234151
 20
51.1242556872
 30
0.0
 40
48.57696636628248
100
AcDbArc
 50
269.2661505751
 51
271.1188274162
  0
ARC
  5
1E1
330
1F
100
AcDbEntity
  8
0
  6
Continuous
 62
     7
370
    15
100
AcDbCircle
 10
11.0097027985
 20
2.6890619955
 30
0.0
 40
0.1392427073043791
100
AcDbArc
 50
224.2045891207
 51
261.8962029448
  0
ARC
  5
1E2
330
1F
100
AcDbEntity
  8
0
  6
Continuous
 62
     7
370
    15
100
AcDbCircle
 10
12.0528454671
 20
22.5807675833
 30
0.0
 40
20.03078619899601
100
AcDbArc
 50
271.5209659507
 51
272.3867416523
  0
LINE
  5
1E3
330
1F
100
AcDbEntity
  8
0
  6
Continuous
 62
     7
370
    15
100
AcDbLine
 10
13.0344587669
 20
2.4667323475
 30
0.0
 11
13.0080299956
 21
2.4630740281
 31
0.0
  0
LINE
  5
1E4
330
1F
100
AcDbEntity
  8
0
  6
Continuous
 62
     7
370
    15
100
AcDbLine
 10
13.0095446047
 20
2.4667323475
 30
0.0
 11
13.0080299956
 21
2.4630740281
 31
0.0
  0
LWPOLYLINE
  5
1E5
330
1F
100
AcDbEntity
  8
0
  6
Continuous
 62
     7
370
    15
100
AcDbPolyline
 90
       10
 70
   128
 43
0.0
 10
13.0095446047
 20
2.4667323475
 10
13.0188832769
 20
2.4922851073
 10
13.0315862601
 20
2.5410631821
 10
13.0407420043
 20
2.5943385596
 10
13.0476255048
 20
2.6573131942
 10
13.0532810528
 20
2.7212107227
 10
13.0609052114
 20
2.783526387
 10
13.0646543714
 20
2.8035246418
 10
13.0696490104
 20
2.8218284854
 10
13.0792770525
 20
2.8417323521
  0
LWPOLYLINE
  5
1E6
330
1F
100
AcDbEntity
  8
0
  6
Continuous
 62
     7
370
    15
100
AcDbPolyline
 90
       10
 70
   128
 43
0.0
 10
13.060044618
 20
2.4684321945
 10
13.0708766696
 20
2.5134693317
 10
13.0795165198
 20
2.5643079119
 10
13.0859730052
 20
2.6164952072
 10
13.091236371
 20
2.6702523424
 10
13.0952134484
 20
2.7152427646
 10
13.0995499283
 20
2.7598443297
 10
13.1053104884
 20
2.8029623833
 10
13.1112857661
 20
2.8296149654
 10
13.115906006
 20
2.8417323521
  0
LINE
  5
1E7
330
1F
100
AcDbEntity
  8
0
  6
Continuous
 62
     7
370
    15
100
AcDbLine
 10
13.060044618
 20
2.4684321945
 30
0.0
 11
13.0344587669
 21
2.4667323475
 31
0.0
  0
LWPOLYLINE
  5
1E8
330
1F
100
AcDbEntity
  8
0
  6
Continuous
 62
     7
370
    15
100
AcDbPolyline
 90
        3
 70
   128
 43
0.0
 10
13.0313572428
 20
2.5732873007
 10
13.0206930126
 20
2.5171841171
 10
13.0080299956
 20
2.4630740281
  0
ARC
  5
1E9
330
1F
100
AcDbEntity
  8
0
  6
Continuous
 62
     7
370
    15
100
AcDbCircle
 10
12.3697249808
 20
2.6810717697
 30
0.0
 40
0.67035213911799
100
AcDbArc
 50
350.747619752
 51
359.3790757173
  0
LWPOLYLINE
  5
1EA
330
1F
100
AcDbEntity
  8
0
  6
Continuous
 62
     7
370
    15
100
AcDbPolyline
 90
        3
 70
   128
 43
0.0
 10
13.0400372792
 20
2.6738002712
 10
13.0415378085
 20
2.757784796
 10
13.0430375678
 20
2.8417323521
  0
LWPOLYLINE
  5
1EB
330
1F
100
AcDbEntity
  8
0
  6
Continuous
 62
     7
370
    15
100
AcDbPolyline
 90
        3
 70
   128
 43
0.0
 10
12.0844241618
 20
2.6738057597
 10
12.0831295501
 20
2.7577702945
 10
12.0818352684
 20
2.8417323521
  0
LWPOLYLINE
  5
1EC
330
1F
100
AcDbEntity
  8
0
  6
Continuous
 62
     7
370
    15
100
AcDbPolyline
 90
       10
 70
   128
 43
0.0
 10
12.0456432665
 20
2.8417323521
 10
12.0526296158
 20
2.8300075692
 10
12.0586015934
 20
2.8156099822
 10
12.0644841788
 20
2.7945321724
 10
12.0688431351
 20
2.7713554034
 10
12.0744623469
 20
2.7252537443
 10
12.079131683
 20
2.6783761473
 10
12.0838953613
 20
2.6423338394
 10
12.0908864038
 20
2.6086944846
 10
12.0938553062
 20
2.5985375503
  0
LINE
  5
1ED
330
1F
100
AcDbEntity
  8
0
  6
Continuous
 62
     7
370
    15
100
AcDbLine
 10
12.0510369808
 20
2.591732346
 30
0.0
 11
12.0546839887
 21
2.5780723325
 31
0.0
  0
LWPOLYLINE
  5
1EE
330
1F
100
AcDbEntity
  8
0
  6
Continuous
 62
     7
370
    15
100
AcDbPolyline
 90
       10
 70
   128
 43
0.0
 10
12.0097738908
 20
2.8417323521
 10
12.0139814522
 20
2.8318806642
 10
12.0184680437
 20
2.8174721507
 10
12.0223069627
 20
2.8007441306
 10
12.027683004
 20
2.7669538409
 10
12.0317620135
 20
2.7309296238
 10
12.0353555987
 20
2.6947126842
 10
12.0392412304
 20
2.6588500678
 10
12.0443163151
 20
2.6234119319
 10
12.0510369808
 20
2.591732346
  0
LWPOLYLINE
  5
1EF
330
1F
100
AcDbEntity
  8
0
  6
Continuous
 62
     7
370
    15
100
AcDbPolyline
 90
       12
 70
   128
 43
0.0
 10
14.2436798212
 20
2.5953617036
 10
14.2344482879
 20
2.5300877197
 10
14.2250651029
 20
2.4715824481
 10
14.2115166328
 20
2.3978606031
 10
14.1974115691
 20
2.331615995
 10
14.1852351497
 20
2.2812332404
 10
14.1693661464
 20
2.223150098
 10
14.1590064661
 20
2.1891168212
 10
14.1445189001
 20
2.1458458144
 10
14.1247198621
 20
2.0936133944
 10
14.0978921987
 20
2.0331366797
 10
14.0616662439
 20
1.9660935542
  0
ARC
  5
1F0
330
1F
100
AcDbEntity
  8
0
  6
Continuous
 62
     7
370
    15
100
AcDbCircle
 10
13.5487870415
 20
2.2861639146
 30
0.0
 40
0.6045577820097049
100
AcDbArc
 50
317.5291807809
 51
328.0331241082
  0
ARC
  5
1F1
330
1F
100
AcDbEntity
  8
0
  6
Continuous
 62
     7
370
    15
100
AcDbCircle
 10
13.6066724061
 20
2.210861493
 30
0.0
 40
0.511280017606457
100
AcDbArc
 50
289.6921855477
 51
319.3740213755
  0
LWPOLYLINE
  5
1F2
330
1F
100
AcDbEntity
  8
0
  6
Continuous
 62
     7
370
    15
100
AcDbPolyline
 90
        6
 70
   128
 43
0.0
 10
13.7789568231
 20
1.7390392372
 10
13.7752486193
 20
1.7401115048
 10
13.7645153833
 20
1.7385062567
 10
13.7478868753
 20
1.7346708943
 10
13.7262590719
 20
1.7291473448
 10
13.7049567913
 20
1.7235879357
  0
LWPOLYLINE
  5
1F3
330
1F
100
AcDbEntity
  8
0
  6
Continuous
 62
     7
370
    15
100
AcDbPolyline
 90
        6
 70
   128
 43
0.0
 10
13.7049567913
 20
1.7235879357
 10
13.6468837688
 20
1.7107045178
 10
13.5880965613
 20
1.7014759911
 10
13.4683886108
 20
1.6902595673
 10
13.3468068687
 20
1.6848714629
 10
13.2249970625
 20
1.6830369774
  0
LINE
  5
1F4
330
1F
100
AcDbEntity
  8
0
  6
Continuous
 62
     7
370
    15
100
AcDbLine
 10
13.2249970625
 20
1.6830369774
 30
0.0
 11
13.2225714438
 21
1.6830263442
 31
0.0
  0
ARC
  5
1F5
330
1F
100
AcDbEntity
  8
0
  6
Continuous
 62
     7
370
    15
100
AcDbCircle
 10
5.4966239632
 20
-3.9502578512
 30
0.0
 40
9.562020379697323
100
AcDbArc
 50
36.0954070784
 51
37.9695342774
  0
ARC
  5
1F6
330
1F
100
AcDbEntity
  8
0
  6
Continuous
 62
     7
370
    15
100
AcDbCircle
 10
25.5709682708
 20
11.4617175435
 30
0.0
 40
15.74672822454876
100
AcDbArc
 50
214.4373370126
 51
217.23910005
  0
LWPOLYLINE
  5
1F7
330
1F
100
AcDbEntity
  8
0
  6
Continuous
 62
     7
370
    15
100
AcDbPolyline
 90
        3
 70
   128
 43
0.0
 10
13.6675482768
 20
2.5934994893
 10
13.652235647
 20
2.4963619443
 10
13.6293721911
 20
2.4005779384
  0
LINE
  5
1F8
330
1F
100
AcDbEntity
  8
0
  6
Continuous
 62
     7
370
    15
100
AcDbLine
 10
13.6464995066
 20
2.4042323528
 30
0.0
 11
13.6293721911
 21
2.4005779384
 31
0.0
  0
LINE
  5
1F9
330
1F
100
AcDbEntity
  8
0
  6
Continuous
 62
     7
370
    15
100
AcDbLine
 10
13.6628618176
 20
2.4073761532
 30
0.0
 11
13.6464995066
 21
2.4042323528
 31
0.0
  0
LWPOLYLINE
  5
1FA
330
1F
100
AcDbEntity
  8
0
  6
Continuous
 62
     7
370
    15
100
AcDbPolyline
 90
        3
 70
   128
 43
0.0
 10
13.7571391618
 20
2.5947879732
 10
13.7436794973
 20
2.499033126
 10
13.7238522263
 20
2.4043089303
  0
LINE
  5
1FB
330
1F
100
AcDbEntity
  8
0
  6
Continuous
 62
     7
370
    15
100
AcDbLine
 10
13.7402828832
 20
2.4042323528
 30
0.0
 11
13.7238522263
 21
2.4043089303
 31
0.0
  0
LINE
  5
1FC
330
1F
100
AcDbEntity
  8
0
  6
Continuous
 62
     7
370
    15
100
AcDbLine
 10
13.7525892477
 20
2.4033313349
 30
0.0
 11
13.7402828832
 21
2.4042323528
 31
0.0
  0
ARC
  5
1FD
330
1F
100
AcDbEntity
  8
0
  6
Continuous
 62
     7
370
    15
100
AcDbCircle
 10
12.0917861392
 20
2.8218663793
 30
0.0
 40
2.062980291961602
100
AcDbArc
 50
344.6382167002
 51
353.7166698411
  0
LINE
  5
1FE
330
1F
100
AcDbEntity
  8
0
  6
Continuous
 62
     7
370
    15
100
AcDbLine
 10
14.0888714229
 20
2.2792323635
 30
0.0
 11
14.0810609265
 21
2.2753560816
 31
0.0
  0
LINE
  5
1FF
330
1F
100
AcDbEntity
  8
0
  6
Continuous
 62
     7
370
    15
100
AcDbLine
 10
14.0955382259
 20
2.2818603798
 30
0.0
 11
14.0888714229
 21
2.2792323635
 31
0.0
  0
LWPOLYLINE
  5
200
330
1F
100
AcDbEntity
  8
0
  6
Continuous
 62
     7
370
    15
100
AcDbPolyline
 90
        3
 70
   128
 43
0.0
 10
14.1182677767
 20
2.2840468245
 10
14.1368846949
 20
2.3609420962
 10
14.1521777449
 20
2.4374778187
  0
LINE
  5
201
330
1F
100
AcDbEntity
  8
0
  6
Continuous
 62
     7
370
    15
100
AcDbLine
 10
14.1273944446
 20
2.2801427496
 30
0.0
 11
14.1182677767
 21
2.2840468245
 31
0.0
  0
ARC
  5
202
330
1F
100
AcDbEntity
  8
0
  6
Continuous
 62
     7
370
    15
100
AcDbCircle
 10
13.1460766652
 20
6.559733682
 30
0.0
 40
4.877311684575752
100
AcDbArc
 50
266.3937799721
 51
270.9047626427
  0
LWPOLYLINE
  5
203
330
1F
100
AcDbEntity
  8
0
  6
Continuous
 62
     7
370
    15
100
AcDbPolyline
 90
       23
 70
   128
 43
0.0
 10
12.8392992964
 20
1.692079533
 10
12.7847141503
 20
1.7068790554
 10
12.733298636
 20
1.7264217963
 10
12.6591782655
 20
1.7647750532
 10
12.5910159534
 20
1.810614677
 10
12.5267137487
 20
1.8618831781
 10
12.4638926265
 20
1.9170700539
 10
12.4002065522
 20
1.9750526574
 10
12.3334313653
 20
2.0349153592
 10
12.2614391036
 20
2.0958372754
 10
12.2005020442
 20
2.1434489054
 10
12.1341633872
 20
2.1908520878
 10
12.0614303941
 20
2.2376602871
 10
11.9812995098
 20
2.2834634646
 10
11.8927608726
 20
2.3278212588
 10
11.7948056842
 20
2.3702595019
 10
11.70571368
 20
2.4036358847
 10
11.6088959518
 20
2.4350401186
 10
11.5037998659
 20
2.4641574605
 10
11.3898822486
 20
2.490665211
 10
11.2666096793
 20
2.5142354912
 10
11.1334572441
 20
2.5345375258
 10
10.9899075824
 20
2.5512394579
  0
LWPOLYLINE
  5
204
330
1F
100
AcDbEntity
  8
0
  6
Continuous
 62
     7
370
    15
100
AcDbPolyline
 90
        3
 70
   128
 43
0.0
 10
11.4501330992
 20
2.6738889852
 10
11.4451541167
 20
2.7578709984
 10
11.4401809275
 20
2.8417323521
  0
LWPOLYLINE
  5
205
330
1F
100
AcDbEntity
  8
0
  6
Continuous
 62
     7
370
    15
100
AcDbPolyline
 90
        3
 70
   128
 43
0.0
 10
13.6746034486
 20
2.673892975
 10
13.6799249671
 20
2.7578466612
 10
13.6852438457
 20
2.8417323521
  0
ARC
  5
206
330
1F
100
AcDbEntity
  8
0
  6
Continuous
 62
     7
370
    15
100
AcDbCircle
 10
12.2610427845
 20
2.7578511286
 30
0.0
 40
1.416068898410401
100
AcDbArc
 50
353.3352104656
 51
356.6017904671
  0
LINE
  5
207
330
1F
100
AcDbEntity
  8
0
  6
Continuous
 62
     7
370
    15
100
AcDbLine
 10
13.6321553056
 20
2.4042323528
 30
0.0
 11
13.6293721911
 21
2.4005779384
 31
0.0
  0
LWPOLYLINE
  5
208
330
1F
100
AcDbEntity
  8
0
  6
Continuous
 62
     7
370
    15
100
AcDbPolyline
 90
       12
 70
   128
 43
0.0
 10
13.6321553056
 20
2.4042323528
 10
13.6393282494
 20
2.4154515265
 10
13.650390235
 20
2.4407751407
 10
13.6585355675
 20
2.4677038929
 10
13.6720789778
 20
2.5290571966
 10
13.682619056
 20
2.5913187141
 10
13.692973603
 20
2.6567184402
 10
13.7052814342
 20
2.7216007324
 10
13.7231871007
 20
2.7842702626
 10
13.731671156
 20
2.805067099
 10
13.7425110908
 20
2.8242103245
 10
13.7593652427
 20
2.8417323521
  0
LWPOLYLINE
  5
209
330
1F
100
AcDbEntity
  8
0
  6
Continuous
 62
     7
370
    15
100
AcDbPolyline
 90
       11
 70
   128
 43
0.0
 10
13.6628618176
 20
2.4073761532
 10
13.6736858392
 20
2.4297416815
 10
13.6816843601
 20
2.4542288652
 10
13.6982047759
 20
2.5251627925
 10
13.7104137549
 20
2.5977930468
 10
13.7221579526
 20
2.670561998
 10
13.7386063559
 20
2.7500536087
 10
13.7458250592
 20
2.7763705022
 10
13.7548471549
 20
2.8017349258
 10
13.766671285
 20
2.8247090038
 10
13.7815797061
 20
2.8417323521
  0
LINE
  5
20A
330
1F
100
AcDbEntity
  8
0
  6
Continuous
 62
     7
370
    15
100
AcDbLine
 10
11.4792455096
 20
2.591732346
 30
0.0
 11
11.4824114196
 21
2.5885068578
 31
0.0
  0
LWPOLYLINE
  5
20B
330
1F
100
AcDbEntity
  8
0
  6
Continuous
 62
     7
370
    15
100
AcDbPolyline
 90
       10
 70
   128
 43
0.0
 10
11.3661300763
 20
2.8417323521
 10
11.3798040916
 20
2.830428296
 10
11.3915823156
 20
2.8165230267
 10
11.4036119233
 20
2.795746375
 10
11.4127478311
 20
2.7729414018
 10
11.4255728029
 20
2.7257943331
 10
11.4368562526
 20
2.6779931455
 10
11.4458507753
 20
2.648589317
 10
11.4580291746
 20
2.620937185
 10
11.4792455096
 20
2.591732346
  0
LWPOLYLINE
  5
20C
330
1F
100
AcDbEntity
  8
0
  6
Continuous
 62
     7
370
    15
100
AcDbPolyline
 90
       11
 70
   128
 43
0.0
 10
11.3435252641
 20
2.8417323521
 10
11.3582359808
 20
2.8278677823
 10
11.3690464359
 20
2.812800578
 10
11.3779577263
 20
2.7956883415
 10
11.3897325769
 20
2.7630989996
 10
11.3985519084
 20
2.7287230584
 10
11.40649125
 20
2.693972457
 10
11.4148046606
 20
2.6622716241
 10
11.4255826295
 20
2.6319242248
 10
11.4358152979
 20
2.6116489565
 10
11.4483999592
 20
2.5938505594
  0
LWPOLYLINE
  5
20D
330
1F
100
AcDbEntity
  8
0
  6
Continuous
 62
     7
370
    15
100
AcDbPolyline
 90
        3
 70
   128
 43
0.0
 10
11.3511316029
 20
2.8345634966
 10
11.3557550695
 20
2.7578515378
 10
11.3608148643
 20
2.6738866157
  0
ARC
  5
20E
330
1F
100
AcDbEntity
  8
0
  6
Continuous
 62
     7
370
    15
100
AcDbCircle
 10
11.9077646026
 20
2.7886477117
 30
0.0
 40
1.859464935020402
100
AcDbArc
 50
354.0158589417
 51
356.4624700932
  0
LWPOLYLINE
  5
20F
330
1F
100
AcDbEntity
  8
0
  6
Continuous
 62
     7
370
    15
100
AcDbPolyline
 90
        3
 70
   128
 43
0.0
 10
13.7636837195
 20
2.6738868815
 10
13.7691239633
 20
2.7578714109
 10
13.7739966137
 20
2.8330734721
  0
LWPOLYLINE
  5
210
330
1F
100
AcDbEntity
  8
0
  6
Continuous
 62
     7
370
    15
100
AcDbPolyline
 90
       12
 70
   128
 43
0.0
 10
13.8492444711
 20
2.8417323521
 10
13.8453402496
 20
2.8388439688
 10
13.8289168526
 20
2.8198504699
 10
13.8181424038
 20
2.7989347615
 10
13.8100494306
 20
2.7763250635
 10
13.7962888829
 20
2.7178645201
 10
13.7855309338
 20
2.6522693904
 10
13.7754808632
 20
2.5864983406
 10
13.7671049733
 20
2.5391496901
 10
13.7565649684
 20
2.4922219772
 10
13.7425758434
 20
2.4468850934
 10
13.7238522263
 20
2.4043089303
  0
LWPOLYLINE
  5
211
330
1F
100
AcDbEntity
  8
0
  6
Continuous
 62
     7
370
    15
100
AcDbPolyline
 90
       12
 70
   128
 43
0.0
 10
13.8715058673
 20
2.8417323521
 10
13.8621531887
 20
2.8327557775
 10
13.8542070271
 20
2.8216017413
 10
13.844605458
 20
2.8022145936
 10
13.8371874371
 20
2.7811680326
 10
13.8223474352
 20
2.7196495337
 10
13.8121460064
 20
2.6562426144
 10
13.8028456871
 20
2.5925829295
 10
13.7945049968
 20
2.5436397832
 10
13.7842314088
 20
2.4951024131
 10
13.7708097305
 20
2.4482176547
 10
13.7530250627
 20
2.4042323528
  0
LINE
  5
212
330
1F
100
AcDbEntity
  8
0
  6
Continuous
 62
     7
370
    15
100
AcDbLine
 10
13.7530250627
 20
2.4042323528
 30
0.0
 11
13.7525892477
 21
2.4033313349
 31
0.0
  0
LWPOLYLINE
  5
213
330
1F
100
AcDbEntity
  8
0
  6
Continuous
 62
     7
370
    15
100
AcDbPolyline
 90
       11
 70
   128
 43
0.0
 10
11.2782454915
 20
2.8417323521
 10
11.2944500643
 20
2.8278677823
 10
11.3062131818
 20
2.812800578
 10
11.3157701647
 20
2.7956883415
 10
11.3281011689
 20
2.7630989996
 10
11.337040399
 20
2.7287230584
 10
11.344974534
 20
2.693972457
 10
11.3534219231
 20
2.6622716241
 10
11.3646936395
 20
2.6319242248
 10
11.3762960122
 20
2.6106622335
 10
11.3909133766
 20
2.5921908161
  0
LINE
  5
214
330
1F
100
AcDbEntity
  8
0
  6
Continuous
 62
     7
370
    15
100
AcDbLine
 10
11.3623645264
 20
2.591732346
 30
0.0
 11
11.370309808
 21
2.5828576026
 31
0.0
  0
LWPOLYLINE
  5
215
330
1F
100
AcDbEntity
  8
0
  6
Continuous
 62
     7
370
    15
100
AcDbPolyline
 90
       10
 70
   128
 43
0.0
 10
11.255640606
 20
2.8417323521
 10
11.2680436227
 20
2.830428296
 10
11.2788368447
 20
2.8165230267
 10
11.2900336887
 20
2.795746375
 10
11.2987221216
 20
2.7729414018
 10
11.3113178561
 20
2.7257943331
 10
11.3225660329
 20
2.6779931455
 10
11.3313033053
 20
2.648589317
 10
11.3428129856
 20
2.620937185
 10
11.3623645264
 20
2.591732346
  0
LWPOLYLINE
  5
216
330
1F
100
AcDbEntity
  8
0
  6
Continuous
 62
     7
370
    15
100
AcDbPolyline
 90
        3
 70
   128
 43
0.0
 10
10.9748119435
 20
2.6737903645
 10
10.9679920223
 20
2.7577767845
 10
10.961174301
 20
2.8417323521
  0
LWPOLYLINE
  5
217
330
1F
100
AcDbEntity
  8
0
  6
Continuous
 62
     7
370
    15
100
AcDbPolyline
 90
        3
 70
   128
 43
0.0
 10
14.1499996234
 20
2.6737890514
 10
14.1569452365
 20
2.7577811111
 10
14.163888063
 20
2.8417323521
  0
ARC
  5
218
330
1F
100
AcDbEntity
  8
0
  6
Continuous
 62
     7
370
    15
100
AcDbCircle
 10
11.7145825348
 20
2.8736632777
 30
0.0
 40
2.443606030675619
100
AcDbArc
 50
353.4774646697
 51
355.3088906113
  0
LINE
  5
219
330
1F
100
AcDbEntity
  8
0
  6
Continuous
 62
     7
370
    15
100
AcDbLine
 10
14.0830750766
 20
2.2792323635
 30
0.0
 11
14.0810609265
 21
2.2753560816
 31
0.0
  0
LWPOLYLINE
  5
21A
330
1F
100
AcDbEntity
  8
0
  6
Continuous
 62
     7
370
    15
100
AcDbPolyline
 90
       10
 70
   128
 43
0.0
 10
14.2491955975
 20
2.8417323521
 10
14.2324268046
 20
2.8156100189
 10
14.2202757583
 20
2.78679796
 10
14.2023706051
 20
2.7246573037
 10
14.1893307691
 20
2.6611490206
 10
14.1717534121
 20
2.567841369
 10
14.1520441332
 20
2.4750061586
 10
14.1340675542
 20
2.4079547648
 10
14.1115298412
 20
2.3422831768
 10
14.0830750766
 20
2.2792323635
  0
LWPOLYLINE
  5
21B
330
1F
100
AcDbEntity
  8
0
  6
Continuous
 62
     7
370
    15
100
AcDbPolyline
 90
       10
 70
   128
 43
0.0
 10
14.2580205756
 20
2.8417323521
 10
14.2436180753
 20
2.8195430234
 10
14.2326956415
 20
2.7949801605
 10
14.2241169139
 20
2.7694377864
 10
14.2053442374
 20
2.6935995429
 10
14.190806512
 20
2.6166460979
 10
14.1742360101
 20
2.5307240349
 10
14.1546204501
 20
2.445532274
 10
14.1292815828
 20
2.3619801726
 10
14.0955382259
 20
2.2818603798
  0
LINE
  5
21C
330
1F
100
AcDbEntity
  8
0
  6
Continuous
 62
     7
370
    15
100
AcDbLine
 10
11.013028582
 20
2.591732346
 30
0.0
 11
11.0145800041
 21
2.5908168494
 31
0.0
  0
LWPOLYLINE
  5
21D
330
1F
100
AcDbEntity
  8
0
  6
Continuous
 62
     7
370
    15
100
AcDbPolyline
 90
       12
 70
   128
 43
0.0
 10
11.013028582
 20
2.591732346
 10
10.997506148
 20
2.603084499
 10
10.984313927
 20
2.6171364494
 10
10.970985161
 20
2.638137727
 10
10.9609697034
 20
2.661029067
 10
10.9466334957
 20
2.708856825
 10
10.9335056607
 20
2.7571086522
 10
10.9253434616
 20
2.779994777
 10
10.9147156777
 20
2.8017664955
 10
10.9041421599
 20
2.8172214636
 10
10.891258962
 20
2.8307320208
 10
10.8759216192
 20
2.8417323521
  0
LINE
  5
21E
330
1F
100
AcDbEntity
  8
0
  6
Continuous
 62
     7
370
    15
100
AcDbLine
 10
11.0073118747
 20
2.591732346
 30
0.0
 11
11.013028582
 21
2.591732346
 31
0.0
  0
LWPOLYLINE
  5
21F
330
1F
100
AcDbEntity
  8
0
  6
Continuous
 62
     7
370
    15
100
AcDbPolyline
 90
       12
 70
   128
 43
0.0
 10
11.0008929355
 20
2.5923339978
 10
10.9869537499
 20
2.6029073919
 10
10.9744052415
 20
2.6166090719
 10
10.9640861874
 20
2.6322517586
 10
10.953615335
 20
2.6543806223
 10
10.9455229485
 20
2.6776169292
 10
10.9322921547
 20
2.7266687955
 10
10.9175312052
 20
2.7751533204
 10
10.9076983454
 20
2.7971889717
 10
10.8947997478
 20
2.8173429755
 10
10.8821742403
 20
2.830832743
 10
10.8674625703
 20
2.8417323521
  0
LINE
  5
220
330
1F
100
AcDbEntity
  8
0
  6
Continuous
 62
     7
370
    15
100
AcDbLine
 10
10.9386009485
 20
2.7032796099
 30
0.0
 11
10.9410209205
 21
2.6737722834
 31
0.0
  0
LWPOLYLINE
  5
221
330
1F
100
AcDbEntity
  8
0
  6
Continuous
 62
     7
370
    15
100
AcDbPolyline
 90
       10
 70
   128
 43
0.0
 10
14.2819155262
 20
2.8417323521
 10
14.2671107239
 20
2.8195430234
 10
14.2559395463
 20
2.7949801605
 10
14.2472112204
 20
2.7694377864
 10
14.2282560927
 20
2.6935995429
 10
14.2137101541
 20
2.6166460979
 10
14.1971172125
 20
2.5307240349
 10
14.1773546941
 20
2.445532274
 10
14.1520488264
 20
2.3631393942
 10
14.1182677767
 20
2.2840468245
  0
LWPOLYLINE
  5
222
330
1F
100
AcDbEntity
  8
0
  6
Continuous
 62
     7
370
    15
100
AcDbPolyline
 90
       10
 70
   128
 43
0.0
 10
14.2907403576
 20
2.8417323521
 10
14.2744203595
 20
2.8156100189
 10
14.2625250969
 20
2.78679796
 10
14.2448587143
 20
2.7246573037
 10
14.2318647844
 20
2.6611490206
 10
14.214295054
 20
2.567841369
 10
14.1946771473
 20
2.4750061586
 10
14.1770048981
 20
2.4082834043
 10
14.155003099
 20
2.3429229661
 10
14.1273944446
 20
2.2801427496
  0
LWPOLYLINE
  5
223
330
1F
100
AcDbEntity
  8
0
  6
Continuous
 62
     7
370
    15
100
AcDbPolyline
 90
       12
 70
   128
 43
0.0
 10
10.9691475956
 20
2.591732346
 10
10.9540928762
 20
2.603084499
 10
10.9412561711
 20
2.6171364494
 10
10.928221615
 20
2.638137727
 10
10.9183592756
 20
2.661029067
 10
10.9040986004
 20
2.708856825
 10
10.8909973117
 20
2.7571086522
 10
10.8829195917
 20
2.779994777
 10
10.8724783656
 20
2.8017664955
 10
10.8621497783
 20
2.8172214636
 10
10.8496157898
 20
2.8307320208
 10
10.8347426416
 20
2.8417323521
  0
LWPOLYLINE
  5
224
330
1F
100
AcDbEntity
  8
0
  6
Continuous
 62
     7
370
    15
100
AcDbPolyline
 90
       12
 70
   128
 43
0.0
 10
10.9797202334
 20
2.5920823207
 10
10.9649309776
 20
2.6029073919
 10
10.9520345799
 20
2.6166090719
 10
10.9414727953
 20
2.6322517586
 10
10.9308178784
 20
2.6543806223
 10
10.9226437995
 20
2.6776169292
 10
10.9093895392
 20
2.7266687955
 10
10.8945401508
 20
2.7751533204
 10
10.8845469862
 20
2.7971889717
 10
10.871350952
 20
2.8173429755
 10
10.8583724219
 20
2.830832743
 10
10.8432016905
 20
2.8417323521
  0
LINE
  5
225
330
1F
100
AcDbEntity
  8
0
  6
Continuous
 62
     7
370
    15
100
AcDbLine
 10
10.9774108468
 20
2.591732346
 30
0.0
 11
10.9691475956
 21
2.591732346
 31
0.0
  0
ARC
  5
226
330
1F
100
AcDbEntity
  8
0
  6
Continuous
 62
     7
370
    15
100
AcDbCircle
 10
12.3515471926
 20
2.8385654516
 30
0.0
 40
1.907696232540918
100
AcDbArc
 50
352.6756921726
 51
355.0439868822
  0
LINE
  5
227
330
1F
100
AcDbEntity
  8
0
  6
Continuous
 62
     7
370
    15
100
AcDbLine
 10
10.9691475956
 20
2.591732346
 30
0.0
 11
10.9714935018
 21
2.590302995
 31
0.0
  0
LWPOLYLINE
  5
228
330
1F
100
AcDbEntity
  8
0
  6
Continuous
 62
     7
370
    15
100
AcDbPolyline
 90
        3
 70
   128
 43
0.0
 10
10.8712518065
 20
2.6737501966
 10
10.8639477442
 20
2.7577372399
 10
10.8584259546
 20
2.8212354822
  0
LWPOLYLINE
  5
229
330
1F
100
AcDbEntity
  8
0
  6
Continuous
 62
     7
370
    15
100
AcDbPolyline
 90
        3
 70
   128
 43
0.0
 10
14.2521148171
 20
2.6737575046
 10
14.2594668389
 20
2.7577315933
 10
14.2617832654
 20
2.7841883227
  0
LINE
  5
22A
330
1F
100
AcDbEntity
  8
0
  6
Continuous
 62
     7
370
    15
100
AcDbLine
 10
13.2249970625
 20
1.6830369774
 30
0.0
 11
13.2249970625
 21
1.5567323299
 31
0.0
  0
LINE
  5
22B
330
1F
100
AcDbEntity
  8
0
  6
Continuous
 62
     7
370
    15
100
AcDbLine
 10
13.2249970625
 20
1.5567323299
 30
0.0
 11
12.8392992964
 21
1.5567323299
 31
0.0
  0
LINE
  5
22C
330
1F
100
AcDbEntity
  8
0
  6
Continuous
 62
     7
370
    15
100
AcDbLine
 10
13.7789568231
 20
1.7390392372
 30
0.0
 11
13.7789568231
 21
1.5567323299
 31
0.0
  0
LINE
  5
22D
330
1F
100
AcDbEntity
  8
0
  6
Continuous
 62
     7
370
    15
100
AcDbLine
 10
13.7049567913
 20
1.7235879357
 30
0.0
 11
13.7049567913
 21
1.5567323299
 31
0.0
  0
LINE
  5
22E
330
1F
100
AcDbEntity
  8
0
  6
Continuous
 62
     7
370
    15
100
AcDbLine
 10
13.7789568231
 20
1.5567323299
 30
0.0
 11
13.7049567913
 21
1.5567323299
 31
0.0
  0
LINE
  5
22F
330
1F
100
AcDbEntity
  8
0
  6
Continuous
 62
     7
370
    15
100
AcDbLine
 10
13.7049567913
 20
1.5567323299
 30
0.0
 11
13.2249970625
 21
1.5567323299
 31
0.0
  0
LINE
  5
230
330
1F
100
AcDbEntity
  8
0
  6
Continuous
 62
     7
370
    15
100
AcDbLine
 10
13.9947217506
 20
1.877957659
 30
0.0
 11
13.9925336558
 21
1.6990110662
 31
0.0
  0
ARC
  5
231
330
1F
100
AcDbEntity
  8
0
  6
Continuous
 62
     7
370
    15
100
AcDbCircle
 10
13.5245366264
 20
2.1700875871
 30
0.0
 40
0.6640288458025643
100
AcDbArc
 50
292.5287085383
 51
314.812111386
  0
LWPOLYLINE
  5
232
330
1F
100
AcDbEntity
  8
0
  6
Continuous
 62
     7
370
    15
100
AcDbPolyline
 90
        3
 70
   128
 43
0.0
 10
14.0616662439
 20
1.9660935542
 10
14.0578890342
 20
1.8453619556
 10
14.0553976363
 20
1.7657402554
  0
ARC
  5
233
330
1F
100
AcDbEntity
  8
0
  6
Continuous
 62
     7
370
    15
100
AcDbCircle
 10
13.3210819455
 20
2.3945456615
 30
0.0
 40
0.9667552805235632
100
AcDbArc
 50
313.9906958642
 51
319.4260661736
  0
LWPOLYLINE
  5
234
330
1F
100
AcDbEntity
  8
0
  6
Continuous
 62
     7
370
    15
100
AcDbPolyline
 90
        4
 70
   128
 43
0.0
 10
14.4345226299
 20
2.8342580301
 10
14.4343340188
 20
2.827053645
 10
14.4340801417
 20
2.8173597503
 10
14.4339026771
 20
2.8105778337
  0
LINE
  5
235
330
1F
100
AcDbEntity
  8
0
  6
Continuous
 62
     7
370
    15
100
AcDbLine
 10
14.4282678089
 20
2.5953909587
 30
0.0
 11
14.2436786479
 21
2.595361864
 31
0.0
  0
LINE
  5
236
330
1F
100
AcDbEntity
  8
0
  6
Continuous
 62
     7
370
    15
100
AcDbLine
 10
14.4282678089
 20
2.5953909587
 30
0.0
 11
14.4265352555
 21
2.5292323513
 31
0.0
  0
LWPOLYLINE
  5
237
330
1F
100
AcDbEntity
  8
0
  6
Continuous
 62
     7
370
    15
100
AcDbPolyline
 90
        8
 70
   128
 43
0.0
 10
14.4265352555
 20
2.5292323513
 10
14.3766659383
 20
2.3699719469
 10
14.3172698511
 20
2.2133975373
 10
14.2491127318
 20
2.0645700633
 10
14.2104773648
 20
1.9918069305
 10
14.1685162229
 20
1.9209187627
 10
14.1149984678
 20
1.8414236344
 10
14.0553976363
 20
1.7657402554
  0
LINE
  5
238
330
1F
100
AcDbEntity
  8
0
  6
Continuous
 62
     7
370
    15
100
AcDbLine
 10
14.4303203852
 20
2.6737766857
 30
0.0
 11
14.2521129105
 21
2.6737576605
 31
0.0
  0
LWPOLYLINE
  5
239
330
1F
100
AcDbEntity
  8
0
  6
Continuous
 62
     7
370
    15
100
AcDbPolyline
 90
        4
 70
   128
 43
0.0
 10
14.4303203852
 20
2.6737766857
 10
14.4298041244
 20
2.6540623765
 10
14.4292878637
 20
2.6343480846
 10
14.4282678089
 20
2.5953909587
  0
LWPOLYLINE
  5
23A
330
1F
100
AcDbEntity
  8
0
  6
Continuous
 62
     7
370
    15
100
AcDbPolyline
 90
        5
 70
   128
 43
0.0
 10
14.4339026771
 20
2.8105778337
 10
14.4336307602
 20
2.8001961169
 10
14.432527253
 20
2.7580563096
 10
14.4314237457
 20
2.7159164976
 10
14.4303203852
 20
2.6737766857
  0
LINE
  5
23B
330
1F
100
AcDbEntity
  8
0
  6
Continuous
 62
     7
370
    15
100
AcDbLine
 10
10.9108627889
 20
2.591732346
 30
0.0
 11
10.9154462159
 21
2.5879015485
 31
0.0
  0
LWPOLYLINE
  5
23C
330
1F
100
AcDbEntity
  8
0
  6
Continuous
 62
     7
370
    15
100
AcDbPolyline
 90
        9
 70
   128
 43
0.0
 10
10.7599609588
 20
2.8417323521
 10
10.7912421041
 20
2.8199741451
 10
10.813961975
 20
2.789473175
 10
10.8292824513
 20
2.7556604731
 10
10.8411900338
 20
2.720364805
 10
10.8552860043
 20
2.6781782596
 10
10.8734726075
 20
2.637771292
 10
10.8901055887
 20
2.6130322455
 10
10.9108627889
 20
2.591732346
  0
LINE
  5
23D
330
1F
100
AcDbEntity
  8
0
  6
Continuous
 62
     7
370
    15
100
AcDbLine
 10
13.9806209401
 20
1.6877677295
 30
0.0
 11
13.9906859705
 21
1.6973714985
 31
0.0
  0
LINE
  5
23E
330
1F
100
AcDbEntity
  8
0
  6
Continuous
 62
     7
370
    15
100
AcDbLine
 10
14.0425189851
 20
1.7511329375
 30
0.0
 11
14.0506764908
 21
1.7602798451
 31
0.0
  0
LWPOLYLINE
  5
23F
330
1F
100
AcDbEntity
  8
0
  6
Continuous
 62
     7
370
    15
100
AcDbPolyline
 90
        4
 70
   128
 43
0.0
 10
10.9145232533
 20
2.673894476
 10
10.8935195092
 20
2.6738999209
 10
10.8789671174
 20
2.6739023936
 10
10.8711962205
 20
2.6739001134
  0
LINE
  5
240
330
1F
100
AcDbEntity
  8
0
  6
Continuous
 62
     7
370
    15
100
AcDbLine
 10
10.9468194669
 20
2.6738939443
 30
0.0
 11
10.9410105073
 21
2.6738925075
 31
0.0
  0
LWPOLYLINE
  5
241
330
1F
100
AcDbEntity
  8
0
  6
Continuous
 62
     7
370
    15
100
AcDbPolyline
 90
        7
 70
   128
 43
0.0
 10
11.323768979
 20
2.6739448714
 10
11.2544109669
 20
2.6739416677
 10
11.1829964185
 20
2.6739349578
 10
11.1196428704
 20
2.673932767
 10
11.0640140197
 20
2.6739293639
 10
11.0158122832
 20
2.6739171518
 10
10.9747988903
 20
2.6739022607
  0
LINE
  5
242
330
1F
100
AcDbEntity
  8
0
  6
Continuous
 62
     7
370
    15
100
AcDbLine
 10
11.4117441293
 20
2.673942039
 30
0.0
 11
11.3608210976
 21
2.6739450204
 31
0.0
  0
LWPOLYLINE
  5
243
330
1F
100
AcDbEntity
  8
0
  6
Continuous
 62
     7
370
    15
100
AcDbPolyline
 90
        8
 70
   128
 43
0.0
 10
12.0376180159
 20
2.6738314742
 10
11.9994605567
 20
2.6738433609
 10
11.8812144526
 20
2.6738721417
 10
11.7700850831
 20
2.6738943087
 10
11.6662822156
 20
2.6739111797
 10
11.5697961702
 20
2.6739250373
 10
11.5083016006
 20
2.6739326914
 10
11.4501230526
 20
2.6739389086
  0
LINE
  5
244
330
1F
100
AcDbEntity
  8
0
  6
Continuous
 62
     7
370
    15
100
AcDbLine
 10
12.1770117789
 20
2.6737776757
 30
0.0
 11
12.0844251151
 21
2.673814209
 31
0.0
  0
LINE
  5
245
330
1F
100
AcDbEntity
  8
0
  6
Continuous
 62
     7
370
    15
100
AcDbLine
 10
13.0313571328
 20
2.5732872915
 30
0.0
 11
12.9393006262
 21
2.5694834621
 31
0.0
  0
ARC
  5
246
330
1F
100
AcDbEntity
  8
0
  6
Continuous
 62
     7
370
    15
100
AcDbCircle
 10
14.0925629466
 20
-20.6132534046
 30
0.0
 40
23.21064448449783
100
AcDbArc
 50
91.0492136352
 51
92.4981428661
  0
LINE
  5
247
330
1F
100
AcDbEntity
  8
0
  6
Continuous
 62
     7
370
    15
100
AcDbLine
 10
13.7571382085
 20
2.5947879594
 30
0.0
 11
13.7097998153
 21
2.5941408827
 31
0.0
  0
ARC
  5
248
330
1F
100
AcDbEntity
  8
0
  6
Continuous
 62
     7
370
    15
100
AcDbCircle
 10
14.0279063078
 20
-20.4281820141
 30
0.0
 40
23.02454980899975
100
AcDbArc
 50
89.7151509318
 51
90.5590868917
  0
LWPOLYLINE
  5
249
330
1F
100
AcDbEntity
  8
0
  6
Continuous
 62
     7
370
    15
100
AcDbPolyline
 90
        3
 70
   128
 43
0.0
 10
14.2436789412
 20
2.5953544391
 10
14.2323247257
 20
2.5954888026
 10
14.219521607
 20
2.5955982009
  0
LINE
  5
24A
330
1F
100
AcDbEntity
  8
0
  6
Continuous
 62
     7
370
    15
100
AcDbLine
 10
12.9512179252
 20
2.673773404
 30
0.0
 11
13.0400378291
 21
2.6738071897
 31
0.0
  0
LWPOLYLINE
  5
24B
330
1F
100
AcDbEntity
  8
0
  6
Continuous
 62
     7
370
    15
100
AcDbPolyline
 90
        8
 70
   128
 43
0.0
 10
13.0915524707
 20
2.6738283919
 10
13.1310908173
 20
2.6738420478
 10
13.248900373
 20
2.6738685736
 10
13.3595950276
 20
2.673885479
 10
13.4629378804
 20
2.6738966095
 10
13.5589559179
 20
2.6739052673
 10
13.6183416652
 20
2.6739101004
 10
13.6746209751
 20
2.6739133912
  0
LINE
  5
24C
330
1F
100
AcDbEntity
  8
0
  6
Continuous
 62
     7
370
    15
100
AcDbLine
 10
13.7228516046
 20
2.6739143995
 30
0.0
 11
13.7636865795
 21
2.6739144018
 31
0.0
  0
LWPOLYLINE
  5
24D
330
1F
100
AcDbEntity
  8
0
  6
Continuous
 62
     7
370
    15
100
AcDbPolyline
 90
        7
 70
   128
 43
0.0
 10
13.8149886668
 20
2.6739109666
 10
13.872797839
 20
2.673905359
 10
13.943492849
 20
2.6738928856
 10
14.0062422841
 20
2.6738760924
 10
14.0614007803
 20
2.6738566616
 10
14.1092450942
 20
2.6738361812
 10
14.1500028501
 20
2.6738157467
  0
LWPOLYLINE
  5
24E
330
1F
100
AcDbEntity
  8
0
  6
Continuous
 62
     7
370
    15
100
AcDbPolyline
 90
        3
 70
   128
 43
0.0
 10
14.2344499012
 20
2.6737838402
 10
14.2373069349
 20
2.6737831916
 10
14.2521117372
 20
2.6737638364
  0
LINE
  5
24F
330
1F
100
AcDbEntity
  8
0
  6
Continuous
 62
     7
370
    15
100
AcDbLine
 10
14.4339026771
 20
2.8105778337
 30
0.0
 11
14.2723427035
 21
2.8105778337
 31
0.0
  0
ENDSEC
  0
SECTION
  2
OBJECTS
  0
DICTIONARY
  5
C
330
0
100
AcDbDictionary
281
     1
  3
ACAD_GROUP
350
D
  3
ACAD_LAYOUT
350
1A
  3
ACAD_MATERIAL
350
3B
  3
ACAD_MLEADERSTYLE
350
252
  3
ACAD_MLINESTYLE
350
17
  3
ACAD_PLOTSETTINGS
350
19
  3
ACAD_PLOTSTYLENAME
350
E
  3
ACAD_VISUALSTYLE
350
2A
  3
AcDbVariableDictionary
350
250
  0
DICTIONARY
  5
D
102
{ACAD_REACTORS
330
C
102
}
330
C
100
AcDbDictionary
281
     1
  0
DICTIONARY
  5
1A
102
{ACAD_REACTORS
330
C
102
}
330
C
100
AcDbDictionary
281
     1
  3
Layout1
350
1E
  3
Layout2
350
26
  3
Model
350
22
  0
DICTIONARY
  5
3B
102
{ACAD_REACTORS
330
C
102
}
330
C
100
AcDbDictionary
281
     1
  3
ByBlock
350
3D
  3
ByLayer
350
3C
  3
Global
350
3E
  0
DICTIONARY
  5
252
102
{ACAD_REACTORS
330
C
102
}
330
C
100
AcDbDictionary
281
     1
  0
DICTIONARY
  5
17
102
{ACAD_REACTORS
330
C
102
}
330
C
100
AcDbDictionary
281
     1
  3
Standard
350
18
  0
DICTIONARY
  5
19
102
{ACAD_REACTORS
330
C
102
}
330
C
100
AcDbDictionary
281
     1
  0
ACDBDICTIONARYWDFLT
  5
E
102
{ACAD_REACTORS
330
C
102
}
330
C
100
AcDbDictionary
281
     1
  3
Normal
350
F
100
AcDbDictionaryWithDefault
340
F
  0
DICTIONARY
  5
2A
102
{ACAD_REACTORS
330
C
102
}
330
C
100
AcDbDictionary
281
     1
  3
2dWireframe
350
2F
  3
3D Hidden
350
31
  3
3dWireframe
350
30
  3
Basic
350
32
  3
Brighten
350
36
  3
ColorChange
350
3A
  3
Conceptual
350
34
  3
Dim
350
35
  3
Facepattern
350
39
  3
Flat
350
2B
  3
FlatWithEdges
350
2C
  3
Gouraud
350
2D
  3
GouraudWithEdges
350
2E
  3
Linepattern
350
38
  3
Realistic
350
33
  3
Thicken
350
37
  0
DICTIONARY
  5
250
102
{ACAD_REACTORS
330
C
102
}
330
C
100
AcDbDictionary
281
     1
  3
DIMASSOC
350
253
  3
HIDETEXT
350
254
  0
LAYOUT
  5
1E
102
{ACAD_REACTORS
330
1A
102
}
330
1A
100
AcDbPlotSettings
  1

  2
none_device
  4

  6

 40
0.0
 41
0.0
 42
0.0
 43
0.0
 44
0.0
 45
0.0
 46
0.0
 47
0.0
 48
0.0
 49
0.0
140
0.0
141
0.0
142
1.0
143
1.0
 70
   688
 72
     0
 73
     0
 74
     5
  7

 75
    16
147
1.0
148
0.0
149
0.0
100
AcDbLayout
  1
Layout1
 70
     1
 71
     1
 10
0.0
 20
0.0
 11
12.0
 21
9.0
 12
0.0
 22
0.0
 32
0.0
 14
1.0000000000E+20
 24
1.0000000000E+20
 34
1.0000000000E+20
 15
-1.0000000000E+20
 25
-1.0000000000E+20
 35
-1.0000000000E+20
146
0.0
 13
0.0
 23
0.0
 33
0.0
 16
1.0
 26
0.0
 36
0.0
 17
0.0
 27
1.0
 37
0.0
 76
     0
330
1B
  0
LAYOUT
  5
26
102
{ACAD_REACTORS
330
1A
102
}
330
1A
100
AcDbPlotSettings
  1

  2
none_device
  4

  6

 40
0.0
 41
0.0
 42
0.0
 43
0.0
 44
0.0
 45
0.0
 46
0.0
 47
0.0
 48
0.0
 49
0.0
140
0.0
141
0.0
142
1.0
143
1.0
 70
   688
 72
     0
 73
     0
 74
     5
  7

 75
    16
147
1.0
148
0.0
149
0.0
100
AcDbLayout
  1
Layout2
 70
     1
 71
     2
 10
0.0
 20
0.0
 11
0.0
 21
0.0
 12
0.0
 22
0.0
 32
0.0
 14
0.0
 24
0.0
 34
0.0
 15
0.0
 25
0.0
 35
0.0
146
0.0
 13
0.0
 23
0.0
 33
0.0
 16
1.0
 26
0.0
 36
0.0
 17
0.0
 27
1.0
 37
0.0
 76
     0
330
23
  0
LAYOUT
  5
22
102
{ACAD_REACTORS
330
1A
102
}
330
1A
100
AcDbPlotSettings
  1

  2
none_device
  4

  6

 40
0.0
 41
0.0
 42
0.0
 43
0.0
 44
0.0
 45
0.0
 46
0.0
 47
0.0
 48
0.0
 49
0.0
140
0.0
141
0.0
142
1.0
143
1.0
 70
  1712
 72
     0
 73
     0
 74
     0
  7

 75
     0
147
1.0
148
0.0
149
0.0
100
AcDbLayout
  1
Model
 70
     1
 71
     0
 10
0.0
 20
0.0
 11
17.0
 21
11.0
 12
0.0
 22
0.0
 32
0.0
 14
0.0
 24
0.0
 34
0.0
 15
17.0
 25
11.0
 35
0.0
146
0.0
 13
0.0
 23
0.0
 33
0.0
 16
1.0
 26
0.0
 36
0.0
 17
0.0
 27
1.0
 37
0.0
 76
     0
330
1F
331
29
  0
MATERIAL
  5
3D
102
{ACAD_REACTORS
330
3B
102
}
102
{ACAD_XDICTIONARY
360
277
102
}
330
3B
100
AcDbMaterial
  1
ByBlock
  0
MATERIAL
  5
3C
102
{ACAD_REACTORS
330
3B
102
}
102
{ACAD_XDICTIONARY
360
275
102
}
330
3B
100
AcDbMaterial
  1
ByLayer
  0
MATERIAL
  5
3E
102
{ACAD_REACTORS
330
3B
102
}
102
{ACAD_XDICTIONARY
360
279
102
}
330
3B
100
AcDbMaterial
  1
Global
  0
MLINESTYLE
  5
18
102
{ACAD_REACTORS
330
17
102
}
330
17
100
AcDbMlineStyle
  2
Standard
 70
     0
  3

 62
   256
 51
90.0
 52
90.0
 71
     2
 49
0.5
 62
   256
  6
BYLAYER
 49
-0.5
 62
   256
  6
BYLAYER
  0
ACDBPLACEHOLDER
  5
F
102
{ACAD_REACTORS
330
E
102
}
330
E
  0
VISUALSTYLE
  5
2F
102
{ACAD_REACTORS
330
2A
102
}
102
{ACAD_XDICTIONARY
360
25D
102
}
330
2A
100
AcDbVisualStyle
  2
2dWireframe
 70
     4
 71
     0
 72
     2
 73
     0
 90
        0
 40
-0.6
 41
-30.0
 62
     5
 63
     7
 74
     1
 91
        4
 64
     7
 65
   257
 75
     1
175
     1
 42
1.0
 92
        0
 66
   257
 43
1.0
 76
     1
 77
     6
 78
     2
 67
     7
 79
     5
170
     0
171
     0
290
     0
174
     0
 93
        1
 44
0.0
173
     0
291
     0
 45
0.0
1001
ACAD
1000
AcDbSavedByObjectVersion
1070
     0
  0
VISUALSTYLE
  5
31
102
{ACAD_REACTORS
330
2A
102
}
102
{ACAD_XDICTIONARY
360
261
102
}
330
2A
100
AcDbVisualStyle
  2
3D Hidden
 70
     6
 71
     1
 72
     2
 73
     2
 90
        0
 40
-0.6
 41
-30.0
 62
     5
 63
     7
 74
     2
 91
        2
 64
     7
 65
   257
 75
     2
175
     1
 42
40.0
 92
        0
 66
   257
 43
1.0
 76
     1
 77
     6
 78
     2
 67
     7
 79
     3
170
     0
171
     0
290
     0
174
     0
 93
        1
 44
0.0
173
     0
291
     0
 45
0.0
1001
ACAD
1000
AcDbSavedByObjectVersion
1070
     0
  0
VISUALSTYLE
  5
30
102
{ACAD_REACTORS
330
2A
102
}
102
{ACAD_XDICTIONARY
360
25F
102
}
330
2A
100
AcDbVisualStyle
  2
3dWireframe
 70
     5
 71
     0
 72
     2
 73
     0
 90
        0
 40
-0.6
 41
-30.0
 62
     5
 63
     7
 74
     1
 91
        4
 64
     7
 65
   257
 75
     1
175
     1
 42
1.0
 92
        0
 66
   257
 43
1.0
 76
     1
 77
     6
 78
     2
 67
     7
 79
     5
170
     0
171
     0
290
     0
174
     0
 93
        1
 44
0.0
173
     0
291
     0
 45
0.0
1001
ACAD
1000
AcDbSavedByObjectVersion
1070
     0
  0
VISUALSTYLE
  5
32
102
{ACAD_REACTORS
330
2A
102
}
102
{ACAD_XDICTIONARY
360
263
102
}
330
2A
100
AcDbVisualStyle
  2
Basic
 70
     7
 71
     1
 72
     0
 73
     1
 90
        0
 40
-0.6
 41
-30.0
 62
     5
 63
     7
 74
     0
 91
        4
 64
     7
 65
   257
 75
     1
175
     1
 42
1.0
 92
        8
 66
     7
 43
1.0
 76
     1
 77
     6
 78
     2
 67
     7
 79
     5
170
     0
171
     0
290
     0
174
     0
 93
        1
 44
0.0
173
     0
291
     1
 45
0.0
1001
ACAD
1000
AcDbSavedByObjectVersion
1070
     0
  0
VISUALSTYLE
  5
36
102
{ACAD_REACTORS
330
2A
102
}
102
{ACAD_XDICTIONARY
360
26B
102
}
330
2A
100
AcDbVisualStyle
  2
Brighten
 70
    12
 71
     2
 72
     2
 73
     0
 90
        0
 40
-0.6
 41
-30.0
 62
     5
 63
     7
 74
     1
 91
        4
 64
     7
 65
   257
 75
     1
175
     1
 42
1.0
 92
        8
 66
     7
 43
1.0
 76
     1
 77
     6
 78
     2
 67
     7
 79
     5
170
     0
171
     0
290
     0
174
     0
 93
        1
 44
50.0
173
     0
291
     1
 45
0.0
1001
ACAD
1000
AcDbSavedByObjectVersion
1070
     0
  0
VISUALSTYLE
  5
3A
102
{ACAD_REACTORS
330
2A
102
}
102
{ACAD_XDICTIONARY
360
273
102
}
330
2A
100
AcDbVisualStyle
  2
ColorChange
 70
    16
 71
     2
 72
     2
 73
     3
 90
        0
 40
-0.6
 41
-30.0
 62
     5
 63
     8
 74
     1
 91
        4
 64
     7
 65
   257
 75
     1
175
     1
 42
1.0
 92
        8
 66
     8
 43
1.0
 76
     1
 77
     6
 78
     2
 67
     7
 79
     5
170
     0
171
     0
290
     0
174
     0
 93
        1
 44
0.0
173
     0
291
     1
 45
0.0
1001
ACAD
1000
AcDbSavedByObjectVersion
1070
     0
  0
VISUALSTYLE
  5
34
102
{ACAD_REACTORS
330
2A
102
}
102
{ACAD_XDICTIONARY
360
267
102
}
330
2A
100
AcDbVisualStyle
  2
Conceptual
 70
     9
 71
     3
 72
     2
 73
     0
 90
        0
 40
-0.6
 41
-30.0
 62
     5
 63
     7
 74
     2
 91
        2
 64
     7
 65
   257
 75
     1
175
     1
 42
40.0
 92
        8
 66
     7
 43
1.0
 76
     1
 77
     6
 78
     2
 67
     7
 79
     3
170
     0
171
     0
290
     0
174
     0
 93
        1
 44
0.0
173
     0
291
     0
 45
0.0
1001
ACAD
1000
AcDbSavedByObjectVersion
1070
     0
  0
VISUALSTYLE
  5
35
102
{ACAD_REACTORS
330
2A
102
}
102
{ACAD_XDICTIONARY
360
269
102
}
330
2A
100
AcDbVisualStyle
  2
Dim
 70
    11
 71
     2
 72
     2
 73
     0
 90
        0
 40
-0.6
 41
-30.0
 62
     5
 63
     7
 74
     1
 91
        4
 64
     7
 65
   257
 75
     1
175
     1
 42
1.0
 92
        8
 66
     7
 43
1.0
 76
     1
 77
     6
 78
     2
 67
     7
 79
     5
170
     0
171
     0
290
     0
174
     0
 93
        1
 44
-50.0
173
     0
291
     1
 45
0.0
1001
ACAD
1000
AcDbSavedByObjectVersion
1070
     0
  0
VISUALSTYLE
  5
39
102
{ACAD_REACTORS
330
2A
102
}
102
{ACAD_XDICTIONARY
360
271
102
}
330
2A
100
AcDbVisualStyle
  2
Facepattern
 70
    15
 71
     2
 72
     2
 73
     0
 90
        0
 40
-0.6
 41
-30.0
 62
     5
 63
     7
 74
     1
 91
        4
 64
     7
 65
   257
 75
     1
175
     1
 42
1.0
 92
        8
 66
     7
 43
1.0
 76
     1
 77
     6
 78
     2
 67
     7
 79
     5
170
     0
171
     0
290
     0
174
     0
 93
        1
 44
0.0
173
     0
291
     1
 45
0.0
1001
ACAD
1000
AcDbSavedByObjectVersion
1070
     0
  0
VISUALSTYLE
  5
2B
102
{ACAD_REACTORS
330
2A
102
}
102
{ACAD_XDICTIONARY
360
255
102
}
330
2A
100
AcDbVisualStyle
  2
Flat
 70
     0
 71
     2
 72
     1
 73
     1
 90
        2
 40
-0.6
 41
30.0
 62
     5
 63
     7
 74
     0
 91
        4
 64
     7
 65
   257
 75
     1
175
     1
 42
1.0
 92
        8
 66
     7
 43
1.0
 76
     1
 77
     6
 78
     2
 67
     7
 79
     5
170
     0
171
     0
290
     0
174
     0
 93
       13
 44
0.0
173
     0
291
     1
 45
0.0
1001
ACAD
1000
AcDbSavedByObjectVersion
1070
     0
  0
VISUALSTYLE
  5
2C
102
{ACAD_REACTORS
330
2A
102
}
102
{ACAD_XDICTIONARY
360
257
102
}
330
2A
100
AcDbVisualStyle
  2
FlatWithEdges
 70
     1
 71
     2
 72
     1
 73
     1
 90
        2
 40
-0.6
 41
30.0
 62
     5
 63
     7
 74
     1
 91
        4
 64
     7
 65
   257
 75
     1
175
     1
 42
1.0
 92
        0
 66
   257
 43
1.0
 76
     1
 77
     6
 78
     2
 67
     7
 79
     5
170
     0
171
     0
290
     0
174
     0
 93
       13
 44
0.0
173
     0
291
     1
 45
0.0
1001
ACAD
1000
AcDbSavedByObjectVersion
1070
     0
  0
VISUALSTYLE
  5
2D
102
{ACAD_REACTORS
330
2A
102
}
102
{ACAD_XDICTIONARY
360
259
102
}
330
2A
100
AcDbVisualStyle
  2
Gouraud
 70
     2
 71
     2
 72
     2
 73
     1
 90
        2
 40
-0.6
 41
30.0
 62
     5
 63
     7
 74
     0
 91
        4
 64
     7
 65
   257
 75
     1
175
     1
 42
1.0
 92
        0
 66
     7
 43
1.0
 76
     1
 77
     6
 78
     2
 67
     7
 79
     5
170
     0
171
     0
290
     0
174
     0
 93
       13
 44
0.0
173
     0
291
     1
 45
0.0
1001
ACAD
1000
AcDbSavedByObjectVersion
1070
     0
  0
VISUALSTYLE
  5
2E
102
{ACAD_REACTORS
330
2A
102
}
102
{ACAD_XDICTIONARY
360
25B
102
}
330
2A
100
AcDbVisualStyle
  2
GouraudWithEdges
 70
     3
 71
     2
 72
     2
 73
     1
 90
        2
 40
-0.6
 41
30.0
 62
     5
 63
     7
 74
     1
 91
        4
 64
     7
 65
   257
 75
     1
175
     1
 42
1.0
 92
        0
 66
   257
 43
1.0
 76
     1
 77
     6
 78
     2
 67
     7
 79
     5
170
     0
171
     0
290
     0
174
     0
 93
       13
 44
0.0
173
     0
291
     1
 45
0.0
1001
ACAD
1000
AcDbSavedByObjectVersion
1070
     0
  0
VISUALSTYLE
  5
38
102
{ACAD_REACTORS
330
2A
102
}
102
{ACAD_XDICTIONARY
360
26F
102
}
330
2A
100
AcDbVisualStyle
  2
Linepattern
 70
    14
 71
     2
 72
     2
 73
     0
 90
        0
 40
-0.6
 41
-30.0
 62
     5
 63
     7
 74
     1
 91
        4
 64
     7
 65
   257
 75
     7
175
     7
 42
1.0
 92
        8
 66
     7
 43
1.0
 76
     1
 77
     6
 78
     2
 67
     7
 79
     5
170
     0
171
     0
290
     0
174
     0
 93
        1
 44
0.0
173
     0
291
     1
 45
0.0
1001
ACAD
1000
AcDbSavedByObjectVersion
1070
     0
  0
VISUALSTYLE
  5
33
102
{ACAD_REACTORS
330
2A
102
}
102
{ACAD_XDICTIONARY
360
265
102
}
330
2A
100
AcDbVisualStyle
  2
Realistic
 70
     8
 71
     2
 72
     2
 73
     0
 90
        0
 40
-0.6
 41
-30.0
 62
     5
 63
     7
 74
     1
 91
        0
 64
     7
 65
   257
 75
     1
175
     1
 42
1.0
 92
        8
 66
     8
 43
1.0
 76
     1
 77
     6
 78
     2
 67
     7
 79
     5
170
     0
171
     0
290
     0
174
     0
 93
       13
 44
0.0
173
     0
291
     0
 45
0.0
1001
ACAD
1000
AcDbSavedByObjectVersion
1070
     0
  0
VISUALSTYLE
  5
37
102
{ACAD_REACTORS
330
2A
102
}
102
{ACAD_XDICTIONARY
360
26D
102
}
330
2A
100
AcDbVisualStyle
  2
Thicken
 70
    13
 71
     2
 72
     2
 73
     0
 90
        0
 40
-0.6
 41
-30.0
 62
     5
 63
     7
 74
     1
 91
        4
 64
     7
 65
   257
 75
     1
175
     1
 42
1.0
 92
       12
 66
     7
 43
1.0
 76
     1
 77
     6
 78
     2
 67
     7
 79
     5
170
     0
171
     0
290
     0
174
     0
 93
        1
 44
0.0
173
     0
291
     1
 45
0.0
1001
ACAD
1000
AcDbSavedByObjectVersion
1070
     0
  0
DICTIONARYVAR
  5
253
102
{ACAD_REACTORS
330
250
102
}
330
250
100
DictionaryVariables
280
     0
  1
2
  0
DICTIONARYVAR
  5
254
102
{ACAD_REACTORS
330
250
102
}
330
250
100
DictionaryVariables
280
     0
  1
1
  0
DICTIONARY
  5
277
330
3D
100
AcDbDictionary
280
     1
281
     1
  3
ACAD_XREC_ROUNDTRIP
360
278
  0
DICTIONARY
  5
275
330
3C
100
AcDbDictionary
280
     1
281
     1
  3
ACAD_XREC_ROUNDTRIP
360
276
  0
DICTIONARY
  5
279
330
3E
100
AcDbDictionary
280
     1
281
     1
  3
ACAD_XREC_ROUNDTRIP
360
27A
  0
DICTIONARY
  5
25D
330
2F
100
AcDbDictionary
280
     1
281
     1
  3
ACAD_XREC_ROUNDTRIP
360
25E
  0
DICTIONARY
  5
261
330
31
100
AcDbDictionary
280
     1
281
     1
  3
ACAD_XREC_ROUNDTRIP
360
262
  0
DICTIONARY
  5
25F
330
30
100
AcDbDictionary
280
     1
281
     1
  3
ACAD_XREC_ROUNDTRIP
360
260
  0
DICTIONARY
  5
263
330
32
100
AcDbDictionary
280
     1
281
     1
  3
ACAD_XREC_ROUNDTRIP
360
264
  0
DICTIONARY
  5
26B
330
36
100
AcDbDictionary
280
     1
281
     1
  3
ACAD_XREC_ROUNDTRIP
360
26C
  0
DICTIONARY
  5
273
330
3A
100
AcDbDictionary
280
     1
281
     1
  3
ACAD_XREC_ROUNDTRIP
360
274
  0
DICTIONARY
  5
267
330
34
100
AcDbDictionary
280
     1
281
     1
  3
ACAD_XREC_ROUNDTRIP
360
268
  0
DICTIONARY
  5
269
330
35
100
AcDbDictionary
280
     1
281
     1
  3
ACAD_XREC_ROUNDTRIP
360
26A
  0
DICTIONARY
  5
271
330
39
100
AcDbDictionary
280
     1
281
     1
  3
ACAD_XREC_ROUNDTRIP
360
272
  0
DICTIONARY
  5
255
330
2B
100
AcDbDictionary
280
     1
281
     1
  3
ACAD_XREC_ROUNDTRIP
360
256
  0
DICTIONARY
  5
257
330
2C
100
AcDbDictionary
280
     1
281
     1
  3
ACAD_XREC_ROUNDTRIP
360
258
  0
DICTIONARY
  5
259
330
2D
100
AcDbDictionary
280
     1
281
     1
  3
ACAD_XREC_ROUNDTRIP
360
25A
  0
DICTIONARY
  5
25B
330
2E
100
AcDbDictionary
280
     1
281
     1
  3
ACAD_XREC_ROUNDTRIP
360
25C
  0
DICTIONARY
  5
26F
330
38
100
AcDbDictionary
280
     1
281
     1
  3
ACAD_XREC_ROUNDTRIP
360
270
  0
DICTIONARY
  5
265
330
33
100
AcDbDictionary
280
     1
281
     1
  3
ACAD_XREC_ROUNDTRIP
360
266
  0
DICTIONARY
  5
26D
330
37
100
AcDbDictionary
280
     1
281
     1
  3
ACAD_XREC_ROUNDTRIP
360
26E
  0
XRECORD
  5
278
102
{ACAD_REACTORS
330
277
102
}
330
277
100
AcDbXrecord
280
     1
102
MATERIAL
148
0.0
149
0.0
149
0.0
 93
        0
 94
      127
282
     0
 72
     1
 77
     1
171
     1
175
     1
179
     1
273
     0
  0
XRECORD
  5
276
102
{ACAD_REACTORS
330
275
102
}
330
275
100
AcDbXrecord
280
     1
102
MATERIAL
148
0.0
149
0.0
149
0.0
 93
        0
 94
      127
282
     0
 72
     1
 77
     1
171
     1
175
     1
179
     1
273
     0
  0
XRECORD
  5
27A
102
{ACAD_REACTORS
330
279
102
}
330
279
100
AcDbXrecord
280
     1
102
MATERIAL
148
0.0
149
0.0
149
0.0
 93
        0
 94
      127
282
     0
 72
     1
 77
     1
171
     1
175
     1
179
     1
273
     0
  0
XRECORD
  5
25E
102
{ACAD_REACTORS
330
25D
102
}
330
25D
100
AcDbXrecord
280
     1
102
RTVSPropertyOp0
 70
     1
102
RTVSPropertyOp1
 70
     1
102
RTVSPropertyOp2
 70
     1
102
RTVSPropertyOp3
 70
     1
102
RTVSPropertyOp4
 70
     1
102
RTVSPropertyOp5
 70
     1
102
RTVSPropertyOp6
 70
     1
102
RTVSPropertyOp7
 70
     1
102
RTVSPropertyOp8
 70
     1
102
RTVSPropertyOp9
 70
     1
102
RTVSPropertyOp10
 70
     1
102
RTVSPropertyOp11
 70
     1
102
RTVSPropertyOp12
 70
     1
102
RTVSPropertyOp13
 70
     1
102
RTVSPropertyOp14
 70
     1
102
RTVSPropertyOp15
 70
     1
102
RTVSPropertyOp16
 70
     1
102
RTVSPropertyOp17
 70
     1
102
RTVSPropertyOp18
 70
     1
102
RTVSPropertyOp19
 70
     1
102
RTVSPropertyOp20
 70
     1
102
RTVSPropertyOp21
 70
     1
102
RTVSPropertyOp22
 70
     1
102
RTVSPropertyOp23
 70
     1
102
RTVSPropertyOp24
 70
     1
102
RTVSPropertyOp25
 70
     1
102
RTVSPropertyOp26
 70
     1
102
RTVSPropertyOp27
 70
     1
  0
XRECORD
  5
262
102
{ACAD_REACTORS
330
261
102
}
330
261
100
AcDbXrecord
280
     1
102
RTVSPropertyOp0
 70
     1
102
RTVSPropertyOp1
 70
     1
102
RTVSPropertyOp2
 70
     1
102
RTVSPropertyOp3
 70
     1
102
RTVSPropertyOp4
 70
     1
102
RTVSPropertyOp5
 70
     1
102
RTVSPropertyOp6
 70
     1
102
RTVSPropertyOp7
 70
     1
102
RTVSPropertyOp8
 70
     1
102
RTVSPropertyOp9
 70
     1
102
RTVSPropertyOp10
 70
     1
102
RTVSPropertyOp11
 70
     1
102
RTVSPropertyOp12
 70
     1
102
RTVSPropertyOp13
 70
     1
102
RTVSPropertyOp14
 70
     1
102
RTVSPropertyOp15
 70
     1
102
RTVSPropertyOp16
 70
     1
102
RTVSPropertyOp17
 70
     1
102
RTVSPropertyOp18
 70
     1
102
RTVSPropertyOp19
 70
     1
102
RTVSPropertyOp20
 70
     1
102
RTVSPropertyOp21
 70
     1
102
RTVSPropertyOp22
 70
     1
102
RTVSPropertyOp23
 70
     1
102
RTVSPropertyOp24
 70
     1
102
RTVSPropertyOp25
 70
     1
102
RTVSPropertyOp26
 70
     1
102
RTVSPropertyOp27
 70
     1
  0
XRECORD
  5
260
102
{ACAD_REACTORS
330
25F
102
}
330
25F
100
AcDbXrecord
280
     1
102
RTVSPropertyOp0
 70
     1
102
RTVSPropertyOp1
 70
     1
102
RTVSPropertyOp2
 70
     1
102
RTVSPropertyOp3
 70
     1
102
RTVSPropertyOp4
 70
     1
102
RTVSPropertyOp5
 70
     1
102
RTVSPropertyOp6
 70
     1
102
RTVSPropertyOp7
 70
     1
102
RTVSPropertyOp8
 70
     1
102
RTVSPropertyOp9
 70
     1
102
RTVSPropertyOp10
 70
     1
102
RTVSPropertyOp11
 70
     1
102
RTVSPropertyOp12
 70
     1
102
RTVSPropertyOp13
 70
     1
102
RTVSPropertyOp14
 70
     1
102
RTVSPropertyOp15
 70
     1
102
RTVSPropertyOp16
 70
     1
102
RTVSPropertyOp17
 70
     1
102
RTVSPropertyOp18
 70
     1
102
RTVSPropertyOp19
 70
     1
102
RTVSPropertyOp20
 70
     1
102
RTVSPropertyOp21
 70
     1
102
RTVSPropertyOp22
 70
     1
102
RTVSPropertyOp23
 70
     1
102
RTVSPropertyOp24
 70
     1
102
RTVSPropertyOp25
 70
     1
102
RTVSPropertyOp26
 70
     1
102
RTVSPropertyOp27
 70
     1
  0
XRECORD
  5
264
102
{ACAD_REACTORS
330
263
102
}
330
263
100
AcDbXrecord
280
     1
102
RTVSPropertyOp0
 70
     1
102
RTVSPropertyOp1
 70
     1
102
RTVSPropertyOp2
 70
     1
102
RTVSPropertyOp3
 70
     1
102
RTVSPropertyOp4
 70
     1
102
RTVSPropertyOp5
 70
     1
102
RTVSPropertyOp6
 70
     1
102
RTVSPropertyOp7
 70
     1
102
RTVSPropertyOp8
 70
     1
102
RTVSPropertyOp9
 70
     1
102
RTVSPropertyOp10
 70
     1
102
RTVSPropertyOp11
 70
     1
102
RTVSPropertyOp12
 70
     1
102
RTVSPropertyOp13
 70
     1
102
RTVSPropertyOp14
 70
     1
102
RTVSPropertyOp15
 70
     1
102
RTVSPropertyOp16
 70
     1
102
RTVSPropertyOp17
 70
     1
102
RTVSPropertyOp18
 70
     1
102
RTVSPropertyOp19
 70
     1
102
RTVSPropertyOp20
 70
     1
102
RTVSPropertyOp21
 70
     1
102
RTVSPropertyOp22
 70
     1
102
RTVSPropertyOp23
 70
     1
102
RTVSPropertyOp24
 70
     1
102
RTVSPropertyOp25
 70
     1
102
RTVSPropertyOp26
 70
     1
102
RTVSPropertyOp27
 70
     1
  0
XRECORD
  5
26C
102
{ACAD_REACTORS
330
26B
102
}
330
26B
100
AcDbXrecord
280
     1
102
RTVSPropertyOp0
 70
     1
102
RTVSPropertyOp1
 70
     1
102
RTVSPropertyOp2
 70
     1
102
RTVSPropertyOp3
 70
     1
102
RTVSPropertyOp4
 70
     1
102
RTVSPropertyOp5
 70
     1
102
RTVSPropertyOp6
 70
     1
102
RTVSPropertyOp7
 70
     1
102
RTVSPropertyOp8
 70
     1
102
RTVSPropertyOp9
 70
     1
102
RTVSPropertyOp10
 70
     1
102
RTVSPropertyOp11
 70
     1
102
RTVSPropertyOp12
 70
     1
102
RTVSPropertyOp13
 70
     1
102
RTVSPropertyOp14
 70
     1
102
RTVSPropertyOp15
 70
     1
102
RTVSPropertyOp16
 70
     1
102
RTVSPropertyOp17
 70
     1
102
RTVSPropertyOp18
 70
     1
102
RTVSPropertyOp19
 70
     1
102
RTVSPropertyOp20
 70
     1
102
RTVSPropertyOp21
 70
     1
102
RTVSPropertyOp22
 70
     1
102
RTVSPropertyOp23
 70
     1
102
RTVSPropertyOp24
 70
     1
102
RTVSPropertyOp25
 70
     1
102
RTVSPropertyOp26
 70
     1
102
RTVSPropertyOp27
 70
     1
  0
XRECORD
  5
274
102
{ACAD_REACTORS
330
273
102
}
330
273
100
AcDbXrecord
280
     1
102
RTVSPropertyOp0
 70
     1
102
RTVSPropertyOp1
 70
     1
102
RTVSPropertyOp2
 70
     1
102
RTVSPropertyOp3
 70
     1
102
RTVSPropertyOp4
 70
     1
102
RTVSPropertyOp5
 70
     1
102
RTVSPropertyOp6
 70
     1
102
RTVSPropertyOp7
 70
     1
102
RTVSPropertyOp8
 70
     1
102
RTVSPropertyOp9
 70
     1
102
RTVSPropertyOp10
 70
     1
102
RTVSPropertyOp11
 70
     1
102
RTVSPropertyOp12
 70
     1
102
RTVSPropertyOp13
 70
     1
102
RTVSPropertyOp14
 70
     1
102
RTVSPropertyOp15
 70
     1
102
RTVSPropertyOp16
 70
     1
102
RTVSPropertyOp17
 70
     1
102
RTVSPropertyOp18
 70
     1
102
RTVSPropertyOp19
 70
     1
102
RTVSPropertyOp20
 70
     1
102
RTVSPropertyOp21
 70
     1
102
RTVSPropertyOp22
 70
     1
102
RTVSPropertyOp23
 70
     1
102
RTVSPropertyOp24
 70
     1
102
RTVSPropertyOp25
 70
     1
102
RTVSPropertyOp26
 70
     1
102
RTVSPropertyOp27
 70
     1
  0
XRECORD
  5
268
102
{ACAD_REACTORS
330
267
102
}
330
267
100
AcDbXrecord
280
     1
102
RTVSPropertyOp0
 70
     1
102
RTVSPropertyOp1
 70
     1
102
RTVSPropertyOp2
 70
     1
102
RTVSPropertyOp3
 70
     1
102
RTVSPropertyOp4
 70
     1
102
RTVSPropertyOp5
 70
     1
102
RTVSPropertyOp6
 70
     1
102
RTVSPropertyOp7
 70
     1
102
RTVSPropertyOp8
 70
     1
102
RTVSPropertyOp9
 70
     1
102
RTVSPropertyOp10
 70
     1
102
RTVSPropertyOp11
 70
     1
102
RTVSPropertyOp12
 70
     1
102
RTVSPropertyOp13
 70
     1
102
RTVSPropertyOp14
 70
     1
102
RTVSPropertyOp15
 70
     1
102
RTVSPropertyOp16
 70
     1
102
RTVSPropertyOp17
 70
     1
102
RTVSPropertyOp18
 70
     1
102
RTVSPropertyOp19
 70
     1
102
RTVSPropertyOp20
 70
     1
102
RTVSPropertyOp21
 70
     1
102
RTVSPropertyOp22
 70
     1
102
RTVSPropertyOp23
 70
     1
102
RTVSPropertyOp24
 70
     1
102
RTVSPropertyOp25
 70
     1
102
RTVSPropertyOp26
 70
     1
102
RTVSPropertyOp27
 70
     1
  0
XRECORD
  5
26A
102
{ACAD_REACTORS
330
269
102
}
330
269
100
AcDbXrecord
280
     1
102
RTVSPropertyOp0
 70
     1
102
RTVSPropertyOp1
 70
     1
102
RTVSPropertyOp2
 70
     1
102
RTVSPropertyOp3
 70
     1
102
RTVSPropertyOp4
 70
     1
102
RTVSPropertyOp5
 70
     1
102
RTVSPropertyOp6
 70
     1
102
RTVSPropertyOp7
 70
     1
102
RTVSPropertyOp8
 70
     1
102
RTVSPropertyOp9
 70
     1
102
RTVSPropertyOp10
 70
     1
102
RTVSPropertyOp11
 70
     1
102
RTVSPropertyOp12
 70
     1
102
RTVSPropertyOp13
 70
     1
102
RTVSPropertyOp14
 70
     1
102
RTVSPropertyOp15
 70
     1
102
RTVSPropertyOp16
 70
     1
102
RTVSPropertyOp17
 70
     1
102
RTVSPropertyOp18
 70
     1
102
RTVSPropertyOp19
 70
     1
102
RTVSPropertyOp20
 70
     1
102
RTVSPropertyOp21
 70
     1
102
RTVSPropertyOp22
 70
     1
102
RTVSPropertyOp23
 70
     1
102
RTVSPropertyOp24
 70
     1
102
RTVSPropertyOp25
 70
     1
102
RTVSPropertyOp26
 70
     1
102
RTVSPropertyOp27
 70
     1
  0
XRECORD
  5
272
102
{ACAD_REACTORS
330
271
102
}
330
271
100
AcDbXrecord
280
     1
102
RTVSPropertyOp0
 70
     1
102
RTVSPropertyOp1
 70
     1
102
RTVSPropertyOp2
 70
     1
102
RTVSPropertyOp3
 70
     1
102
RTVSPropertyOp4
 70
     1
102
RTVSPropertyOp5
 70
     1
102
RTVSPropertyOp6
 70
     1
102
RTVSPropertyOp7
 70
     1
102
RTVSPropertyOp8
 70
     1
102
RTVSPropertyOp9
 70
     1
102
RTVSPropertyOp10
 70
     1
102
RTVSPropertyOp11
 70
     1
102
RTVSPropertyOp12
 70
     1
102
RTVSPropertyOp13
 70
     1
102
RTVSPropertyOp14
 70
     1
102
RTVSPropertyOp15
 70
     1
102
RTVSPropertyOp16
 70
     1
102
RTVSPropertyOp17
 70
     1
102
RTVSPropertyOp18
 70
     1
102
RTVSPropertyOp19
 70
     1
102
RTVSPropertyOp20
 70
     1
102
RTVSPropertyOp21
 70
     1
102
RTVSPropertyOp22
 70
     1
102
RTVSPropertyOp23
 70
     1
102
RTVSPropertyOp24
 70
     1
102
RTVSPropertyOp25
 70
     1
102
RTVSPropertyOp26
 70
     1
102
RTVSPropertyOp27
 70
     1
  0
XRECORD
  5
256
102
{ACAD_REACTORS
330
255
102
}
330
255
100
AcDbXrecord
280
     1
102
RTVSPropertyOp0
 70
     1
102
RTVSPropertyOp1
 70
     1
102
RTVSPropertyOp2
 70
     1
102
RTVSPropertyOp3
 70
     1
102
RTVSPropertyOp4
 70
     1
102
RTVSPropertyOp5
 70
     1
102
RTVSPropertyOp6
 70
     1
102
RTVSPropertyOp7
 70
     1
102
RTVSPropertyOp8
 70
     1
102
RTVSPropertyOp9
 70
     1
102
RTVSPropertyOp10
 70
     1
102
RTVSPropertyOp11
 70
     1
102
RTVSPropertyOp12
 70
     1
102
RTVSPropertyOp13
 70
     1
102
RTVSPropertyOp14
 70
     1
102
RTVSPropertyOp15
 70
     1
102
RTVSPropertyOp16
 70
     1
102
RTVSPropertyOp17
 70
     1
102
RTVSPropertyOp18
 70
     1
102
RTVSPropertyOp19
 70
     1
102
RTVSPropertyOp20
 70
     1
102
RTVSPropertyOp21
 70
     1
102
RTVSPropertyOp22
 70
     1
102
RTVSPropertyOp23
 70
     1
102
RTVSPropertyOp24
 70
     1
102
RTVSPropertyOp25
 70
     1
102
RTVSPropertyOp26
 70
     1
102
RTVSPropertyOp27
 70
     1
  0
XRECORD
  5
258
102
{ACAD_REACTORS
330
257
102
}
330
257
100
AcDbXrecord
280
     1
102
RTVSPropertyOp0
 70
     1
102
RTVSPropertyOp1
 70
     1
102
RTVSPropertyOp2
 70
     1
102
RTVSPropertyOp3
 70
     1
102
RTVSPropertyOp4
 70
     1
102
RTVSPropertyOp5
 70
     1
102
RTVSPropertyOp6
 70
     1
102
RTVSPropertyOp7
 70
     1
102
RTVSPropertyOp8
 70
     1
102
RTVSPropertyOp9
 70
     1
102
RTVSPropertyOp10
 70
     1
102
RTVSPropertyOp11
 70
     1
102
RTVSPropertyOp12
 70
     1
102
RTVSPropertyOp13
 70
     1
102
RTVSPropertyOp14
 70
     1
102
RTVSPropertyOp15
 70
     1
102
RTVSPropertyOp16
 70
     1
102
RTVSPropertyOp17
 70
     1
102
RTVSPropertyOp18
 70
     1
102
RTVSPropertyOp19
 70
     1
102
RTVSPropertyOp20
 70
     1
102
RTVSPropertyOp21
 70
     1
102
RTVSPropertyOp22
 70
     1
102
RTVSPropertyOp23
 70
     1
102
RTVSPropertyOp24
 70
     1
102
RTVSPropertyOp25
 70
     1
102
RTVSPropertyOp26
 70
     1
102
RTVSPropertyOp27
 70
     1
  0
XRECORD
  5
25A
102
{ACAD_REACTORS
330
259
102
}
330
259
100
AcDbXrecord
280
     1
102
RTVSPropertyOp0
 70
     1
102
RTVSPropertyOp1
 70
     1
102
RTVSPropertyOp2
 70
     1
102
RTVSPropertyOp3
 70
     1
102
RTVSPropertyOp4
 70
     1
102
RTVSPropertyOp5
 70
     1
102
RTVSPropertyOp6
 70
     1
102
RTVSPropertyOp7
 70
     1
102
RTVSPropertyOp8
 70
     1
102
RTVSPropertyOp9
 70
     1
102
RTVSPropertyOp10
 70
     1
102
RTVSPropertyOp11
 70
     1
102
RTVSPropertyOp12
 70
     1
102
RTVSPropertyOp13
 70
     1
102
RTVSPropertyOp14
 70
     1
102
RTVSPropertyOp15
 70
     1
102
RTVSPropertyOp16
 70
     1
102
RTVSPropertyOp17
 70
     1
102
RTVSPropertyOp18
 70
     1
102
RTVSPropertyOp19
 70
     1
102
RTVSPropertyOp20
 70
     1
102
RTVSPropertyOp21
 70
     1
102
RTVSPropertyOp22
 70
     1
102
RTVSPropertyOp23
 70
     1
102
RTVSPropertyOp24
 70
     1
102
RTVSPropertyOp25
 70
     1
102
RTVSPropertyOp26
 70
     1
102
RTVSPropertyOp27
 70
     1
  0
XRECORD
  5
25C
102
{ACAD_REACTORS
330
25B
102
}
330
25B
100
AcDbXrecord
280
     1
102
RTVSPropertyOp0
 70
     1
102
RTVSPropertyOp1
 70
     1
102
RTVSPropertyOp2
 70
     1
102
RTVSPropertyOp3
 70
     1
102
RTVSPropertyOp4
 70
     1
102
RTVSPropertyOp5
 70
     1
102
RTVSPropertyOp6
 70
     1
102
RTVSPropertyOp7
 70
     1
102
RTVSPropertyOp8
 70
     1
102
RTVSPropertyOp9
 70
     1
102
RTVSPropertyOp10
 70
     1
102
RTVSPropertyOp11
 70
     1
102
RTVSPropertyOp12
 70
     1
102
RTVSPropertyOp13
 70
     1
102
RTVSPropertyOp14
 70
     1
102
RTVSPropertyOp15
 70
     1
102
RTVSPropertyOp16
 70
     1
102
RTVSPropertyOp17
 70
     1
102
RTVSPropertyOp18
 70
     1
102
RTVSPropertyOp19
 70
     1
102
RTVSPropertyOp20
 70
     1
102
RTVSPropertyOp21
 70
     1
102
RTVSPropertyOp22
 70
     1
102
RTVSPropertyOp23
 70
     1
102
RTVSPropertyOp24
 70
     1
102
RTVSPropertyOp25
 70
     1
102
RTVSPropertyOp26
 70
     1
102
RTVSPropertyOp27
 70
     1
  0
XRECORD
  5
270
102
{ACAD_REACTORS
330
26F
102
}
330
26F
100
AcDbXrecord
280
     1
102
RTVSPropertyOp0
 70
     1
102
RTVSPropertyOp1
 70
     1
102
RTVSPropertyOp2
 70
     1
102
RTVSPropertyOp3
 70
     1
102
RTVSPropertyOp4
 70
     1
102
RTVSPropertyOp5
 70
     1
102
RTVSPropertyOp6
 70
     1
102
RTVSPropertyOp7
 70
     1
102
RTVSPropertyOp8
 70
     1
102
RTVSPropertyOp9
 70
     1
102
RTVSPropertyOp10
 70
     1
102
RTVSPropertyOp11
 70
     1
102
RTVSPropertyOp12
 70
     1
102
RTVSPropertyOp13
 70
     1
102
RTVSPropertyOp14
 70
     1
102
RTVSPropertyOp15
 70
     1
102
RTVSPropertyOp16
 70
     1
102
RTVSPropertyOp17
 70
     1
102
RTVSPropertyOp18
 70
     1
102
RTVSPropertyOp19
 70
     1
102
RTVSPropertyOp20
 70
     1
102
RTVSPropertyOp21
 70
     1
102
RTVSPropertyOp22
 70
     1
102
RTVSPropertyOp23
 70
     1
102
RTVSPropertyOp24
 70
     1
102
RTVSPropertyOp25
 70
     1
102
RTVSPropertyOp26
 70
     1
102
RTVSPropertyOp27
 70
     1
  0
XRECORD
  5
266
102
{ACAD_REACTORS
330
265
102
}
330
265
100
AcDbXrecord
280
     1
102
RTVSPropertyOp0
 70
     1
102
RTVSPropertyOp1
 70
     1
102
RTVSPropertyOp2
 70
     1
102
RTVSPropertyOp3
 70
     1
102
RTVSPropertyOp4
 70
     1
102
RTVSPropertyOp5
 70
     1
102
RTVSPropertyOp6
 70
     1
102
RTVSPropertyOp7
 70
     1
102
RTVSPropertyOp8
 70
     1
102
RTVSPropertyOp9
 70
     1
102
RTVSPropertyOp10
 70
     1
102
RTVSPropertyOp11
 70
     1
102
RTVSPropertyOp12
 70
     1
102
RTVSPropertyOp13
 70
     1
102
RTVSPropertyOp14
 70
     1
102
RTVSPropertyOp15
 70
     1
102
RTVSPropertyOp16
 70
     1
102
RTVSPropertyOp17
 70
     1
102
RTVSPropertyOp18
 70
     1
102
RTVSPropertyOp19
 70
     1
102
RTVSPropertyOp20
 70
     1
102
RTVSPropertyOp21
 70
     1
102
RTVSPropertyOp22
 70
     1
102
RTVSPropertyOp23
 70
     1
102
RTVSPropertyOp24
 70
     1
102
RTVSPropertyOp25
 70
     1
102
RTVSPropertyOp26
 70
     1
102
RTVSPropertyOp27
 70
     1
  0
XRECORD
  5
26E
102
{ACAD_REACTORS
330
26D
102
}
330
26D
100
AcDbXrecord
280
     1
102
RTVSPropertyOp0
 70
     1
102
RTVSPropertyOp1
 70
     1
102
RTVSPropertyOp2
 70
     1
102
RTVSPropertyOp3
 70
     1
102
RTVSPropertyOp4
 70
     1
102
RTVSPropertyOp5
 70
     1
102
RTVSPropertyOp6
 70
     1
102
RTVSPropertyOp7
 70
     1
102
RTVSPropertyOp8
 70
     1
102
RTVSPropertyOp9
 70
     1
102
RTVSPropertyOp10
 70
     1
102
RTVSPropertyOp11
 70
     1
102
RTVSPropertyOp12
 70
     1
102
RTVSPropertyOp13
 70
     1
102
RTVSPropertyOp14
 70
     1
102
RTVSPropertyOp15
 70
     1
102
RTVSPropertyOp16
 70
     1
102
RTVSPropertyOp17
 70
     1
102
RTVSPropertyOp18
 70
     1
102
RTVSPropertyOp19
 70
     1
102
RTVSPropertyOp20
 70
     1
102
RTVSPropertyOp21
 70
     1
102
RTVSPropertyOp22
 70
     1
102
RTVSPropertyOp23
 70
     1
102
RTVSPropertyOp24
 70
     1
102
RTVSPropertyOp25
 70
     1
102
RTVSPropertyOp26
 70
     1
102
RTVSPropertyOp27
 70
     1
  0
ENDSEC
  0
EOF
