  0
SECTION
  2
HEADER
  9
$ACADVER
  1
AC1009
  9
$INSBASE
 10
0.5
 20
0.0000000000000007
 30
0.0
  9
$EXTMIN
 10
-0.004394195978989
 20
-9.5391211667114533
 30
-0.0015258207003583
  9
$EXTMAX
 10
29.87841817117112
 20
9.5323832210550563
 30
0.0000000349246037
  9
$LIMMIN
 10
0.0
 20
0.0
  9
$LIMMAX
 10
144.0
 20
108.0
  9
$ORTHOMODE
 70
     1
  9
$REGENMODE
 70
     1
  9
$FILLMODE
 70
     1
  9
$QTEXTMODE
 70
     0
  9
$MIRRTEXT
 70
     1
  9
$DRAGMODE
 70
     2
  9
$LTSCALE
 40
4.0
  9
$OSMODE
 70
    37
  9
$ATTMODE
 70
     1
  9
$TEXTSIZE
 40
0.2
  9
$TRACEWID
 40
0.05
  9
$TEXTSTYLE
  7
STANDARD
  9
$CLAYER
  8
0
  9
$CELTYPE
  6
CONTINUOUS
  9
$CECOLOR
 62
   256
  9
$DIMSCALE
 40
1.0
  9
$DIMASZ
 40
0.18
  9
$DIMEXO
 40
0.0625
  9
$DIMDLI
 40
0.38
  9
$DIMRND
 40
0.0
  9
$DIMDLE
 40
0.0
  9
$DIMEXE
 40
0.18
  9
$DIMTP
 40
0.0
  9
$DIMTM
 40
0.0
  9
$DIMTXT
 40
0.18
  9
$DIMCEN
 40
0.09
  9
$DIMTSZ
 40
0.0
  9
$DIMTOL
 70
     0
  9
$DIMLIM
 70
     0
  9
$DIMTIH
 70
     1
  9
$DIMTOH
 70
     1
  9
$DIMSE1
 70
     0
  9
$DIMSE2
 70
     0
  9
$DIMTAD
 70
     0
  9
$DIMZIN
 70
     0
  9
$DIMBLK
  1

  9
$DIMASO
 70
     1
  9
$DIMSHO
 70
     1
  9
$DIMPOST
  1

  9
$DIMAPOST
  1

  9
$DIMALT
 70
     0
  9
$DIMALTD
 70
     2
  9
$DIMALTF
 40
25.399999999999999
  9
$DIMLFAC
 40
1.0
  9
$DIMTOFL
 70
     0
  9
$DIMTVP
 40
0.0
  9
$DIMTIX
 70
     0
  9
$DIMSOXD
 70
     0
  9
$DIMSAH
 70
     0
  9
$DIMBLK1
  1

  9
$DIMBLK2
  1

  9
$DIMSTYLE
  2
STANDARD
  9
$DIMCLRD
 70
     0
  9
$DIMCLRE
 70
     0
  9
$DIMCLRT
 70
     0
  9
$DIMTFAC
 40
1.0
  9
$DIMGAP
 40
0.09
  9
$LUNITS
 70
     2
  9
$LUPREC
 70
     8
  9
$SKETCHINC
 40
0.1
  9
$FILLETRAD
 40
0.0
  9
$AUNITS
 70
     0
  9
$AUPREC
 70
     8
  9
$MENU
  1
.
  9
$ELEVATION
 40
0.0
  9
$PELEVATION
 40
0.0
  9
$THICKNESS
 40
0.0
  9
$LIMCHECK
 70
     0
  9
$BLIPMODE
 70
     0
  9
$CHAMFERA
 40
0.0
  9
$CHAMFERB
 40
0.0
  9
$SKPOLY
 70
     0
  9
$TDCREATE
 40
2453353.4671258219
  9
$TDUPDATE
 40
2455212.4287407529
  9
$TDINDWG
 40
0.053709213
  9
$TDUSRTIMER
 40
0.2247739931
  9
$USRTIMER
 70
     1
  9
$ANGBASE
 50
0.0
  9
$ANGDIR
 70
     0
  9
$PDMODE
 70
     3
  9
$PDSIZE
 40
-2.0
  9
$PLINEWID
 40
0.0
  9
$COORDS
 70
     1
  9
$SPLFRAME
 70
     0
  9
$SPLINETYPE
 70
     6
  9
$SPLINESEGS
 70
     8
  9
$ATTDIA
 70
     0
  9
$ATTREQ
 70
     1
  9
$HANDLING
 70
     1
  9
$HANDSEED
  5
C13
  9
$SURFTAB1
 70
     6
  9
$SURFTAB2
 70
     6
  9
$SURFTYPE
 70
     6
  9
$SURFU
 70
     6
  9
$SURFV
 70
     6
  9
$UCSNAME
  2

  9
$UCSORG
 10
0.0
 20
0.0
 30
0.0
  9
$UCSXDIR
 10
1.0
 20
0.0
 30
0.0
  9
$UCSYDIR
 10
0.0
 20
1.0
 30
0.0
  9
$PUCSNAME
  2

  9
$PUCSORG
 10
0.0
 20
0.0
 30
0.0
  9
$PUCSXDIR
 10
1.0
 20
0.0
 30
0.0
  9
$PUCSYDIR
 10
0.0
 20
1.0
 30
0.0
  9
$USERI1
 70
     0
  9
$USERI2
 70
     0
  9
$USERI3
 70
     0
  9
$USERI4
 70
     0
  9
$USERI5
 70
     0
  9
$USERR1
 40
0.0
  9
$USERR2
 40
0.0
  9
$USERR3
 40
0.0
  9
$USERR4
 40
0.0
  9
$USERR5
 40
0.0
  9
$WORLDVIEW
 70
     1
  9
$SHADEDGE
 70
     3
  9
$SHADEDIF
 70
    70
  9
$TILEMODE
 70
     1
  9
$MAXACTVP
 70
    64
  9
$PLIMCHECK
 70
     0
  9
$PEXTMIN
 10
0.0
 20
0.0
 30
0.0
  9
$PEXTMAX
 10
0.0
 20
0.0
 30
0.0
  9
$PLIMMIN
 10
0.0
 20
0.0
  9
$PLIMMAX
 10
12.0
 20
9.0
  9
$UNITMODE
 70
     0
  9
$VISRETAIN
 70
     0
  9
$PLINEGEN
 70
     1
  9
$PSLTSCALE
 70
     0
  0
ENDSEC
  0
SECTION
  2
TABLES
  0
TABLE
  2
VPORT
 70
     1
  0
VPORT
  2
*ACTIVE
 70
     0
 10
0.0
 20
0.0
 11
1.0
 21
1.0
 12
13.316794079017001
 22
-1.1543088619723849
 13
0.0
 23
0.0
 14
1.0
 24
1.0
 15
0.0
 25
0.0
 16
0.0
 26
0.0
 36
1.0
 17
0.0
 27
0.0
 37
0.0
 40
28.690969920598171
 41
1.7257617728531851
 42
50.0
 43
0.0
 44
0.0
 50
0.0
 51
0.0
 71
    16
 72
   100
 73
     1
 74
     1
 75
     0
 76
     0
 77
     0
 78
     0
  0
ENDTAB
  0
TABLE
  2
LTYPE
 70
     1
  0
LTYPE
  2
CONTINUOUS
 70
     0
  3
CONTINUOUS
 72
    65
 73
     0
 40
0.0
  0
ENDTAB
  0
TABLE
  2
LAYER
 70
     2
  0
LAYER
  2
0
 70
     0
 62
     7
  6
CONTINUOUS
  0
LAYER
  2
DEFPOINTS
 70
     0
 62
     7
  6
CONTINUOUS
  0
ENDTAB
  0
TABLE
  2
STYLE
 70
     1
  0
STYLE
  2
STANDARD
 70
     0
 40
0.0
 41
1.0
 50
0.0
 71
     0
 42
0.2
  3
txt
  4

  0
ENDTAB
  0
TABLE
  2
VIEW
 70
     6
  0
ENDTAB
  0
TABLE
  2
UCS
 70
     0
  0
ENDTAB
  0
TABLE
  2
APPID
 70
     3
  0
APPID
  2
ACAD
 70
     0
  0
APPID
  2
ACAD_EXEMPT_FROM_CAD_STANDARDS
 70
     0
  0
APPID
  2
ACAD_MLEADERVER
 70
     0
  0
ENDTAB
  0
TABLE
  2
DIMSTYLE
 70
     1
  0
DIMSTYLE
  2
STANDARD
 70
     0
  3

  4

  5

  6

  7

 40
1.0
 41
0.18
 42
0.0625
 43
0.38
 44
0.18
 45
0.0
 46
0.0
 47
0.0
 48
0.0
140
0.18
141
0.09
142
0.0
143
25.399999999999999
144
1.0
145
0.0
146
1.0
147
0.09
 71
     0
 72
     0
 73
     1
 74
     1
 75
     0
 76
     0
 77
     0
 78
     0
170
     0
171
     2
172
     0
173
     0
174
     0
175
     0
176
     0
177
     0
178
     0
  0
ENDTAB
  0
ENDSEC
  0
SECTION
  2
BLOCKS
  0
BLOCK
  8
0
  2
$MODEL_SPACE
 70
     0
 10
0.0
 20
0.0
 30
0.0
  3
$MODEL_SPACE
  1

  0
ENDBLK
  5
21
  8
0
  0
BLOCK
 67
     1
  8
0
  2
$PAPER_SPACE
 70
     0
 10
0.0
 20
0.0
 30
0.0
  3
$PAPER_SPACE
  1

  0
ENDBLK
  5
76
 67
     1
  8
0
  0
BLOCK
  8
0
  2
*U4
 70
     1
 10
0.0
 20
0.0
 30
0.0
  3
*U4
  1

  0
TEXT
  5
1A2
  8
0
  6
CONTINUOUS
 62
     0
 10
5.3549818265996159
 20
-0.0899135163764809
 30
0.0
 40
0.18
  1
19.0621
  0
ENDBLK
  5
1A4
  8
0
  0
BLOCK
  8
0
  2
*U5
 70
     1
 10
0.0
 20
0.0
 30
0.0
  3
*U5
  1

  0
TEXT
  5
1A6
  8
0
  6
CONTINUOUS
 62
     0
 10
14.605817599826381
 20
4.0438384141087651
 30
0.0
 40
0.18
  1
29.2316
  0
ENDBLK
  5
1A8
  8
0
  0
BLOCK
  8
0
  2
*U6
 70
     1
 10
0.0
 20
0.0
 30
0.0
  3
*U6
  1

  0
TEXT
  5
1AA
  8
0
  6
CONTINUOUS
 62
     0
 10
14.66801215277777
 20
2.4276572599850712
 30
0.0
 40
0.18
  1
29.3640
  0
ENDBLK
  5
1AC
  8
0
  0
ENDSEC
  0
SECTION
  2
ENTITIES
  0
POLYLINE
  8
0
  5
1AD
  66
     1
 10
0.000000
 20
0.000000
 30
0.000000
  70
     8
  0
VERTEX
  8
0
  5
1AE
 10
1.51217
 20
9.53112
 30
0.000000
  70
    32
  0
VERTEX
  8
0
  5
1AF
 10
1.50053
 20
9.53105
 30
0.000000
  70
    32
  0
VERTEX
  8
0
  5
1B0
 10
1.48892
 20
9.53087
 30
0.000000
  70
    32
  0
VERTEX
  8
0
  5
1B1
 10
1.47733
 20
9.53057
 30
0.000000
  70
    32
  0
VERTEX
  8
0
  5
1B2
 10
1.46577
 20
9.53015
 30
0.000000
  70
    32
  0
VERTEX
  8
0
  5
1B3
 10
1.45423
 20
9.52962
 30
0.000000
  70
    32
  0
VERTEX
  8
0
  5
1B4
 10
1.44272
 20
9.52896
 30
0.000000
  70
    32
  0
VERTEX
  8
0
  5
1B5
 10
1.43123
 20
9.52819
 30
0.000000
  70
    32
  0
VERTEX
  8
0
  5
1B6
 10
1.41978
 20
9.52730
 30
0.000000
  70
    32
  0
VERTEX
  8
0
  5
1B7
 10
1.40835
 20
9.52629
 30
0.000000
  70
    32
  0
VERTEX
  8
0
  5
1B8
 10
1.39695
 20
9.52517
 30
0.000000
  70
    32
  0
VERTEX
  8
0
  5
1B9
 10
1.38558
 20
9.52393
 30
0.000000
  70
    32
  0
VERTEX
  8
0
  5
1BA
 10
1.37425
 20
9.52258
 30
0.000000
  70
    32
  0
VERTEX
  8
0
  5
1BB
 10
1.36294
 20
9.52112
 30
0.000000
  70
    32
  0
VERTEX
  8
0
  5
1BC
 10
1.35167
 20
9.51954
 30
0.000000
  70
    32
  0
VERTEX
  8
0
  5
1BD
 10
1.34044
 20
9.51786
 30
0.000000
  70
    32
  0
VERTEX
  8
0
  5
1BE
 10
1.32923
 20
9.51606
 30
0.000000
  70
    32
  0
VERTEX
  8
0
  5
1BF
 10
1.31807
 20
9.51415
 30
0.000000
  70
    32
  0
VERTEX
  8
0
  5
1C0
 10
1.30694
 20
9.51213
 30
0.000000
  70
    32
  0
VERTEX
  8
0
  5
1C1
 10
1.29585
 20
9.51000
 30
0.000000
  70
    32
  0
VERTEX
  8
0
  5
1C2
 10
1.28480
 20
9.50776
 30
0.000000
  70
    32
  0
VERTEX
  8
0
  5
1C3
 10
1.27378
 20
9.50542
 30
0.000000
  70
    32
  0
VERTEX
  8
0
  5
1C4
 10
1.26281
 20
9.50296
 30
0.000000
  70
    32
  0
VERTEX
  8
0
  5
1C5
 10
1.25188
 20
9.50040
 30
0.000000
  70
    32
  0
VERTEX
  8
0
  5
1C6
 10
1.24099
 20
9.49774
 30
0.000000
  70
    32
  0
VERTEX
  8
0
  5
1C7
 10
1.23014
 20
9.49497
 30
0.000000
  70
    32
  0
VERTEX
  8
0
  5
1C8
 10
1.21934
 20
9.49209
 30
0.000000
  70
    32
  0
VERTEX
  8
0
  5
1C9
 10
1.20858
 20
9.48911
 30
0.000000
  70
    32
  0
VERTEX
  8
0
  5
1CA
 10
1.19787
 20
9.48603
 30
0.000000
  70
    32
  0
VERTEX
  8
0
  5
1CB
 10
1.18721
 20
9.48284
 30
0.000000
  70
    32
  0
VERTEX
  8
0
  5
1CC
 10
1.17659
 20
9.47955
 30
0.000000
  70
    32
  0
VERTEX
  8
0
  5
1CD
 10
1.16602
 20
9.47616
 30
0.000000
  70
    32
  0
VERTEX
  8
0
  5
1CE
 10
1.15550
 20
9.47267
 30
0.000000
  70
    32
  0
VERTEX
  8
0
  5
1CF
 10
1.14503
 20
9.46908
 30
0.000000
  70
    32
  0
VERTEX
  8
0
  5
1D0
 10
1.13461
 20
9.46538
 30
0.000000
  70
    32
  0
VERTEX
  8
0
  5
1D1
 10
1.12424
 20
9.46159
 30
0.000000
  70
    32
  0
VERTEX
  8
0
  5
1D2
 10
1.11393
 20
9.45771
 30
0.000000
  70
    32
  0
VERTEX
  8
0
  5
1D3
 10
1.10367
 20
9.45372
 30
0.000000
  70
    32
  0
VERTEX
  8
0
  5
1D4
 10
1.09346
 20
9.44964
 30
0.000000
  70
    32
  0
VERTEX
  8
0
  5
1D5
 10
1.08331
 20
9.44546
 30
0.000000
  70
    32
  0
VERTEX
  8
0
  5
1D6
 10
1.07322
 20
9.44118
 30
0.000000
  70
    32
  0
VERTEX
  8
0
  5
1D7
 10
1.06318
 20
9.43681
 30
0.000000
  70
    32
  0
VERTEX
  8
0
  5
1D8
 10
1.05320
 20
9.43235
 30
0.000000
  70
    32
  0
VERTEX
  8
0
  5
1D9
 10
1.04328
 20
9.42779
 30
0.000000
  70
    32
  0
VERTEX
  8
0
  5
1DA
 10
1.03342
 20
9.42314
 30
0.000000
  70
    32
  0
VERTEX
  8
0
  5
1DB
 10
1.02362
 20
9.41839
 30
0.000000
  70
    32
  0
VERTEX
  8
0
  5
1DC
 10
1.01388
 20
9.41356
 30
0.000000
  70
    32
  0
VERTEX
  8
0
  5
1DD
 10
1.00421
 20
9.40863
 30
0.000000
  70
    32
  0
VERTEX
  8
0
  5
1DE
 10
0.994595
 20
9.40361
 30
0.000000
  70
    32
  0
VERTEX
  8
0
  5
1DF
 10
0.985047
 20
9.39851
 30
0.000000
  70
    32
  0
VERTEX
  8
0
  5
1E0
 10
0.975565
 20
9.39331
 30
0.000000
  70
    32
  0
VERTEX
  8
0
  5
1E1
 10
0.966148
 20
9.38803
 30
0.000000
  70
    32
  0
VERTEX
  8
0
  5
1E2
 10
0.956798
 20
9.38265
 30
0.000000
  70
    32
  0
VERTEX
  8
0
  5
1E3
 10
0.947516
 20
9.37719
 30
0.000000
  70
    32
  0
VERTEX
  8
0
  5
1E4
 10
0.938303
 20
9.37165
 30
0.000000
  70
    32
  0
VERTEX
  8
0
  5
1E5
 10
0.929159
 20
9.36601
 30
0.000000
  70
    32
  0
VERTEX
  8
0
  5
1E6
 10
0.920086
 20
9.36030
 30
0.000000
  70
    32
  0
VERTEX
  8
0
  5
1E7
 10
0.911084
 20
9.35449
 30
0.000000
  70
    32
  0
VERTEX
  8
0
  5
1E8
 10
0.902154
 20
9.34861
 30
0.000000
  70
    32
  0
VERTEX
  8
0
  5
1E9
 10
0.893297
 20
9.34264
 30
0.000000
  70
    32
  0
VERTEX
  8
0
  5
1EA
 10
0.884515
 20
9.33659
 30
0.000000
  70
    32
  0
VERTEX
  8
0
  5
1EB
 10
0.875807
 20
9.33045
 30
0.000000
  70
    32
  0
VERTEX
  8
0
  5
1EC
 10
0.867175
 20
9.32424
 30
0.000000
  70
    32
  0
VERTEX
  8
0
  5
1ED
 10
0.858620
 20
9.31794
 30
0.000000
  70
    32
  0
VERTEX
  8
0
  5
1EE
 10
0.850142
 20
9.31157
 30
0.000000
  70
    32
  0
VERTEX
  8
0
  5
1EF
 10
0.841743
 20
9.30511
 30
0.000000
  70
    32
  0
VERTEX
  8
0
  5
1F0
 10
0.833423
 20
9.29858
 30
0.000000
  70
    32
  0
VERTEX
  8
0
  5
1F1
 10
0.825183
 20
9.29196
 30
0.000000
  70
    32
  0
VERTEX
  8
0
  5
1F2
 10
0.817024
 20
9.28527
 30
0.000000
  70
    32
  0
VERTEX
  8
0
  5
1F3
 10
0.808947
 20
9.27851
 30
0.000000
  70
    32
  0
VERTEX
  8
0
  5
1F4
 10
0.800953
 20
9.27166
 30
0.000000
  70
    32
  0
VERTEX
  8
0
  5
1F5
 10
0.793043
 20
9.26475
 30
0.000000
  70
    32
  0
VERTEX
  8
0
  5
1F6
 10
0.785218
 20
9.25775
 30
0.000000
  70
    32
  0
VERTEX
  8
0
  5
1F7
 10
0.777478
 20
9.25069
 30
0.000000
  70
    32
  0
VERTEX
  8
0
  5
1F8
 10
0.769824
 20
9.24355
 30
0.000000
  70
    32
  0
VERTEX
  8
0
  5
1F9
 10
0.762258
 20
9.23633
 30
0.000000
  70
    32
  0
VERTEX
  8
0
  5
1FA
 10
0.754779
 20
9.22905
 30
0.000000
  70
    32
  0
VERTEX
  8
0
  5
1FB
 10
0.747390
 20
9.22169
 30
0.000000
  70
    32
  0
VERTEX
  8
0
  5
1FC
 10
0.740091
 20
9.21426
 30
0.000000
  70
    32
  0
VERTEX
  8
0
  5
1FD
 10
0.732883
 20
9.20676
 30
0.000000
  70
    32
  0
VERTEX
  8
0
  5
1FE
 10
0.725766
 20
9.19919
 30
0.000000
  70
    32
  0
VERTEX
  8
0
  5
1FF
 10
0.718742
 20
9.19156
 30
0.000000
  70
    32
  0
VERTEX
  8
0
  5
200
 10
0.711811
 20
9.18385
 30
0.000000
  70
    32
  0
VERTEX
  8
0
  5
201
 10
0.704975
 20
9.17608
 30
0.000000
  70
    32
  0
VERTEX
  8
0
  5
202
 10
0.698234
 20
9.16824
 30
0.000000
  70
    32
  0
VERTEX
  8
0
  5
203
 10
0.691589
 20
9.16033
 30
0.000000
  70
    32
  0
VERTEX
  8
0
  5
204
 10
0.685041
 20
9.15236
 30
0.000000
  70
    32
  0
VERTEX
  8
0
  5
205
 10
0.678591
 20
9.14432
 30
0.000000
  70
    32
  0
VERTEX
  8
0
  5
206
 10
0.672240
 20
9.13622
 30
0.000000
  70
    32
  0
VERTEX
  8
0
  5
207
 10
0.665988
 20
9.12806
 30
0.000000
  70
    32
  0
VERTEX
  8
0
  5
208
 10
0.659837
 20
9.11983
 30
0.000000
  70
    32
  0
VERTEX
  8
0
  5
209
 10
0.653787
 20
9.11154
 30
0.000000
  70
    32
  0
VERTEX
  8
0
  5
20A
 10
0.647840
 20
9.10318
 30
0.000000
  70
    32
  0
VERTEX
  8
0
  5
20B
 10
0.641996
 20
9.09477
 30
0.000000
  70
    32
  0
VERTEX
  8
0
  5
20C
 10
0.636256
 20
9.08630
 30
0.000000
  70
    32
  0
VERTEX
  8
0
  5
20D
 10
0.630621
 20
9.07776
 30
0.000000
  70
    32
  0
VERTEX
  8
0
  5
20E
 10
0.625092
 20
9.06917
 30
0.000000
  70
    32
  0
VERTEX
  8
0
  5
20F
 10
0.619669
 20
9.06052
 30
0.000000
  70
    32
  0
VERTEX
  8
0
  5
210
 10
0.614355
 20
9.05181
 30
0.000000
  70
    32
  0
VERTEX
  8
0
  5
211
 10
0.609148
 20
9.04304
 30
0.000000
  70
    32
  0
VERTEX
  8
0
  5
212
 10
0.604052
 20
9.03422
 30
0.000000
  70
    32
  0
VERTEX
  8
0
  5
213
 10
0.599065
 20
9.02534
 30
0.000000
  70
    32
  0
VERTEX
  8
0
  5
214
 10
0.594190
 20
9.01640
 30
0.000000
  70
    32
  0
VERTEX
  8
0
  5
215
 10
0.589426
 20
9.00741
 30
0.000000
  70
    32
  0
VERTEX
  8
0
  5
216
 10
0.584776
 20
8.99837
 30
0.000000
  70
    32
  0
VERTEX
  8
0
  5
217
 10
0.580239
 20
8.98928
 30
0.000000
  70
    32
  0
VERTEX
  8
0
  5
218
 10
0.575818
 20
8.98013
 30
0.000000
  70
    32
  0
VERTEX
  8
0
  5
219
 10
0.571511
 20
8.97092
 30
0.000000
  70
    32
  0
VERTEX
  8
0
  5
21A
 10
0.567322
 20
8.96167
 30
0.000000
  70
    32
  0
VERTEX
  8
0
  5
21B
 10
0.563249
 20
8.95237
 30
0.000000
  70
    32
  0
VERTEX
  8
0
  5
21C
 10
0.559295
 20
8.94302
 30
0.000000
  70
    32
  0
VERTEX
  8
0
  5
21D
 10
0.555460
 20
8.93361
 30
0.000000
  70
    32
  0
VERTEX
  8
0
  5
21E
 10
0.551745
 20
8.92416
 30
0.000000
  70
    32
  0
VERTEX
  8
0
  5
21F
 10
0.548151
 20
8.91466
 30
0.000000
  70
    32
  0
VERTEX
  8
0
  5
220
 10
0.544679
 20
8.90512
 30
0.000000
  70
    32
  0
VERTEX
  8
0
  5
221
 10
0.541329
 20
8.89552
 30
0.000000
  70
    32
  0
VERTEX
  8
0
  5
222
 10
0.538103
 20
8.88588
 30
0.000000
  70
    32
  0
VERTEX
  8
0
  5
223
 10
0.535001
 20
8.87620
 30
0.000000
  70
    32
  0
VERTEX
  8
0
  5
224
 10
0.532025
 20
8.86647
 30
0.000000
  70
    32
  0
VERTEX
  8
0
  5
225
 10
0.529175
 20
8.85669
 30
0.000000
  70
    32
  0
VERTEX
  8
0
  5
226
 10
0.526452
 20
8.84687
 30
0.000000
  70
    32
  0
VERTEX
  8
0
  5
227
 10
0.523857
 20
8.83701
 30
0.000000
  70
    32
  0
VERTEX
  8
0
  5
228
 10
0.521391
 20
8.82711
 30
0.000000
  70
    32
  0
VERTEX
  8
0
  5
229
 10
0.519054
 20
8.81717
 30
0.000000
  70
    32
  0
VERTEX
  8
0
  5
22A
 10
0.516849
 20
8.80718
 30
0.000000
  70
    32
  0
VERTEX
  8
0
  5
22B
 10
0.514775
 20
8.79715
 30
0.000000
  70
    32
  0
VERTEX
  8
0
  5
22C
 10
0.512833
 20
8.78709
 30
0.000000
  70
    32
  0
VERTEX
  8
0
  5
22D
 10
0.511024
 20
8.77698
 30
0.000000
  70
    32
  0
SEQEND
  8
0
  5
22E
  0
POLYLINE
  8
0
  5
22F
  66
     1
 10
0.000000
 20
0.000000
 30
0.000000
  70
     8
  0
VERTEX
  8
0
  5
230
 10
0.500000
 20
-8.64280
 30
0.000000
  70
    32
  0
VERTEX
  8
0
  5
231
 10
0.500001
 20
-8.64385
 30
0.000000
  70
    32
  0
VERTEX
  8
0
  5
232
 10
0.500003
 20
-8.64491
 30
0.000000
  70
    32
  0
VERTEX
  8
0
  5
233
 10
0.500006
 20
-8.64597
 30
0.000000
  70
    32
  0
VERTEX
  8
0
  5
234
 10
0.500011
 20
-8.64703
 30
0.000000
  70
    32
  0
VERTEX
  8
0
  5
235
 10
0.500018
 20
-8.64809
 30
0.000000
  70
    32
  0
VERTEX
  8
0
  5
236
 10
0.500025
 20
-8.64914
 30
0.000000
  70
    32
  0
VERTEX
  8
0
  5
237
 10
0.500034
 20
-8.65020
 30
0.000000
  70
    32
  0
VERTEX
  8
0
  5
238
 10
0.500045
 20
-8.65126
 30
0.000000
  70
    32
  0
VERTEX
  8
0
  5
239
 10
0.500057
 20
-8.65232
 30
0.000000
  70
    32
  0
VERTEX
  8
0
  5
23A
 10
0.500070
 20
-8.65338
 30
0.000000
  70
    32
  0
VERTEX
  8
0
  5
23B
 10
0.500085
 20
-8.65443
 30
0.000000
  70
    32
  0
VERTEX
  8
0
  5
23C
 10
0.500101
 20
-8.65549
 30
0.000000
  70
    32
  0
VERTEX
  8
0
  5
23D
 10
0.500119
 20
-8.65655
 30
0.000000
  70
    32
  0
VERTEX
  8
0
  5
23E
 10
0.500138
 20
-8.65761
 30
0.000000
  70
    32
  0
VERTEX
  8
0
  5
23F
 10
0.500158
 20
-8.65866
 30
0.000000
  70
    32
  0
VERTEX
  8
0
  5
240
 10
0.500180
 20
-8.65972
 30
0.000000
  70
    32
  0
VERTEX
  8
0
  5
241
 10
0.500203
 20
-8.66078
 30
0.000000
  70
    32
  0
VERTEX
  8
0
  5
242
 10
0.500227
 20
-8.66184
 30
0.000000
  70
    32
  0
VERTEX
  8
0
  5
243
 10
0.500253
 20
-8.66290
 30
0.000000
  70
    32
  0
VERTEX
  8
0
  5
244
 10
0.500281
 20
-8.66395
 30
0.000000
  70
    32
  0
VERTEX
  8
0
  5
245
 10
0.500309
 20
-8.66501
 30
0.000000
  70
    32
  0
VERTEX
  8
0
  5
246
 10
0.500339
 20
-8.66607
 30
0.000000
  70
    32
  0
VERTEX
  8
0
  5
247
 10
0.500371
 20
-8.66713
 30
0.000000
  70
    32
  0
VERTEX
  8
0
  5
248
 10
0.500404
 20
-8.66818
 30
0.000000
  70
    32
  0
VERTEX
  8
0
  5
249
 10
0.500438
 20
-8.66924
 30
0.000000
  70
    32
  0
VERTEX
  8
0
  5
24A
 10
0.500474
 20
-8.67030
 30
0.000000
  70
    32
  0
VERTEX
  8
0
  5
24B
 10
0.500511
 20
-8.67135
 30
0.000000
  70
    32
  0
VERTEX
  8
0
  5
24C
 10
0.500549
 20
-8.67241
 30
0.000000
  70
    32
  0
VERTEX
  8
0
  5
24D
 10
0.500589
 20
-8.67347
 30
0.000000
  70
    32
  0
VERTEX
  8
0
  5
24E
 10
0.500630
 20
-8.67453
 30
0.000000
  70
    32
  0
VERTEX
  8
0
  5
24F
 10
0.500672
 20
-8.67558
 30
0.000000
  70
    32
  0
VERTEX
  8
0
  5
250
 10
0.500716
 20
-8.67664
 30
0.000000
  70
    32
  0
VERTEX
  8
0
  5
251
 10
0.500762
 20
-8.67770
 30
0.000000
  70
    32
  0
VERTEX
  8
0
  5
252
 10
0.500808
 20
-8.67875
 30
0.000000
  70
    32
  0
VERTEX
  8
0
  5
253
 10
0.500856
 20
-8.67981
 30
0.000000
  70
    32
  0
VERTEX
  8
0
  5
254
 10
0.500906
 20
-8.68087
 30
0.000000
  70
    32
  0
VERTEX
  8
0
  5
255
 10
0.500956
 20
-8.68192
 30
0.000000
  70
    32
  0
VERTEX
  8
0
  5
256
 10
0.501009
 20
-8.68298
 30
0.000000
  70
    32
  0
VERTEX
  8
0
  5
257
 10
0.501062
 20
-8.68404
 30
0.000000
  70
    32
  0
VERTEX
  8
0
  5
258
 10
0.501117
 20
-8.68509
 30
0.000000
  70
    32
  0
VERTEX
  8
0
  5
259
 10
0.501173
 20
-8.68615
 30
0.000000
  70
    32
  0
VERTEX
  8
0
  5
25A
 10
0.501231
 20
-8.68721
 30
0.000000
  70
    32
  0
VERTEX
  8
0
  5
25B
 10
0.501290
 20
-8.68826
 30
0.000000
  70
    32
  0
VERTEX
  8
0
  5
25C
 10
0.501350
 20
-8.68932
 30
0.000000
  70
    32
  0
VERTEX
  8
0
  5
25D
 10
0.501412
 20
-8.69037
 30
0.000000
  70
    32
  0
VERTEX
  8
0
  5
25E
 10
0.501475
 20
-8.69143
 30
0.000000
  70
    32
  0
VERTEX
  8
0
  5
25F
 10
0.501540
 20
-8.69249
 30
0.000000
  70
    32
  0
VERTEX
  8
0
  5
260
 10
0.501605
 20
-8.69354
 30
0.000000
  70
    32
  0
VERTEX
  8
0
  5
261
 10
0.501673
 20
-8.69460
 30
0.000000
  70
    32
  0
VERTEX
  8
0
  5
262
 10
0.501741
 20
-8.69565
 30
0.000000
  70
    32
  0
VERTEX
  8
0
  5
263
 10
0.501811
 20
-8.69671
 30
0.000000
  70
    32
  0
VERTEX
  8
0
  5
264
 10
0.501882
 20
-8.69776
 30
0.000000
  70
    32
  0
VERTEX
  8
0
  5
265
 10
0.501955
 20
-8.69882
 30
0.000000
  70
    32
  0
VERTEX
  8
0
  5
266
 10
0.502029
 20
-8.69987
 30
0.000000
  70
    32
  0
VERTEX
  8
0
  5
267
 10
0.502104
 20
-8.70093
 30
0.000000
  70
    32
  0
VERTEX
  8
0
  5
268
 10
0.502181
 20
-8.70198
 30
0.000000
  70
    32
  0
VERTEX
  8
0
  5
269
 10
0.502259
 20
-8.70304
 30
0.000000
  70
    32
  0
VERTEX
  8
0
  5
26A
 10
0.502338
 20
-8.70409
 30
0.000000
  70
    32
  0
VERTEX
  8
0
  5
26B
 10
0.502419
 20
-8.70515
 30
0.000000
  70
    32
  0
VERTEX
  8
0
  5
26C
 10
0.502501
 20
-8.70620
 30
0.000000
  70
    32
  0
VERTEX
  8
0
  5
26D
 10
0.502585
 20
-8.70725
 30
0.000000
  70
    32
  0
VERTEX
  8
0
  5
26E
 10
0.502669
 20
-8.70831
 30
0.000000
  70
    32
  0
VERTEX
  8
0
  5
26F
 10
0.502756
 20
-8.70936
 30
0.000000
  70
    32
  0
VERTEX
  8
0
  5
270
 10
0.502843
 20
-8.71042
 30
0.000000
  70
    32
  0
VERTEX
  8
0
  5
271
 10
0.502932
 20
-8.71147
 30
0.000000
  70
    32
  0
VERTEX
  8
0
  5
272
 10
0.503022
 20
-8.71252
 30
0.000000
  70
    32
  0
VERTEX
  8
0
  5
273
 10
0.503114
 20
-8.71358
 30
0.000000
  70
    32
  0
VERTEX
  8
0
  5
274
 10
0.503206
 20
-8.71463
 30
0.000000
  70
    32
  0
VERTEX
  8
0
  5
275
 10
0.503301
 20
-8.71568
 30
0.000000
  70
    32
  0
VERTEX
  8
0
  5
276
 10
0.503396
 20
-8.71674
 30
0.000000
  70
    32
  0
VERTEX
  8
0
  5
277
 10
0.503493
 20
-8.71779
 30
0.000000
  70
    32
  0
VERTEX
  8
0
  5
278
 10
0.503591
 20
-8.71884
 30
0.000000
  70
    32
  0
VERTEX
  8
0
  5
279
 10
0.503691
 20
-8.71990
 30
0.000000
  70
    32
  0
VERTEX
  8
0
  5
27A
 10
0.503792
 20
-8.72095
 30
0.000000
  70
    32
  0
VERTEX
  8
0
  5
27B
 10
0.503894
 20
-8.72200
 30
0.000000
  70
    32
  0
VERTEX
  8
0
  5
27C
 10
0.503997
 20
-8.72305
 30
0.000000
  70
    32
  0
VERTEX
  8
0
  5
27D
 10
0.504102
 20
-8.72410
 30
0.000000
  70
    32
  0
VERTEX
  8
0
  5
27E
 10
0.504209
 20
-8.72516
 30
0.000000
  70
    32
  0
VERTEX
  8
0
  5
27F
 10
0.504316
 20
-8.72621
 30
0.000000
  70
    32
  0
VERTEX
  8
0
  5
280
 10
0.504425
 20
-8.72726
 30
0.000000
  70
    32
  0
VERTEX
  8
0
  5
281
 10
0.504535
 20
-8.72831
 30
0.000000
  70
    32
  0
VERTEX
  8
0
  5
282
 10
0.504647
 20
-8.72936
 30
0.000000
  70
    32
  0
VERTEX
  8
0
  5
283
 10
0.504760
 20
-8.73041
 30
0.000000
  70
    32
  0
VERTEX
  8
0
  5
284
 10
0.504874
 20
-8.73146
 30
0.000000
  70
    32
  0
VERTEX
  8
0
  5
285
 10
0.504989
 20
-8.73252
 30
0.000000
  70
    32
  0
VERTEX
  8
0
  5
286
 10
0.505106
 20
-8.73357
 30
0.000000
  70
    32
  0
VERTEX
  8
0
  5
287
 10
0.505224
 20
-8.73462
 30
0.000000
  70
    32
  0
VERTEX
  8
0
  5
288
 10
0.505344
 20
-8.73567
 30
0.000000
  70
    32
  0
VERTEX
  8
0
  5
289
 10
0.505465
 20
-8.73672
 30
0.000000
  70
    32
  0
VERTEX
  8
0
  5
28A
 10
0.505587
 20
-8.73777
 30
0.000000
  70
    32
  0
VERTEX
  8
0
  5
28B
 10
0.505710
 20
-8.73882
 30
0.000000
  70
    32
  0
VERTEX
  8
0
  5
28C
 10
0.505835
 20
-8.73987
 30
0.000000
  70
    32
  0
VERTEX
  8
0
  5
28D
 10
0.505961
 20
-8.74091
 30
0.000000
  70
    32
  0
VERTEX
  8
0
  5
28E
 10
0.506089
 20
-8.74196
 30
0.000000
  70
    32
  0
VERTEX
  8
0
  5
28F
 10
0.506217
 20
-8.74301
 30
0.000000
  70
    32
  0
VERTEX
  8
0
  5
290
 10
0.506347
 20
-8.74406
 30
0.000000
  70
    32
  0
VERTEX
  8
0
  5
291
 10
0.506479
 20
-8.74511
 30
0.000000
  70
    32
  0
VERTEX
  8
0
  5
292
 10
0.506611
 20
-8.74616
 30
0.000000
  70
    32
  0
VERTEX
  8
0
  5
293
 10
0.506745
 20
-8.74721
 30
0.000000
  70
    32
  0
VERTEX
  8
0
  5
294
 10
0.506880
 20
-8.74825
 30
0.000000
  70
    32
  0
VERTEX
  8
0
  5
295
 10
0.507017
 20
-8.74930
 30
0.000000
  70
    32
  0
VERTEX
  8
0
  5
296
 10
0.507155
 20
-8.75035
 30
0.000000
  70
    32
  0
VERTEX
  8
0
  5
297
 10
0.507294
 20
-8.75140
 30
0.000000
  70
    32
  0
VERTEX
  8
0
  5
298
 10
0.507435
 20
-8.75244
 30
0.000000
  70
    32
  0
VERTEX
  8
0
  5
299
 10
0.507576
 20
-8.75349
 30
0.000000
  70
    32
  0
VERTEX
  8
0
  5
29A
 10
0.507720
 20
-8.75454
 30
0.000000
  70
    32
  0
VERTEX
  8
0
  5
29B
 10
0.507864
 20
-8.75558
 30
0.000000
  70
    32
  0
VERTEX
  8
0
  5
29C
 10
0.508010
 20
-8.75663
 30
0.000000
  70
    32
  0
VERTEX
  8
0
  5
29D
 10
0.508157
 20
-8.75768
 30
0.000000
  70
    32
  0
VERTEX
  8
0
  5
29E
 10
0.508305
 20
-8.75872
 30
0.000000
  70
    32
  0
VERTEX
  8
0
  5
29F
 10
0.508455
 20
-8.75977
 30
0.000000
  70
    32
  0
VERTEX
  8
0
  5
2A0
 10
0.508606
 20
-8.76081
 30
0.000000
  70
    32
  0
VERTEX
  8
0
  5
2A1
 10
0.508758
 20
-8.76186
 30
0.000000
  70
    32
  0
VERTEX
  8
0
  5
2A2
 10
0.508911
 20
-8.76290
 30
0.000000
  70
    32
  0
VERTEX
  8
0
  5
2A3
 10
0.509066
 20
-8.76395
 30
0.000000
  70
    32
  0
VERTEX
  8
0
  5
2A4
 10
0.509222
 20
-8.76499
 30
0.000000
  70
    32
  0
VERTEX
  8
0
  5
2A5
 10
0.509380
 20
-8.76604
 30
0.000000
  70
    32
  0
VERTEX
  8
0
  5
2A6
 10
0.509538
 20
-8.76708
 30
0.000000
  70
    32
  0
VERTEX
  8
0
  5
2A7
 10
0.509698
 20
-8.76813
 30
0.000000
  70
    32
  0
VERTEX
  8
0
  5
2A8
 10
0.509859
 20
-8.76917
 30
0.000000
  70
    32
  0
VERTEX
  8
0
  5
2A9
 10
0.510022
 20
-8.77021
 30
0.000000
  70
    32
  0
VERTEX
  8
0
  5
2AA
 10
0.510186
 20
-8.77126
 30
0.000000
  70
    32
  0
VERTEX
  8
0
  5
2AB
 10
0.510351
 20
-8.77230
 30
0.000000
  70
    32
  0
VERTEX
  8
0
  5
2AC
 10
0.510517
 20
-8.77334
 30
0.000000
  70
    32
  0
VERTEX
  8
0
  5
2AD
 10
0.510685
 20
-8.77438
 30
0.000000
  70
    32
  0
VERTEX
  8
0
  5
2AE
 10
0.510854
 20
-8.77542
 30
0.000000
  70
    32
  0
VERTEX
  8
0
  5
2AF
 10
0.511024
 20
-8.77647
 30
0.000000
  70
    32
  0
SEQEND
  8
0
  5
2B0
  0
POLYLINE
  8
0
  5
2B1
  66
     1
 10
0.000000
 20
0.000000
 30
0.000000
  70
     8
  0
VERTEX
  8
0
  5
2B2
 10
6.39973
 20
9.44929
 30
0.000000
  70
    32
  0
VERTEX
  8
0
  5
2B3
 10
6.39782
 20
9.45054
 30
0.000000
  70
    32
  0
VERTEX
  8
0
  5
2B4
 10
6.39590
 20
9.45178
 30
0.000000
  70
    32
  0
VERTEX
  8
0
  5
2B5
 10
6.39398
 20
9.45301
 30
0.000000
  70
    32
  0
VERTEX
  8
0
  5
2B6
 10
6.39205
 20
9.45424
 30
0.000000
  70
    32
  0
VERTEX
  8
0
  5
2B7
 10
6.39012
 20
9.45545
 30
0.000000
  70
    32
  0
VERTEX
  8
0
  5
2B8
 10
6.38817
 20
9.45665
 30
0.000000
  70
    32
  0
VERTEX
  8
0
  5
2B9
 10
6.38622
 20
9.45785
 30
0.000000
  70
    32
  0
VERTEX
  8
0
  5
2BA
 10
6.38427
 20
9.45904
 30
0.000000
  70
    32
  0
VERTEX
  8
0
  5
2BB
 10
6.38230
 20
9.46021
 30
0.000000
  70
    32
  0
VERTEX
  8
0
  5
2BC
 10
6.38033
 20
9.46138
 30
0.000000
  70
    32
  0
VERTEX
  8
0
  5
2BD
 10
6.37836
 20
9.46254
 30
0.000000
  70
    32
  0
VERTEX
  8
0
  5
2BE
 10
6.37637
 20
9.46369
 30
0.000000
  70
    32
  0
VERTEX
  8
0
  5
2BF
 10
6.37438
 20
9.46483
 30
0.000000
  70
    32
  0
VERTEX
  8
0
  5
2C0
 10
6.37239
 20
9.46597
 30
0.000000
  70
    32
  0
VERTEX
  8
0
  5
2C1
 10
6.37038
 20
9.46709
 30
0.000000
  70
    32
  0
VERTEX
  8
0
  5
2C2
 10
6.36838
 20
9.46820
 30
0.000000
  70
    32
  0
VERTEX
  8
0
  5
2C3
 10
6.36636
 20
9.46931
 30
0.000000
  70
    32
  0
VERTEX
  8
0
  5
2C4
 10
6.36434
 20
9.47041
 30
0.000000
  70
    32
  0
VERTEX
  8
0
  5
2C5
 10
6.36231
 20
9.47149
 30
0.000000
  70
    32
  0
VERTEX
  8
0
  5
2C6
 10
6.36028
 20
9.47257
 30
0.000000
  70
    32
  0
VERTEX
  8
0
  5
2C7
 10
6.35824
 20
9.47364
 30
0.000000
  70
    32
  0
VERTEX
  8
0
  5
2C8
 10
6.35619
 20
9.47470
 30
0.000000
  70
    32
  0
VERTEX
  8
0
  5
2C9
 10
6.35414
 20
9.47575
 30
0.000000
  70
    32
  0
VERTEX
  8
0
  5
2CA
 10
6.35208
 20
9.47679
 30
0.000000
  70
    32
  0
VERTEX
  8
0
  5
2CB
 10
6.35002
 20
9.47782
 30
0.000000
  70
    32
  0
VERTEX
  8
0
  5
2CC
 10
6.34795
 20
9.47884
 30
0.000000
  70
    32
  0
VERTEX
  8
0
  5
2CD
 10
6.34587
 20
9.47986
 30
0.000000
  70
    32
  0
VERTEX
  8
0
  5
2CE
 10
6.34379
 20
9.48086
 30
0.000000
  70
    32
  0
VERTEX
  8
0
  5
2CF
 10
6.34170
 20
9.48186
 30
0.000000
  70
    32
  0
VERTEX
  8
0
  5
2D0
 10
6.33961
 20
9.48284
 30
0.000000
  70
    32
  0
VERTEX
  8
0
  5
2D1
 10
6.33751
 20
9.48382
 30
0.000000
  70
    32
  0
VERTEX
  8
0
  5
2D2
 10
6.33541
 20
9.48479
 30
0.000000
  70
    32
  0
VERTEX
  8
0
  5
2D3
 10
6.33330
 20
9.48574
 30
0.000000
  70
    32
  0
VERTEX
  8
0
  5
2D4
 10
6.33118
 20
9.48669
 30
0.000000
  70
    32
  0
VERTEX
  8
0
  5
2D5
 10
6.32906
 20
9.48763
 30
0.000000
  70
    32
  0
VERTEX
  8
0
  5
2D6
 10
6.32694
 20
9.48856
 30
0.000000
  70
    32
  0
VERTEX
  8
0
  5
2D7
 10
6.32481
 20
9.48948
 30
0.000000
  70
    32
  0
VERTEX
  8
0
  5
2D8
 10
6.32267
 20
9.49039
 30
0.000000
  70
    32
  0
VERTEX
  8
0
  5
2D9
 10
6.32053
 20
9.49129
 30
0.000000
  70
    32
  0
VERTEX
  8
0
  5
2DA
 10
6.31838
 20
9.49218
 30
0.000000
  70
    32
  0
VERTEX
  8
0
  5
2DB
 10
6.31623
 20
9.49307
 30
0.000000
  70
    32
  0
VERTEX
  8
0
  5
2DC
 10
6.31408
 20
9.49394
 30
0.000000
  70
    32
  0
VERTEX
  8
0
  5
2DD
 10
6.31191
 20
9.49480
 30
0.000000
  70
    32
  0
VERTEX
  8
0
  5
2DE
 10
6.30975
 20
9.49566
 30
0.000000
  70
    32
  0
VERTEX
  8
0
  5
2DF
 10
6.30758
 20
9.49650
 30
0.000000
  70
    32
  0
VERTEX
  8
0
  5
2E0
 10
6.30540
 20
9.49733
 30
0.000000
  70
    32
  0
VERTEX
  8
0
  5
2E1
 10
6.30322
 20
9.49816
 30
0.000000
  70
    32
  0
VERTEX
  8
0
  5
2E2
 10
6.30104
 20
9.49898
 30
0.000000
  70
    32
  0
VERTEX
  8
0
  5
2E3
 10
6.29885
 20
9.49978
 30
0.000000
  70
    32
  0
VERTEX
  8
0
  5
2E4
 10
6.29665
 20
9.50058
 30
0.000000
  70
    32
  0
VERTEX
  8
0
  5
2E5
 10
6.29446
 20
9.50136
 30
0.000000
  70
    32
  0
VERTEX
  8
0
  5
2E6
 10
6.29225
 20
9.50214
 30
0.000000
  70
    32
  0
VERTEX
  8
0
  5
2E7
 10
6.29005
 20
9.50291
 30
0.000000
  70
    32
  0
VERTEX
  8
0
  5
2E8
 10
6.28783
 20
9.50367
 30
0.000000
  70
    32
  0
VERTEX
  8
0
  5
2E9
 10
6.28562
 20
9.50441
 30
0.000000
  70
    32
  0
VERTEX
  8
0
  5
2EA
 10
6.28340
 20
9.50515
 30
0.000000
  70
    32
  0
VERTEX
  8
0
  5
2EB
 10
6.28117
 20
9.50588
 30
0.000000
  70
    32
  0
VERTEX
  8
0
  5
2EC
 10
6.27894
 20
9.50660
 30
0.000000
  70
    32
  0
VERTEX
  8
0
  5
2ED
 10
6.27671
 20
9.50731
 30
0.000000
  70
    32
  0
VERTEX
  8
0
  5
2EE
 10
6.27448
 20
9.50801
 30
0.000000
  70
    32
  0
VERTEX
  8
0
  5
2EF
 10
6.27223
 20
9.50870
 30
0.000000
  70
    32
  0
VERTEX
  8
0
  5
2F0
 10
6.26999
 20
9.50938
 30
0.000000
  70
    32
  0
VERTEX
  8
0
  5
2F1
 10
6.26774
 20
9.51005
 30
0.000000
  70
    32
  0
VERTEX
  8
0
  5
2F2
 10
6.26549
 20
9.51071
 30
0.000000
  70
    32
  0
VERTEX
  8
0
  5
2F3
 10
6.26323
 20
9.51136
 30
0.000000
  70
    32
  0
VERTEX
  8
0
  5
2F4
 10
6.26097
 20
9.51200
 30
0.000000
  70
    32
  0
VERTEX
  8
0
  5
2F5
 10
6.25871
 20
9.51263
 30
0.000000
  70
    32
  0
VERTEX
  8
0
  5
2F6
 10
6.25644
 20
9.51325
 30
0.000000
  70
    32
  0
VERTEX
  8
0
  5
2F7
 10
6.25417
 20
9.51386
 30
0.000000
  70
    32
  0
VERTEX
  8
0
  5
2F8
 10
6.25190
 20
9.51446
 30
0.000000
  70
    32
  0
VERTEX
  8
0
  5
2F9
 10
6.24962
 20
9.51505
 30
0.000000
  70
    32
  0
VERTEX
  8
0
  5
2FA
 10
6.24734
 20
9.51563
 30
0.000000
  70
    32
  0
VERTEX
  8
0
  5
2FB
 10
6.24506
 20
9.51621
 30
0.000000
  70
    32
  0
VERTEX
  8
0
  5
2FC
 10
6.24277
 20
9.51677
 30
0.000000
  70
    32
  0
VERTEX
  8
0
  5
2FD
 10
6.24048
 20
9.51732
 30
0.000000
  70
    32
  0
VERTEX
  8
0
  5
2FE
 10
6.23819
 20
9.51786
 30
0.000000
  70
    32
  0
VERTEX
  8
0
  5
2FF
 10
6.23589
 20
9.51839
 30
0.000000
  70
    32
  0
VERTEX
  8
0
  5
300
 10
6.23359
 20
9.51891
 30
0.000000
  70
    32
  0
VERTEX
  8
0
  5
301
 10
6.23129
 20
9.51942
 30
0.000000
  70
    32
  0
VERTEX
  8
0
  5
302
 10
6.22898
 20
9.51992
 30
0.000000
  70
    32
  0
VERTEX
  8
0
  5
303
 10
6.22667
 20
9.52041
 30
0.000000
  70
    32
  0
VERTEX
  8
0
  5
304
 10
6.22436
 20
9.52089
 30
0.000000
  70
    32
  0
VERTEX
  8
0
  5
305
 10
6.22205
 20
9.52136
 30
0.000000
  70
    32
  0
VERTEX
  8
0
  5
306
 10
6.21973
 20
9.52182
 30
0.000000
  70
    32
  0
VERTEX
  8
0
  5
307
 10
6.21741
 20
9.52228
 30
0.000000
  70
    32
  0
VERTEX
  8
0
  5
308
 10
6.21509
 20
9.52272
 30
0.000000
  70
    32
  0
VERTEX
  8
0
  5
309
 10
6.21276
 20
9.52315
 30
0.000000
  70
    32
  0
VERTEX
  8
0
  5
30A
 10
6.21043
 20
9.52356
 30
0.000000
  70
    32
  0
VERTEX
  8
0
  5
30B
 10
6.20810
 20
9.52397
 30
0.000000
  70
    32
  0
VERTEX
  8
0
  5
30C
 10
6.20577
 20
9.52437
 30
0.000000
  70
    32
  0
VERTEX
  8
0
  5
30D
 10
6.20344
 20
9.52476
 30
0.000000
  70
    32
  0
VERTEX
  8
0
  5
30E
 10
6.20110
 20
9.52514
 30
0.000000
  70
    32
  0
VERTEX
  8
0
  5
30F
 10
6.19876
 20
9.52551
 30
0.000000
  70
    32
  0
VERTEX
  8
0
  5
310
 10
6.19642
 20
9.52587
 30
0.000000
  70
    32
  0
VERTEX
  8
0
  5
311
 10
6.19407
 20
9.52622
 30
0.000000
  70
    32
  0
VERTEX
  8
0
  5
312
 10
6.19173
 20
9.52655
 30
0.000000
  70
    32
  0
VERTEX
  8
0
  5
313
 10
6.18938
 20
9.52688
 30
0.000000
  70
    32
  0
VERTEX
  8
0
  5
314
 10
6.18703
 20
9.52720
 30
0.000000
  70
    32
  0
VERTEX
  8
0
  5
315
 10
6.18468
 20
9.52750
 30
0.000000
  70
    32
  0
VERTEX
  8
0
  5
316
 10
6.18233
 20
9.52780
 30
0.000000
  70
    32
  0
VERTEX
  8
0
  5
317
 10
6.17997
 20
9.52808
 30
0.000000
  70
    32
  0
VERTEX
  8
0
  5
318
 10
6.17761
 20
9.52836
 30
0.000000
  70
    32
  0
VERTEX
  8
0
  5
319
 10
6.17525
 20
9.52862
 30
0.000000
  70
    32
  0
VERTEX
  8
0
  5
31A
 10
6.17289
 20
9.52888
 30
0.000000
  70
    32
  0
VERTEX
  8
0
  5
31B
 10
6.17053
 20
9.52912
 30
0.000000
  70
    32
  0
VERTEX
  8
0
  5
31C
 10
6.16817
 20
9.52936
 30
0.000000
  70
    32
  0
VERTEX
  8
0
  5
31D
 10
6.16580
 20
9.52958
 30
0.000000
  70
    32
  0
VERTEX
  8
0
  5
31E
 10
6.16344
 20
9.52979
 30
0.000000
  70
    32
  0
VERTEX
  8
0
  5
31F
 10
6.16107
 20
9.52999
 30
0.000000
  70
    32
  0
VERTEX
  8
0
  5
320
 10
6.15870
 20
9.53018
 30
0.000000
  70
    32
  0
VERTEX
  8
0
  5
321
 10
6.15633
 20
9.53036
 30
0.000000
  70
    32
  0
VERTEX
  8
0
  5
322
 10
6.15395
 20
9.53053
 30
0.000000
  70
    32
  0
VERTEX
  8
0
  5
323
 10
6.15158
 20
9.53069
 30
0.000000
  70
    32
  0
VERTEX
  8
0
  5
324
 10
6.14921
 20
9.53084
 30
0.000000
  70
    32
  0
VERTEX
  8
0
  5
325
 10
6.14683
 20
9.53098
 30
0.000000
  70
    32
  0
VERTEX
  8
0
  5
326
 10
6.14446
 20
9.53111
 30
0.000000
  70
    32
  0
VERTEX
  8
0
  5
327
 10
6.14208
 20
9.53122
 30
0.000000
  70
    32
  0
VERTEX
  8
0
  5
328
 10
6.13970
 20
9.53133
 30
0.000000
  70
    32
  0
VERTEX
  8
0
  5
329
 10
6.13732
 20
9.53143
 30
0.000000
  70
    32
  0
VERTEX
  8
0
  5
32A
 10
6.13494
 20
9.53151
 30
0.000000
  70
    32
  0
VERTEX
  8
0
  5
32B
 10
6.13256
 20
9.53159
 30
0.000000
  70
    32
  0
VERTEX
  8
0
  5
32C
 10
6.13018
 20
9.53165
 30
0.000000
  70
    32
  0
VERTEX
  8
0
  5
32D
 10
6.12780
 20
9.53170
 30
0.000000
  70
    32
  0
VERTEX
  8
0
  5
32E
 10
6.12541
 20
9.53174
 30
0.000000
  70
    32
  0
VERTEX
  8
0
  5
32F
 10
6.12303
 20
9.53177
 30
0.000000
  70
    32
  0
VERTEX
  8
0
  5
330
 10
6.12065
 20
9.53179
 30
0.000000
  70
    32
  0
VERTEX
  8
0
  5
331
 10
6.11826
 20
9.53180
 30
0.000000
  70
    32
  0
SEQEND
  8
0
  5
332
  0
POLYLINE
  8
0
  5
333
  66
     1
 10
0.000000
 20
0.000000
 30
0.000000
  70
     8
  0
VERTEX
  8
0
  5
334
 10
6.11826
 20
9.53180
 30
0.000000
  70
    32
  0
VERTEX
  8
0
  5
335
 10
6.08199
 20
9.53186
 30
0.000000
  70
    32
  0
VERTEX
  8
0
  5
336
 10
6.04572
 20
9.53192
 30
0.000000
  70
    32
  0
VERTEX
  8
0
  5
337
 10
6.00945
 20
9.53198
 30
0.000000
  70
    32
  0
VERTEX
  8
0
  5
338
 10
5.97318
 20
9.53203
 30
0.000000
  70
    32
  0
VERTEX
  8
0
  5
339
 10
5.93691
 20
9.53208
 30
0.000000
  70
    32
  0
VERTEX
  8
0
  5
33A
 10
5.90064
 20
9.53213
 30
0.000000
  70
    32
  0
VERTEX
  8
0
  5
33B
 10
5.86437
 20
9.53217
 30
0.000000
  70
    32
  0
VERTEX
  8
0
  5
33C
 10
5.82810
 20
9.53222
 30
0.000000
  70
    32
  0
VERTEX
  8
0
  5
33D
 10
5.79183
 20
9.53226
 30
0.000000
  70
    32
  0
VERTEX
  8
0
  5
33E
 10
5.75556
 20
9.53230
 30
0.000000
  70
    32
  0
VERTEX
  8
0
  5
33F
 10
5.71929
 20
9.53233
 30
0.000000
  70
    32
  0
VERTEX
  8
0
  5
340
 10
5.68302
 20
9.53237
 30
0.000000
  70
    32
  0
VERTEX
  8
0
  5
341
 10
5.64675
 20
9.53240
 30
0.000000
  70
    32
  0
VERTEX
  8
0
  5
342
 10
5.61048
 20
9.53243
 30
0.000000
  70
    32
  0
VERTEX
  8
0
  5
343
 10
5.57421
 20
9.53246
 30
0.000000
  70
    32
  0
VERTEX
  8
0
  5
344
 10
5.53794
 20
9.53248
 30
0.000000
  70
    32
  0
VERTEX
  8
0
  5
345
 10
5.50167
 20
9.53251
 30
0.000000
  70
    32
  0
VERTEX
  8
0
  5
346
 10
5.46540
 20
9.53253
 30
0.000000
  70
    32
  0
VERTEX
  8
0
  5
347
 10
5.42913
 20
9.53255
 30
0.000000
  70
    32
  0
VERTEX
  8
0
  5
348
 10
5.39286
 20
9.53257
 30
0.000000
  70
    32
  0
VERTEX
  8
0
  5
349
 10
5.35659
 20
9.53259
 30
0.000000
  70
    32
  0
VERTEX
  8
0
  5
34A
 10
5.32032
 20
9.53260
 30
0.000000
  70
    32
  0
VERTEX
  8
0
  5
34B
 10
5.28405
 20
9.53262
 30
0.000000
  70
    32
  0
VERTEX
  8
0
  5
34C
 10
5.24779
 20
9.53263
 30
0.000000
  70
    32
  0
VERTEX
  8
0
  5
34D
 10
5.21152
 20
9.53264
 30
0.000000
  70
    32
  0
VERTEX
  8
0
  5
34E
 10
5.17525
 20
9.53265
 30
0.000000
  70
    32
  0
VERTEX
  8
0
  5
34F
 10
5.13898
 20
9.53265
 30
0.000000
  70
    32
  0
VERTEX
  8
0
  5
350
 10
5.10271
 20
9.53266
 30
0.000000
  70
    32
  0
VERTEX
  8
0
  5
351
 10
5.06644
 20
9.53266
 30
0.000000
  70
    32
  0
VERTEX
  8
0
  5
352
 10
5.03018
 20
9.53267
 30
0.000000
  70
    32
  0
VERTEX
  8
0
  5
353
 10
4.99391
 20
9.53267
 30
0.000000
  70
    32
  0
VERTEX
  8
0
  5
354
 10
4.95764
 20
9.53267
 30
0.000000
  70
    32
  0
VERTEX
  8
0
  5
355
 10
4.92137
 20
9.53266
 30
0.000000
  70
    32
  0
VERTEX
  8
0
  5
356
 10
4.88510
 20
9.53266
 30
0.000000
  70
    32
  0
VERTEX
  8
0
  5
357
 10
4.84884
 20
9.53266
 30
0.000000
  70
    32
  0
VERTEX
  8
0
  5
358
 10
4.81257
 20
9.53265
 30
0.000000
  70
    32
  0
VERTEX
  8
0
  5
359
 10
4.77630
 20
9.53264
 30
0.000000
  70
    32
  0
VERTEX
  8
0
  5
35A
 10
4.74003
 20
9.53263
 30
0.000000
  70
    32
  0
VERTEX
  8
0
  5
35B
 10
4.70376
 20
9.53262
 30
0.000000
  70
    32
  0
VERTEX
  8
0
  5
35C
 10
4.66750
 20
9.53261
 30
0.000000
  70
    32
  0
VERTEX
  8
0
  5
35D
 10
4.63123
 20
9.53260
 30
0.000000
  70
    32
  0
VERTEX
  8
0
  5
35E
 10
4.59496
 20
9.53259
 30
0.000000
  70
    32
  0
VERTEX
  8
0
  5
35F
 10
4.55869
 20
9.53257
 30
0.000000
  70
    32
  0
VERTEX
  8
0
  5
360
 10
4.52243
 20
9.53256
 30
0.000000
  70
    32
  0
VERTEX
  8
0
  5
361
 10
4.48616
 20
9.53254
 30
0.000000
  70
    32
  0
VERTEX
  8
0
  5
362
 10
4.44989
 20
9.53252
 30
0.000000
  70
    32
  0
VERTEX
  8
0
  5
363
 10
4.41362
 20
9.53251
 30
0.000000
  70
    32
  0
VERTEX
  8
0
  5
364
 10
4.37736
 20
9.53249
 30
0.000000
  70
    32
  0
VERTEX
  8
0
  5
365
 10
4.34109
 20
9.53247
 30
0.000000
  70
    32
  0
VERTEX
  8
0
  5
366
 10
4.30482
 20
9.53245
 30
0.000000
  70
    32
  0
VERTEX
  8
0
  5
367
 10
4.26855
 20
9.53243
 30
0.000000
  70
    32
  0
VERTEX
  8
0
  5
368
 10
4.23229
 20
9.53240
 30
0.000000
  70
    32
  0
VERTEX
  8
0
  5
369
 10
4.19602
 20
9.53238
 30
0.000000
  70
    32
  0
VERTEX
  8
0
  5
36A
 10
4.15975
 20
9.53236
 30
0.000000
  70
    32
  0
VERTEX
  8
0
  5
36B
 10
4.12349
 20
9.53233
 30
0.000000
  70
    32
  0
VERTEX
  8
0
  5
36C
 10
4.08722
 20
9.53231
 30
0.000000
  70
    32
  0
VERTEX
  8
0
  5
36D
 10
4.05095
 20
9.53228
 30
0.000000
  70
    32
  0
VERTEX
  8
0
  5
36E
 10
4.01468
 20
9.53226
 30
0.000000
  70
    32
  0
VERTEX
  8
0
  5
36F
 10
3.97842
 20
9.53223
 30
0.000000
  70
    32
  0
VERTEX
  8
0
  5
370
 10
3.94215
 20
9.53220
 30
0.000000
  70
    32
  0
VERTEX
  8
0
  5
371
 10
3.90588
 20
9.53218
 30
0.000000
  70
    32
  0
VERTEX
  8
0
  5
372
 10
3.86962
 20
9.53215
 30
0.000000
  70
    32
  0
VERTEX
  8
0
  5
373
 10
3.83335
 20
9.53212
 30
0.000000
  70
    32
  0
VERTEX
  8
0
  5
374
 10
3.79708
 20
9.53209
 30
0.000000
  70
    32
  0
VERTEX
  8
0
  5
375
 10
3.76081
 20
9.53206
 30
0.000000
  70
    32
  0
VERTEX
  8
0
  5
376
 10
3.72455
 20
9.53203
 30
0.000000
  70
    32
  0
VERTEX
  8
0
  5
377
 10
3.68828
 20
9.53200
 30
0.000000
  70
    32
  0
VERTEX
  8
0
  5
378
 10
3.65201
 20
9.53197
 30
0.000000
  70
    32
  0
VERTEX
  8
0
  5
379
 10
3.61575
 20
9.53195
 30
0.000000
  70
    32
  0
VERTEX
  8
0
  5
37A
 10
3.57948
 20
9.53192
 30
0.000000
  70
    32
  0
VERTEX
  8
0
  5
37B
 10
3.54321
 20
9.53189
 30
0.000000
  70
    32
  0
VERTEX
  8
0
  5
37C
 10
3.50694
 20
9.53186
 30
0.000000
  70
    32
  0
VERTEX
  8
0
  5
37D
 10
3.47068
 20
9.53183
 30
0.000000
  70
    32
  0
VERTEX
  8
0
  5
37E
 10
3.43441
 20
9.53180
 30
0.000000
  70
    32
  0
VERTEX
  8
0
  5
37F
 10
3.39814
 20
9.53177
 30
0.000000
  70
    32
  0
VERTEX
  8
0
  5
380
 10
3.36188
 20
9.53174
 30
0.000000
  70
    32
  0
VERTEX
  8
0
  5
381
 10
3.32561
 20
9.53171
 30
0.000000
  70
    32
  0
VERTEX
  8
0
  5
382
 10
3.28934
 20
9.53168
 30
0.000000
  70
    32
  0
VERTEX
  8
0
  5
383
 10
3.25307
 20
9.53165
 30
0.000000
  70
    32
  0
VERTEX
  8
0
  5
384
 10
3.21681
 20
9.53162
 30
0.000000
  70
    32
  0
VERTEX
  8
0
  5
385
 10
3.18054
 20
9.53159
 30
0.000000
  70
    32
  0
VERTEX
  8
0
  5
386
 10
3.14427
 20
9.53156
 30
0.000000
  70
    32
  0
VERTEX
  8
0
  5
387
 10
3.10800
 20
9.53153
 30
0.000000
  70
    32
  0
VERTEX
  8
0
  5
388
 10
3.07174
 20
9.53150
 30
0.000000
  70
    32
  0
VERTEX
  8
0
  5
389
 10
3.03547
 20
9.53148
 30
0.000000
  70
    32
  0
VERTEX
  8
0
  5
38A
 10
2.99920
 20
9.53145
 30
0.000000
  70
    32
  0
VERTEX
  8
0
  5
38B
 10
2.96293
 20
9.53142
 30
0.000000
  70
    32
  0
VERTEX
  8
0
  5
38C
 10
2.92667
 20
9.53140
 30
0.000000
  70
    32
  0
VERTEX
  8
0
  5
38D
 10
2.89040
 20
9.53137
 30
0.000000
  70
    32
  0
VERTEX
  8
0
  5
38E
 10
2.85413
 20
9.53134
 30
0.000000
  70
    32
  0
VERTEX
  8
0
  5
38F
 10
2.81786
 20
9.53132
 30
0.000000
  70
    32
  0
VERTEX
  8
0
  5
390
 10
2.78160
 20
9.53130
 30
0.000000
  70
    32
  0
VERTEX
  8
0
  5
391
 10
2.74533
 20
9.53127
 30
0.000000
  70
    32
  0
VERTEX
  8
0
  5
392
 10
2.70906
 20
9.53125
 30
0.000000
  70
    32
  0
VERTEX
  8
0
  5
393
 10
2.67279
 20
9.53123
 30
0.000000
  70
    32
  0
VERTEX
  8
0
  5
394
 10
2.63652
 20
9.53121
 30
0.000000
  70
    32
  0
VERTEX
  8
0
  5
395
 10
2.60026
 20
9.53119
 30
0.000000
  70
    32
  0
VERTEX
  8
0
  5
396
 10
2.56399
 20
9.53117
 30
0.000000
  70
    32
  0
VERTEX
  8
0
  5
397
 10
2.52772
 20
9.53115
 30
0.000000
  70
    32
  0
VERTEX
  8
0
  5
398
 10
2.49145
 20
9.53113
 30
0.000000
  70
    32
  0
VERTEX
  8
0
  5
399
 10
2.45518
 20
9.53111
 30
0.000000
  70
    32
  0
VERTEX
  8
0
  5
39A
 10
2.41891
 20
9.53110
 30
0.000000
  70
    32
  0
VERTEX
  8
0
  5
39B
 10
2.38264
 20
9.53108
 30
0.000000
  70
    32
  0
VERTEX
  8
0
  5
39C
 10
2.34638
 20
9.53107
 30
0.000000
  70
    32
  0
VERTEX
  8
0
  5
39D
 10
2.31011
 20
9.53106
 30
0.000000
  70
    32
  0
VERTEX
  8
0
  5
39E
 10
2.27384
 20
9.53104
 30
0.000000
  70
    32
  0
VERTEX
  8
0
  5
39F
 10
2.23757
 20
9.53103
 30
0.000000
  70
    32
  0
VERTEX
  8
0
  5
3A0
 10
2.20130
 20
9.53103
 30
0.000000
  70
    32
  0
VERTEX
  8
0
  5
3A1
 10
2.16503
 20
9.53102
 30
0.000000
  70
    32
  0
VERTEX
  8
0
  5
3A2
 10
2.12876
 20
9.53101
 30
0.000000
  70
    32
  0
VERTEX
  8
0
  5
3A3
 10
2.09249
 20
9.53100
 30
0.000000
  70
    32
  0
VERTEX
  8
0
  5
3A4
 10
2.05622
 20
9.53100
 30
0.000000
  70
    32
  0
VERTEX
  8
0
  5
3A5
 10
2.01995
 20
9.53100
 30
0.000000
  70
    32
  0
VERTEX
  8
0
  5
3A6
 10
1.98368
 20
9.53100
 30
0.000000
  70
    32
  0
VERTEX
  8
0
  5
3A7
 10
1.94741
 20
9.53100
 30
0.000000
  70
    32
  0
VERTEX
  8
0
  5
3A8
 10
1.91114
 20
9.53100
 30
0.000000
  70
    32
  0
VERTEX
  8
0
  5
3A9
 10
1.87487
 20
9.53100
 30
0.000000
  70
    32
  0
VERTEX
  8
0
  5
3AA
 10
1.83860
 20
9.53100
 30
0.000000
  70
    32
  0
VERTEX
  8
0
  5
3AB
 10
1.80233
 20
9.53101
 30
0.000000
  70
    32
  0
VERTEX
  8
0
  5
3AC
 10
1.76606
 20
9.53102
 30
0.000000
  70
    32
  0
VERTEX
  8
0
  5
3AD
 10
1.72979
 20
9.53103
 30
0.000000
  70
    32
  0
VERTEX
  8
0
  5
3AE
 10
1.69352
 20
9.53104
 30
0.000000
  70
    32
  0
VERTEX
  8
0
  5
3AF
 10
1.65725
 20
9.53105
 30
0.000000
  70
    32
  0
VERTEX
  8
0
  5
3B0
 10
1.62098
 20
9.53106
 30
0.000000
  70
    32
  0
VERTEX
  8
0
  5
3B1
 10
1.58471
 20
9.53108
 30
0.000000
  70
    32
  0
VERTEX
  8
0
  5
3B2
 10
1.54844
 20
9.53110
 30
0.000000
  70
    32
  0
VERTEX
  8
0
  5
3B3
 10
1.51217
 20
9.53112
 30
0.000000
  70
    32
  0
SEQEND
  8
0
  5
3B4
  0
POLYLINE
  8
0
  5
3B5
  66
     1
 10
0.000000
 20
0.000000
 30
0.000000
  70
     8
  0
VERTEX
  8
0
  5
3B6
 10
0.511024
 20
8.77698
 30
0.000000
  70
    32
  0
VERTEX
  8
0
  5
3B7
 10
0.510854
 20
8.77593
 30
0.000000
  70
    32
  0
VERTEX
  8
0
  5
3B8
 10
0.510685
 20
8.77488
 30
0.000000
  70
    32
  0
VERTEX
  8
0
  5
3B9
 10
0.510517
 20
8.77383
 30
0.000000
  70
    32
  0
VERTEX
  8
0
  5
3BA
 10
0.510351
 20
8.77278
 30
0.000000
  70
    32
  0
VERTEX
  8
0
  5
3BB
 10
0.510186
 20
8.77173
 30
0.000000
  70
    32
  0
VERTEX
  8
0
  5
3BC
 10
0.510022
 20
8.77068
 30
0.000000
  70
    32
  0
VERTEX
  8
0
  5
3BD
 10
0.509859
 20
8.76963
 30
0.000000
  70
    32
  0
VERTEX
  8
0
  5
3BE
 10
0.509698
 20
8.76858
 30
0.000000
  70
    32
  0
VERTEX
  8
0
  5
3BF
 10
0.509538
 20
8.76753
 30
0.000000
  70
    32
  0
VERTEX
  8
0
  5
3C0
 10
0.509380
 20
8.76647
 30
0.000000
  70
    32
  0
VERTEX
  8
0
  5
3C1
 10
0.509222
 20
8.76542
 30
0.000000
  70
    32
  0
VERTEX
  8
0
  5
3C2
 10
0.509066
 20
8.76437
 30
0.000000
  70
    32
  0
VERTEX
  8
0
  5
3C3
 10
0.508911
 20
8.76332
 30
0.000000
  70
    32
  0
VERTEX
  8
0
  5
3C4
 10
0.508758
 20
8.76226
 30
0.000000
  70
    32
  0
VERTEX
  8
0
  5
3C5
 10
0.508606
 20
8.76121
 30
0.000000
  70
    32
  0
VERTEX
  8
0
  5
3C6
 10
0.508455
 20
8.76016
 30
0.000000
  70
    32
  0
VERTEX
  8
0
  5
3C7
 10
0.508305
 20
8.75910
 30
0.000000
  70
    32
  0
VERTEX
  8
0
  5
3C8
 10
0.508157
 20
8.75805
 30
0.000000
  70
    32
  0
VERTEX
  8
0
  5
3C9
 10
0.508010
 20
8.75700
 30
0.000000
  70
    32
  0
VERTEX
  8
0
  5
3CA
 10
0.507864
 20
8.75594
 30
0.000000
  70
    32
  0
VERTEX
  8
0
  5
3CB
 10
0.507720
 20
8.75489
 30
0.000000
  70
    32
  0
VERTEX
  8
0
  5
3CC
 10
0.507576
 20
8.75383
 30
0.000000
  70
    32
  0
VERTEX
  8
0
  5
3CD
 10
0.507435
 20
8.75278
 30
0.000000
  70
    32
  0
VERTEX
  8
0
  5
3CE
 10
0.507294
 20
8.75172
 30
0.000000
  70
    32
  0
VERTEX
  8
0
  5
3CF
 10
0.507155
 20
8.75067
 30
0.000000
  70
    32
  0
VERTEX
  8
0
  5
3D0
 10
0.507017
 20
8.74961
 30
0.000000
  70
    32
  0
VERTEX
  8
0
  5
3D1
 10
0.506880
 20
8.74856
 30
0.000000
  70
    32
  0
VERTEX
  8
0
  5
3D2
 10
0.506745
 20
8.74750
 30
0.000000
  70
    32
  0
VERTEX
  8
0
  5
3D3
 10
0.506611
 20
8.74645
 30
0.000000
  70
    32
  0
VERTEX
  8
0
  5
3D4
 10
0.506479
 20
8.74539
 30
0.000000
  70
    32
  0
VERTEX
  8
0
  5
3D5
 10
0.506347
 20
8.74434
 30
0.000000
  70
    32
  0
VERTEX
  8
0
  5
3D6
 10
0.506217
 20
8.74328
 30
0.000000
  70
    32
  0
VERTEX
  8
0
  5
3D7
 10
0.506089
 20
8.74223
 30
0.000000
  70
    32
  0
VERTEX
  8
0
  5
3D8
 10
0.505961
 20
8.74117
 30
0.000000
  70
    32
  0
VERTEX
  8
0
  5
3D9
 10
0.505835
 20
8.74011
 30
0.000000
  70
    32
  0
VERTEX
  8
0
  5
3DA
 10
0.505710
 20
8.73906
 30
0.000000
  70
    32
  0
VERTEX
  8
0
  5
3DB
 10
0.505587
 20
8.73800
 30
0.000000
  70
    32
  0
VERTEX
  8
0
  5
3DC
 10
0.505465
 20
8.73694
 30
0.000000
  70
    32
  0
VERTEX
  8
0
  5
3DD
 10
0.505344
 20
8.73589
 30
0.000000
  70
    32
  0
VERTEX
  8
0
  5
3DE
 10
0.505224
 20
8.73483
 30
0.000000
  70
    32
  0
VERTEX
  8
0
  5
3DF
 10
0.505106
 20
8.73377
 30
0.000000
  70
    32
  0
VERTEX
  8
0
  5
3E0
 10
0.504989
 20
8.73272
 30
0.000000
  70
    32
  0
VERTEX
  8
0
  5
3E1
 10
0.504874
 20
8.73166
 30
0.000000
  70
    32
  0
VERTEX
  8
0
  5
3E2
 10
0.504760
 20
8.73060
 30
0.000000
  70
    32
  0
VERTEX
  8
0
  5
3E3
 10
0.504647
 20
8.72954
 30
0.000000
  70
    32
  0
VERTEX
  8
0
  5
3E4
 10
0.504535
 20
8.72849
 30
0.000000
  70
    32
  0
VERTEX
  8
0
  5
3E5
 10
0.504425
 20
8.72743
 30
0.000000
  70
    32
  0
VERTEX
  8
0
  5
3E6
 10
0.504316
 20
8.72637
 30
0.000000
  70
    32
  0
VERTEX
  8
0
  5
3E7
 10
0.504209
 20
8.72532
 30
0.000000
  70
    32
  0
VERTEX
  8
0
  5
3E8
 10
0.504102
 20
8.72426
 30
0.000000
  70
    32
  0
VERTEX
  8
0
  5
3E9
 10
0.503997
 20
8.72320
 30
0.000000
  70
    32
  0
VERTEX
  8
0
  5
3EA
 10
0.503894
 20
8.72214
 30
0.000000
  70
    32
  0
VERTEX
  8
0
  5
3EB
 10
0.503792
 20
8.72108
 30
0.000000
  70
    32
  0
VERTEX
  8
0
  5
3EC
 10
0.503691
 20
8.72003
 30
0.000000
  70
    32
  0
VERTEX
  8
0
  5
3ED
 10
0.503591
 20
8.71897
 30
0.000000
  70
    32
  0
VERTEX
  8
0
  5
3EE
 10
0.503493
 20
8.71791
 30
0.000000
  70
    32
  0
VERTEX
  8
0
  5
3EF
 10
0.503396
 20
8.71685
 30
0.000000
  70
    32
  0
VERTEX
  8
0
  5
3F0
 10
0.503301
 20
8.71580
 30
0.000000
  70
    32
  0
VERTEX
  8
0
  5
3F1
 10
0.503206
 20
8.71474
 30
0.000000
  70
    32
  0
VERTEX
  8
0
  5
3F2
 10
0.503114
 20
8.71368
 30
0.000000
  70
    32
  0
VERTEX
  8
0
  5
3F3
 10
0.503022
 20
8.71262
 30
0.000000
  70
    32
  0
VERTEX
  8
0
  5
3F4
 10
0.502932
 20
8.71156
 30
0.000000
  70
    32
  0
VERTEX
  8
0
  5
3F5
 10
0.502843
 20
8.71051
 30
0.000000
  70
    32
  0
VERTEX
  8
0
  5
3F6
 10
0.502756
 20
8.70945
 30
0.000000
  70
    32
  0
VERTEX
  8
0
  5
3F7
 10
0.502669
 20
8.70839
 30
0.000000
  70
    32
  0
VERTEX
  8
0
  5
3F8
 10
0.502585
 20
8.70733
 30
0.000000
  70
    32
  0
VERTEX
  8
0
  5
3F9
 10
0.502501
 20
8.70627
 30
0.000000
  70
    32
  0
VERTEX
  8
0
  5
3FA
 10
0.502419
 20
8.70522
 30
0.000000
  70
    32
  0
VERTEX
  8
0
  5
3FB
 10
0.502338
 20
8.70416
 30
0.000000
  70
    32
  0
VERTEX
  8
0
  5
3FC
 10
0.502259
 20
8.70310
 30
0.000000
  70
    32
  0
VERTEX
  8
0
  5
3FD
 10
0.502181
 20
8.70204
 30
0.000000
  70
    32
  0
VERTEX
  8
0
  5
3FE
 10
0.502104
 20
8.70098
 30
0.000000
  70
    32
  0
VERTEX
  8
0
  5
3FF
 10
0.502029
 20
8.69993
 30
0.000000
  70
    32
  0
VERTEX
  8
0
  5
400
 10
0.501955
 20
8.69887
 30
0.000000
  70
    32
  0
VERTEX
  8
0
  5
401
 10
0.501882
 20
8.69781
 30
0.000000
  70
    32
  0
VERTEX
  8
0
  5
402
 10
0.501811
 20
8.69675
 30
0.000000
  70
    32
  0
VERTEX
  8
0
  5
403
 10
0.501741
 20
8.69570
 30
0.000000
  70
    32
  0
VERTEX
  8
0
  5
404
 10
0.501673
 20
8.69464
 30
0.000000
  70
    32
  0
VERTEX
  8
0
  5
405
 10
0.501605
 20
8.69358
 30
0.000000
  70
    32
  0
VERTEX
  8
0
  5
406
 10
0.501540
 20
8.69252
 30
0.000000
  70
    32
  0
VERTEX
  8
0
  5
407
 10
0.501475
 20
8.69147
 30
0.000000
  70
    32
  0
VERTEX
  8
0
  5
408
 10
0.501412
 20
8.69041
 30
0.000000
  70
    32
  0
VERTEX
  8
0
  5
409
 10
0.501350
 20
8.68935
 30
0.000000
  70
    32
  0
VERTEX
  8
0
  5
40A
 10
0.501290
 20
8.68829
 30
0.000000
  70
    32
  0
VERTEX
  8
0
  5
40B
 10
0.501231
 20
8.68724
 30
0.000000
  70
    32
  0
VERTEX
  8
0
  5
40C
 10
0.501173
 20
8.68618
 30
0.000000
  70
    32
  0
VERTEX
  8
0
  5
40D
 10
0.501117
 20
8.68512
 30
0.000000
  70
    32
  0
VERTEX
  8
0
  5
40E
 10
0.501062
 20
8.68407
 30
0.000000
  70
    32
  0
VERTEX
  8
0
  5
40F
 10
0.501009
 20
8.68301
 30
0.000000
  70
    32
  0
VERTEX
  8
0
  5
410
 10
0.500956
 20
8.68195
 30
0.000000
  70
    32
  0
VERTEX
  8
0
  5
411
 10
0.500906
 20
8.68090
 30
0.000000
  70
    32
  0
VERTEX
  8
0
  5
412
 10
0.500856
 20
8.67984
 30
0.000000
  70
    32
  0
VERTEX
  8
0
  5
413
 10
0.500808
 20
8.67878
 30
0.000000
  70
    32
  0
VERTEX
  8
0
  5
414
 10
0.500762
 20
8.67773
 30
0.000000
  70
    32
  0
VERTEX
  8
0
  5
415
 10
0.500716
 20
8.67667
 30
0.000000
  70
    32
  0
VERTEX
  8
0
  5
416
 10
0.500672
 20
8.67562
 30
0.000000
  70
    32
  0
VERTEX
  8
0
  5
417
 10
0.500630
 20
8.67456
 30
0.000000
  70
    32
  0
VERTEX
  8
0
  5
418
 10
0.500589
 20
8.67351
 30
0.000000
  70
    32
  0
VERTEX
  8
0
  5
419
 10
0.500549
 20
8.67245
 30
0.000000
  70
    32
  0
VERTEX
  8
0
  5
41A
 10
0.500511
 20
8.67139
 30
0.000000
  70
    32
  0
VERTEX
  8
0
  5
41B
 10
0.500474
 20
8.67034
 30
0.000000
  70
    32
  0
VERTEX
  8
0
  5
41C
 10
0.500438
 20
8.66928
 30
0.000000
  70
    32
  0
VERTEX
  8
0
  5
41D
 10
0.500404
 20
8.66823
 30
0.000000
  70
    32
  0
VERTEX
  8
0
  5
41E
 10
0.500371
 20
8.66717
 30
0.000000
  70
    32
  0
VERTEX
  8
0
  5
41F
 10
0.500339
 20
8.66612
 30
0.000000
  70
    32
  0
VERTEX
  8
0
  5
420
 10
0.500309
 20
8.66507
 30
0.000000
  70
    32
  0
VERTEX
  8
0
  5
421
 10
0.500281
 20
8.66401
 30
0.000000
  70
    32
  0
VERTEX
  8
0
  5
422
 10
0.500253
 20
8.66296
 30
0.000000
  70
    32
  0
VERTEX
  8
0
  5
423
 10
0.500227
 20
8.66190
 30
0.000000
  70
    32
  0
VERTEX
  8
0
  5
424
 10
0.500203
 20
8.66085
 30
0.000000
  70
    32
  0
VERTEX
  8
0
  5
425
 10
0.500180
 20
8.65980
 30
0.000000
  70
    32
  0
VERTEX
  8
0
  5
426
 10
0.500158
 20
8.65874
 30
0.000000
  70
    32
  0
VERTEX
  8
0
  5
427
 10
0.500138
 20
8.65769
 30
0.000000
  70
    32
  0
VERTEX
  8
0
  5
428
 10
0.500119
 20
8.65664
 30
0.000000
  70
    32
  0
VERTEX
  8
0
  5
429
 10
0.500101
 20
8.65558
 30
0.000000
  70
    32
  0
VERTEX
  8
0
  5
42A
 10
0.500085
 20
8.65453
 30
0.000000
  70
    32
  0
VERTEX
  8
0
  5
42B
 10
0.500070
 20
8.65348
 30
0.000000
  70
    32
  0
VERTEX
  8
0
  5
42C
 10
0.500057
 20
8.65243
 30
0.000000
  70
    32
  0
VERTEX
  8
0
  5
42D
 10
0.500045
 20
8.65138
 30
0.000000
  70
    32
  0
VERTEX
  8
0
  5
42E
 10
0.500034
 20
8.65032
 30
0.000000
  70
    32
  0
VERTEX
  8
0
  5
42F
 10
0.500025
 20
8.64927
 30
0.000000
  70
    32
  0
VERTEX
  8
0
  5
430
 10
0.500018
 20
8.64822
 30
0.000000
  70
    32
  0
VERTEX
  8
0
  5
431
 10
0.500011
 20
8.64717
 30
0.000000
  70
    32
  0
VERTEX
  8
0
  5
432
 10
0.500006
 20
8.64612
 30
0.000000
  70
    32
  0
VERTEX
  8
0
  5
433
 10
0.500003
 20
8.64507
 30
0.000000
  70
    32
  0
VERTEX
  8
0
  5
434
 10
0.500001
 20
8.64402
 30
0.000000
  70
    32
  0
VERTEX
  8
0
  5
435
 10
0.500000
 20
8.64297
 30
0.000000
  70
    32
  0
SEQEND
  8
0
  5
436
  0
POLYLINE
  8
0
  5
437
  66
     1
 10
0.000000
 20
0.000000
 30
0.000000
  70
     8
  0
VERTEX
  8
0
  5
438
 10
0.511024
 20
-8.77647
 30
0.000000
  70
    32
  0
VERTEX
  8
0
  5
439
 10
0.512865
 20
-8.78658
 30
0.000000
  70
    32
  0
VERTEX
  8
0
  5
43A
 10
0.514837
 20
-8.79665
 30
0.000000
  70
    32
  0
VERTEX
  8
0
  5
43B
 10
0.516940
 20
-8.80669
 30
0.000000
  70
    32
  0
VERTEX
  8
0
  5
43C
 10
0.519174
 20
-8.81668
 30
0.000000
  70
    32
  0
VERTEX
  8
0
  5
43D
 10
0.521536
 20
-8.82663
 30
0.000000
  70
    32
  0
VERTEX
  8
0
  5
43E
 10
0.524028
 20
-8.83655
 30
0.000000
  70
    32
  0
VERTEX
  8
0
  5
43F
 10
0.526646
 20
-8.84642
 30
0.000000
  70
    32
  0
VERTEX
  8
0
  5
440
 10
0.529392
 20
-8.85624
 30
0.000000
  70
    32
  0
VERTEX
  8
0
  5
441
 10
0.532263
 20
-8.86603
 30
0.000000
  70
    32
  0
VERTEX
  8
0
  5
442
 10
0.535260
 20
-8.87577
 30
0.000000
  70
    32
  0
VERTEX
  8
0
  5
443
 10
0.538380
 20
-8.88546
 30
0.000000
  70
    32
  0
VERTEX
  8
0
  5
444
 10
0.541624
 20
-8.89511
 30
0.000000
  70
    32
  0
VERTEX
  8
0
  5
445
 10
0.544990
 20
-8.90471
 30
0.000000
  70
    32
  0
VERTEX
  8
0
  5
446
 10
0.548478
 20
-8.91427
 30
0.000000
  70
    32
  0
VERTEX
  8
0
  5
447
 10
0.552087
 20
-8.92378
 30
0.000000
  70
    32
  0
VERTEX
  8
0
  5
448
 10
0.555815
 20
-8.93324
 30
0.000000
  70
    32
  0
VERTEX
  8
0
  5
449
 10
0.559662
 20
-8.94265
 30
0.000000
  70
    32
  0
VERTEX
  8
0
  5
44A
 10
0.563627
 20
-8.95201
 30
0.000000
  70
    32
  0
VERTEX
  8
0
  5
44B
 10
0.567710
 20
-8.96133
 30
0.000000
  70
    32
  0
VERTEX
  8
0
  5
44C
 10
0.571909
 20
-8.97059
 30
0.000000
  70
    32
  0
VERTEX
  8
0
  5
44D
 10
0.576223
 20
-8.97980
 30
0.000000
  70
    32
  0
VERTEX
  8
0
  5
44E
 10
0.580652
 20
-8.98896
 30
0.000000
  70
    32
  0
VERTEX
  8
0
  5
44F
 10
0.585195
 20
-8.99807
 30
0.000000
  70
    32
  0
VERTEX
  8
0
  5
450
 10
0.589850
 20
-9.00712
 30
0.000000
  70
    32
  0
VERTEX
  8
0
  5
451
 10
0.594618
 20
-9.01612
 30
0.000000
  70
    32
  0
VERTEX
  8
0
  5
452
 10
0.599497
 20
-9.02506
 30
0.000000
  70
    32
  0
VERTEX
  8
0
  5
453
 10
0.604486
 20
-9.03395
 30
0.000000
  70
    32
  0
VERTEX
  8
0
  5
454
 10
0.609585
 20
-9.04278
 30
0.000000
  70
    32
  0
VERTEX
  8
0
  5
455
 10
0.614792
 20
-9.05156
 30
0.000000
  70
    32
  0
VERTEX
  8
0
  5
456
 10
0.620107
 20
-9.06028
 30
0.000000
  70
    32
  0
VERTEX
  8
0
  5
457
 10
0.625529
 20
-9.06894
 30
0.000000
  70
    32
  0
VERTEX
  8
0
  5
458
 10
0.631057
 20
-9.07754
 30
0.000000
  70
    32
  0
VERTEX
  8
0
  5
459
 10
0.636690
 20
-9.08609
 30
0.000000
  70
    32
  0
VERTEX
  8
0
  5
45A
 10
0.642427
 20
-9.09457
 30
0.000000
  70
    32
  0
VERTEX
  8
0
  5
45B
 10
0.648267
 20
-9.10299
 30
0.000000
  70
    32
  0
VERTEX
  8
0
  5
45C
 10
0.654210
 20
-9.11136
 30
0.000000
  70
    32
  0
VERTEX
  8
0
  5
45D
 10
0.660255
 20
-9.11966
 30
0.000000
  70
    32
  0
VERTEX
  8
0
  5
45E
 10
0.666401
 20
-9.12789
 30
0.000000
  70
    32
  0
VERTEX
  8
0
  5
45F
 10
0.672646
 20
-9.13607
 30
0.000000
  70
    32
  0
VERTEX
  8
0
  5
460
 10
0.678991
 20
-9.14418
 30
0.000000
  70
    32
  0
VERTEX
  8
0
  5
461
 10
0.685434
 20
-9.15223
 30
0.000000
  70
    32
  0
VERTEX
  8
0
  5
462
 10
0.691974
 20
-9.16021
 30
0.000000
  70
    32
  0
VERTEX
  8
0
  5
463
 10
0.698611
 20
-9.16812
 30
0.000000
  70
    32
  0
VERTEX
  8
0
  5
464
 10
0.705343
 20
-9.17597
 30
0.000000
  70
    32
  0
VERTEX
  8
0
  5
465
 10
0.712170
 20
-9.18375
 30
0.000000
  70
    32
  0
VERTEX
  8
0
  5
466
 10
0.719091
 20
-9.19147
 30
0.000000
  70
    32
  0
VERTEX
  8
0
  5
467
 10
0.726105
 20
-9.19911
 30
0.000000
  70
    32
  0
VERTEX
  8
0
  5
468
 10
0.733212
 20
-9.20669
 30
0.000000
  70
    32
  0
VERTEX
  8
0
  5
469
 10
0.740409
 20
-9.21420
 30
0.000000
  70
    32
  0
VERTEX
  8
0
  5
46A
 10
0.747697
 20
-9.22163
 30
0.000000
  70
    32
  0
VERTEX
  8
0
  5
46B
 10
0.755075
 20
-9.22900
 30
0.000000
  70
    32
  0
VERTEX
  8
0
  5
46C
 10
0.762541
 20
-9.23629
 30
0.000000
  70
    32
  0
VERTEX
  8
0
  5
46D
 10
0.770095
 20
-9.24351
 30
0.000000
  70
    32
  0
VERTEX
  8
0
  5
46E
 10
0.777736
 20
-9.25066
 30
0.000000
  70
    32
  0
VERTEX
  8
0
  5
46F
 10
0.785463
 20
-9.25774
 30
0.000000
  70
    32
  0
VERTEX
  8
0
  5
470
 10
0.793276
 20
-9.26474
 30
0.000000
  70
    32
  0
VERTEX
  8
0
  5
471
 10
0.801173
 20
-9.27166
 30
0.000000
  70
    32
  0
VERTEX
  8
0
  5
472
 10
0.809153
 20
-9.27851
 30
0.000000
  70
    32
  0
VERTEX
  8
0
  5
473
 10
0.817216
 20
-9.28529
 30
0.000000
  70
    32
  0
VERTEX
  8
0
  5
474
 10
0.825361
 20
-9.29198
 30
0.000000
  70
    32
  0
VERTEX
  8
0
  5
475
 10
0.833587
 20
-9.29860
 30
0.000000
  70
    32
  0
VERTEX
  8
0
  5
476
 10
0.841893
 20
-9.30514
 30
0.000000
  70
    32
  0
VERTEX
  8
0
  5
477
 10
0.850278
 20
-9.31160
 30
0.000000
  70
    32
  0
VERTEX
  8
0
  5
478
 10
0.858742
 20
-9.31799
 30
0.000000
  70
    32
  0
VERTEX
  8
0
  5
479
 10
0.867283
 20
-9.32429
 30
0.000000
  70
    32
  0
VERTEX
  8
0
  5
47A
 10
0.875900
 20
-9.33051
 30
0.000000
  70
    32
  0
VERTEX
  8
0
  5
47B
 10
0.884594
 20
-9.33665
 30
0.000000
  70
    32
  0
VERTEX
  8
0
  5
47C
 10
0.893362
 20
-9.34271
 30
0.000000
  70
    32
  0
VERTEX
  8
0
  5
47D
 10
0.902204
 20
-9.34868
 30
0.000000
  70
    32
  0
VERTEX
  8
0
  5
47E
 10
0.911120
 20
-9.35457
 30
0.000000
  70
    32
  0
VERTEX
  8
0
  5
47F
 10
0.920108
 20
-9.36038
 30
0.000000
  70
    32
  0
VERTEX
  8
0
  5
480
 10
0.929167
 20
-9.36610
 30
0.000000
  70
    32
  0
VERTEX
  8
0
  5
481
 10
0.938297
 20
-9.37174
 30
0.000000
  70
    32
  0
VERTEX
  8
0
  5
482
 10
0.947496
 20
-9.37729
 30
0.000000
  70
    32
  0
VERTEX
  8
0
  5
483
 10
0.956765
 20
-9.38275
 30
0.000000
  70
    32
  0
VERTEX
  8
0
  5
484
 10
0.966101
 20
-9.38813
 30
0.000000
  70
    32
  0
VERTEX
  8
0
  5
485
 10
0.975504
 20
-9.39342
 30
0.000000
  70
    32
  0
VERTEX
  8
0
  5
486
 10
0.984974
 20
-9.39861
 30
0.000000
  70
    32
  0
VERTEX
  8
0
  5
487
 10
0.994509
 20
-9.40372
 30
0.000000
  70
    32
  0
VERTEX
  8
0
  5
488
 10
1.00411
 20
-9.40874
 30
0.000000
  70
    32
  0
VERTEX
  8
0
  5
489
 10
1.01377
 20
-9.41367
 30
0.000000
  70
    32
  0
VERTEX
  8
0
  5
48A
 10
1.02350
 20
-9.41851
 30
0.000000
  70
    32
  0
VERTEX
  8
0
  5
48B
 10
1.03329
 20
-9.42326
 30
0.000000
  70
    32
  0
VERTEX
  8
0
  5
48C
 10
1.04314
 20
-9.42791
 30
0.000000
  70
    32
  0
VERTEX
  8
0
  5
48D
 10
1.05304
 20
-9.43247
 30
0.000000
  70
    32
  0
VERTEX
  8
0
  5
48E
 10
1.06301
 20
-9.43693
 30
0.000000
  70
    32
  0
VERTEX
  8
0
  5
48F
 10
1.07304
 20
-9.44130
 30
0.000000
  70
    32
  0
VERTEX
  8
0
  5
490
 10
1.08313
 20
-9.44558
 30
0.000000
  70
    32
  0
VERTEX
  8
0
  5
491
 10
1.09327
 20
-9.44976
 30
0.000000
  70
    32
  0
VERTEX
  8
0
  5
492
 10
1.10346
 20
-9.45384
 30
0.000000
  70
    32
  0
VERTEX
  8
0
  5
493
 10
1.11372
 20
-9.45783
 30
0.000000
  70
    32
  0
VERTEX
  8
0
  5
494
 10
1.12402
 20
-9.46171
 30
0.000000
  70
    32
  0
VERTEX
  8
0
  5
495
 10
1.13438
 20
-9.46550
 30
0.000000
  70
    32
  0
VERTEX
  8
0
  5
496
 10
1.14480
 20
-9.46919
 30
0.000000
  70
    32
  0
VERTEX
  8
0
  5
497
 10
1.15526
 20
-9.47278
 30
0.000000
  70
    32
  0
VERTEX
  8
0
  5
498
 10
1.16577
 20
-9.47627
 30
0.000000
  70
    32
  0
VERTEX
  8
0
  5
499
 10
1.17634
 20
-9.47966
 30
0.000000
  70
    32
  0
VERTEX
  8
0
  5
49A
 10
1.18695
 20
-9.48294
 30
0.000000
  70
    32
  0
VERTEX
  8
0
  5
49B
 10
1.19761
 20
-9.48613
 30
0.000000
  70
    32
  0
VERTEX
  8
0
  5
49C
 10
1.20832
 20
-9.48921
 30
0.000000
  70
    32
  0
VERTEX
  8
0
  5
49D
 10
1.21908
 20
-9.49218
 30
0.000000
  70
    32
  0
VERTEX
  8
0
  5
49E
 10
1.22988
 20
-9.49505
 30
0.000000
  70
    32
  0
VERTEX
  8
0
  5
49F
 10
1.24072
 20
-9.49782
 30
0.000000
  70
    32
  0
VERTEX
  8
0
  5
4A0
 10
1.25161
 20
-9.50048
 30
0.000000
  70
    32
  0
VERTEX
  8
0
  5
4A1
 10
1.26255
 20
-9.50303
 30
0.000000
  70
    32
  0
VERTEX
  8
0
  5
4A2
 10
1.27352
 20
-9.50548
 30
0.000000
  70
    32
  0
VERTEX
  8
0
  5
4A3
 10
1.28454
 20
-9.50782
 30
0.000000
  70
    32
  0
VERTEX
  8
0
  5
4A4
 10
1.29559
 20
-9.51005
 30
0.000000
  70
    32
  0
VERTEX
  8
0
  5
4A5
 10
1.30669
 20
-9.51217
 30
0.000000
  70
    32
  0
VERTEX
  8
0
  5
4A6
 10
1.31782
 20
-9.51418
 30
0.000000
  70
    32
  0
VERTEX
  8
0
  5
4A7
 10
1.32899
 20
-9.51608
 30
0.000000
  70
    32
  0
VERTEX
  8
0
  5
4A8
 10
1.34020
 20
-9.51787
 30
0.000000
  70
    32
  0
VERTEX
  8
0
  5
4A9
 10
1.35145
 20
-9.51955
 30
0.000000
  70
    32
  0
VERTEX
  8
0
  5
4AA
 10
1.36273
 20
-9.52112
 30
0.000000
  70
    32
  0
VERTEX
  8
0
  5
4AB
 10
1.37404
 20
-9.52257
 30
0.000000
  70
    32
  0
VERTEX
  8
0
  5
4AC
 10
1.38539
 20
-9.52391
 30
0.000000
  70
    32
  0
VERTEX
  8
0
  5
4AD
 10
1.39677
 20
-9.52513
 30
0.000000
  70
    32
  0
VERTEX
  8
0
  5
4AE
 10
1.40818
 20
-9.52624
 30
0.000000
  70
    32
  0
VERTEX
  8
0
  5
4AF
 10
1.41962
 20
-9.52724
 30
0.000000
  70
    32
  0
VERTEX
  8
0
  5
4B0
 10
1.43109
 20
-9.52811
 30
0.000000
  70
    32
  0
VERTEX
  8
0
  5
4B1
 10
1.44260
 20
-9.52887
 30
0.000000
  70
    32
  0
VERTEX
  8
0
  5
4B2
 10
1.45413
 20
-9.52952
 30
0.000000
  70
    32
  0
VERTEX
  8
0
  5
4B3
 10
1.46568
 20
-9.53004
 30
0.000000
  70
    32
  0
VERTEX
  8
0
  5
4B4
 10
1.47727
 20
-9.53045
 30
0.000000
  70
    32
  0
VERTEX
  8
0
  5
4B5
 10
1.48888
 20
-9.53073
 30
0.000000
  70
    32
  0
VERTEX
  8
0
  5
4B6
 10
1.50051
 20
-9.53090
 30
0.000000
  70
    32
  0
VERTEX
  8
0
  5
4B7
 10
1.51217
 20
-9.53094
 30
0.000000
  70
    32
  0
SEQEND
  8
0
  5
4B8
  0
POLYLINE
  8
0
  5
4B9
  66
     1
 10
0.000000
 20
0.000000
 30
0.000000
  70
     8
  0
VERTEX
  8
0
  5
4BA
 10
1.51217
 20
-9.53094
 30
0.000000
  70
    32
  0
VERTEX
  8
0
  5
4BB
 10
1.54844
 20
-9.53091
 30
0.000000
  70
    32
  0
VERTEX
  8
0
  5
4BC
 10
1.58471
 20
-9.53088
 30
0.000000
  70
    32
  0
VERTEX
  8
0
  5
4BD
 10
1.62098
 20
-9.53086
 30
0.000000
  70
    32
  0
VERTEX
  8
0
  5
4BE
 10
1.65725
 20
-9.53083
 30
0.000000
  70
    32
  0
VERTEX
  8
0
  5
4BF
 10
1.69352
 20
-9.53081
 30
0.000000
  70
    32
  0
VERTEX
  8
0
  5
4C0
 10
1.72979
 20
-9.53079
 30
0.000000
  70
    32
  0
VERTEX
  8
0
  5
4C1
 10
1.76606
 20
-9.53077
 30
0.000000
  70
    32
  0
VERTEX
  8
0
  5
4C2
 10
1.80233
 20
-9.53076
 30
0.000000
  70
    32
  0
VERTEX
  8
0
  5
4C3
 10
1.83860
 20
-9.53075
 30
0.000000
  70
    32
  0
VERTEX
  8
0
  5
4C4
 10
1.87487
 20
-9.53074
 30
0.000000
  70
    32
  0
VERTEX
  8
0
  5
4C5
 10
1.91114
 20
-9.53073
 30
0.000000
  70
    32
  0
VERTEX
  8
0
  5
4C6
 10
1.94741
 20
-9.53072
 30
0.000000
  70
    32
  0
VERTEX
  8
0
  5
4C7
 10
1.98368
 20
-9.53072
 30
0.000000
  70
    32
  0
VERTEX
  8
0
  5
4C8
 10
2.01995
 20
-9.53072
 30
0.000000
  70
    32
  0
VERTEX
  8
0
  5
4C9
 10
2.05622
 20
-9.53072
 30
0.000000
  70
    32
  0
VERTEX
  8
0
  5
4CA
 10
2.09249
 20
-9.53072
 30
0.000000
  70
    32
  0
VERTEX
  8
0
  5
4CB
 10
2.12876
 20
-9.53072
 30
0.000000
  70
    32
  0
VERTEX
  8
0
  5
4CC
 10
2.16503
 20
-9.53073
 30
0.000000
  70
    32
  0
VERTEX
  8
0
  5
4CD
 10
2.20130
 20
-9.53073
 30
0.000000
  70
    32
  0
VERTEX
  8
0
  5
4CE
 10
2.23757
 20
-9.53074
 30
0.000000
  70
    32
  0
VERTEX
  8
0
  5
4CF
 10
2.27384
 20
-9.53075
 30
0.000000
  70
    32
  0
VERTEX
  8
0
  5
4D0
 10
2.31011
 20
-9.53077
 30
0.000000
  70
    32
  0
VERTEX
  8
0
  5
4D1
 10
2.34638
 20
-9.53078
 30
0.000000
  70
    32
  0
VERTEX
  8
0
  5
4D2
 10
2.38264
 20
-9.53079
 30
0.000000
  70
    32
  0
VERTEX
  8
0
  5
4D3
 10
2.41891
 20
-9.53081
 30
0.000000
  70
    32
  0
VERTEX
  8
0
  5
4D4
 10
2.45518
 20
-9.53083
 30
0.000000
  70
    32
  0
VERTEX
  8
0
  5
4D5
 10
2.49145
 20
-9.53085
 30
0.000000
  70
    32
  0
VERTEX
  8
0
  5
4D6
 10
2.52772
 20
-9.53087
 30
0.000000
  70
    32
  0
VERTEX
  8
0
  5
4D7
 10
2.56399
 20
-9.53089
 30
0.000000
  70
    32
  0
VERTEX
  8
0
  5
4D8
 10
2.60026
 20
-9.53091
 30
0.000000
  70
    32
  0
VERTEX
  8
0
  5
4D9
 10
2.63652
 20
-9.53094
 30
0.000000
  70
    32
  0
VERTEX
  8
0
  5
4DA
 10
2.67279
 20
-9.53097
 30
0.000000
  70
    32
  0
VERTEX
  8
0
  5
4DB
 10
2.70906
 20
-9.53099
 30
0.000000
  70
    32
  0
VERTEX
  8
0
  5
4DC
 10
2.74533
 20
-9.53102
 30
0.000000
  70
    32
  0
VERTEX
  8
0
  5
4DD
 10
2.78160
 20
-9.53105
 30
0.000000
  70
    32
  0
VERTEX
  8
0
  5
4DE
 10
2.81786
 20
-9.53108
 30
0.000000
  70
    32
  0
VERTEX
  8
0
  5
4DF
 10
2.85413
 20
-9.53111
 30
0.000000
  70
    32
  0
VERTEX
  8
0
  5
4E0
 10
2.89040
 20
-9.53114
 30
0.000000
  70
    32
  0
VERTEX
  8
0
  5
4E1
 10
2.92667
 20
-9.53117
 30
0.000000
  70
    32
  0
VERTEX
  8
0
  5
4E2
 10
2.96293
 20
-9.53121
 30
0.000000
  70
    32
  0
VERTEX
  8
0
  5
4E3
 10
2.99920
 20
-9.53124
 30
0.000000
  70
    32
  0
VERTEX
  8
0
  5
4E4
 10
3.03547
 20
-9.53128
 30
0.000000
  70
    32
  0
VERTEX
  8
0
  5
4E5
 10
3.07174
 20
-9.53131
 30
0.000000
  70
    32
  0
VERTEX
  8
0
  5
4E6
 10
3.10800
 20
-9.53135
 30
0.000000
  70
    32
  0
VERTEX
  8
0
  5
4E7
 10
3.14427
 20
-9.53138
 30
0.000000
  70
    32
  0
VERTEX
  8
0
  5
4E8
 10
3.18054
 20
-9.53142
 30
0.000000
  70
    32
  0
VERTEX
  8
0
  5
4E9
 10
3.21681
 20
-9.53146
 30
0.000000
  70
    32
  0
VERTEX
  8
0
  5
4EA
 10
3.25307
 20
-9.53150
 30
0.000000
  70
    32
  0
VERTEX
  8
0
  5
4EB
 10
3.28934
 20
-9.53153
 30
0.000000
  70
    32
  0
VERTEX
  8
0
  5
4EC
 10
3.32561
 20
-9.53157
 30
0.000000
  70
    32
  0
VERTEX
  8
0
  5
4ED
 10
3.36188
 20
-9.53161
 30
0.000000
  70
    32
  0
VERTEX
  8
0
  5
4EE
 10
3.39814
 20
-9.53165
 30
0.000000
  70
    32
  0
VERTEX
  8
0
  5
4EF
 10
3.43441
 20
-9.53169
 30
0.000000
  70
    32
  0
VERTEX
  8
0
  5
4F0
 10
3.47068
 20
-9.53173
 30
0.000000
  70
    32
  0
VERTEX
  8
0
  5
4F1
 10
3.50694
 20
-9.53177
 30
0.000000
  70
    32
  0
VERTEX
  8
0
  5
4F2
 10
3.54321
 20
-9.53181
 30
0.000000
  70
    32
  0
VERTEX
  8
0
  5
4F3
 10
3.57948
 20
-9.53185
 30
0.000000
  70
    32
  0
VERTEX
  8
0
  5
4F4
 10
3.61575
 20
-9.53189
 30
0.000000
  70
    32
  0
VERTEX
  8
0
  5
4F5
 10
3.65201
 20
-9.53193
 30
0.000000
  70
    32
  0
VERTEX
  8
0
  5
4F6
 10
3.68828
 20
-9.53197
 30
0.000000
  70
    32
  0
VERTEX
  8
0
  5
4F7
 10
3.72455
 20
-9.53201
 30
0.000000
  70
    32
  0
VERTEX
  8
0
  5
4F8
 10
3.76081
 20
-9.53205
 30
0.000000
  70
    32
  0
VERTEX
  8
0
  5
4F9
 10
3.79708
 20
-9.53209
 30
0.000000
  70
    32
  0
VERTEX
  8
0
  5
4FA
 10
3.83335
 20
-9.53212
 30
0.000000
  70
    32
  0
VERTEX
  8
0
  5
4FB
 10
3.86962
 20
-9.53216
 30
0.000000
  70
    32
  0
VERTEX
  8
0
  5
4FC
 10
3.90588
 20
-9.53220
 30
0.000000
  70
    32
  0
VERTEX
  8
0
  5
4FD
 10
3.94215
 20
-9.53224
 30
0.000000
  70
    32
  0
VERTEX
  8
0
  5
4FE
 10
3.97842
 20
-9.53228
 30
0.000000
  70
    32
  0
VERTEX
  8
0
  5
4FF
 10
4.01468
 20
-9.53231
 30
0.000000
  70
    32
  0
VERTEX
  8
0
  5
500
 10
4.05095
 20
-9.53235
 30
0.000000
  70
    32
  0
VERTEX
  8
0
  5
501
 10
4.08722
 20
-9.53238
 30
0.000000
  70
    32
  0
VERTEX
  8
0
  5
502
 10
4.12349
 20
-9.53242
 30
0.000000
  70
    32
  0
VERTEX
  8
0
  5
503
 10
4.15975
 20
-9.53245
 30
0.000000
  70
    32
  0
VERTEX
  8
0
  5
504
 10
4.19602
 20
-9.53248
 30
0.000000
  70
    32
  0
VERTEX
  8
0
  5
505
 10
4.23229
 20
-9.53252
 30
0.000000
  70
    32
  0
VERTEX
  8
0
  5
506
 10
4.26855
 20
-9.53255
 30
0.000000
  70
    32
  0
VERTEX
  8
0
  5
507
 10
4.30482
 20
-9.53258
 30
0.000000
  70
    32
  0
VERTEX
  8
0
  5
508
 10
4.34109
 20
-9.53261
 30
0.000000
  70
    32
  0
VERTEX
  8
0
  5
509
 10
4.37736
 20
-9.53264
 30
0.000000
  70
    32
  0
VERTEX
  8
0
  5
50A
 10
4.41362
 20
-9.53267
 30
0.000000
  70
    32
  0
VERTEX
  8
0
  5
50B
 10
4.44989
 20
-9.53269
 30
0.000000
  70
    32
  0
VERTEX
  8
0
  5
50C
 10
4.48616
 20
-9.53272
 30
0.000000
  70
    32
  0
VERTEX
  8
0
  5
50D
 10
4.52243
 20
-9.53274
 30
0.000000
  70
    32
  0
VERTEX
  8
0
  5
50E
 10
4.55869
 20
-9.53277
 30
0.000000
  70
    32
  0
VERTEX
  8
0
  5
50F
 10
4.59496
 20
-9.53279
 30
0.000000
  70
    32
  0
VERTEX
  8
0
  5
510
 10
4.63123
 20
-9.53281
 30
0.000000
  70
    32
  0
VERTEX
  8
0
  5
511
 10
4.66750
 20
-9.53283
 30
0.000000
  70
    32
  0
VERTEX
  8
0
  5
512
 10
4.70376
 20
-9.53284
 30
0.000000
  70
    32
  0
VERTEX
  8
0
  5
513
 10
4.74003
 20
-9.53286
 30
0.000000
  70
    32
  0
VERTEX
  8
0
  5
514
 10
4.77630
 20
-9.53288
 30
0.000000
  70
    32
  0
VERTEX
  8
0
  5
515
 10
4.81257
 20
-9.53289
 30
0.000000
  70
    32
  0
VERTEX
  8
0
  5
516
 10
4.84884
 20
-9.53290
 30
0.000000
  70
    32
  0
VERTEX
  8
0
  5
517
 10
4.88510
 20
-9.53291
 30
0.000000
  70
    32
  0
VERTEX
  8
0
  5
518
 10
4.92137
 20
-9.53292
 30
0.000000
  70
    32
  0
VERTEX
  8
0
  5
519
 10
4.95764
 20
-9.53293
 30
0.000000
  70
    32
  0
VERTEX
  8
0
  5
51A
 10
4.99391
 20
-9.53293
 30
0.000000
  70
    32
  0
VERTEX
  8
0
  5
51B
 10
5.03018
 20
-9.53294
 30
0.000000
  70
    32
  0
VERTEX
  8
0
  5
51C
 10
5.06644
 20
-9.53294
 30
0.000000
  70
    32
  0
VERTEX
  8
0
  5
51D
 10
5.10271
 20
-9.53294
 30
0.000000
  70
    32
  0
VERTEX
  8
0
  5
51E
 10
5.13898
 20
-9.53293
 30
0.000000
  70
    32
  0
VERTEX
  8
0
  5
51F
 10
5.17525
 20
-9.53293
 30
0.000000
  70
    32
  0
VERTEX
  8
0
  5
520
 10
5.21152
 20
-9.53292
 30
0.000000
  70
    32
  0
VERTEX
  8
0
  5
521
 10
5.24779
 20
-9.53292
 30
0.000000
  70
    32
  0
VERTEX
  8
0
  5
522
 10
5.28405
 20
-9.53291
 30
0.000000
  70
    32
  0
VERTEX
  8
0
  5
523
 10
5.32032
 20
-9.53289
 30
0.000000
  70
    32
  0
VERTEX
  8
0
  5
524
 10
5.35659
 20
-9.53288
 30
0.000000
  70
    32
  0
VERTEX
  8
0
  5
525
 10
5.39286
 20
-9.53286
 30
0.000000
  70
    32
  0
VERTEX
  8
0
  5
526
 10
5.42913
 20
-9.53284
 30
0.000000
  70
    32
  0
VERTEX
  8
0
  5
527
 10
5.46540
 20
-9.53282
 30
0.000000
  70
    32
  0
VERTEX
  8
0
  5
528
 10
5.50167
 20
-9.53280
 30
0.000000
  70
    32
  0
VERTEX
  8
0
  5
529
 10
5.53794
 20
-9.53277
 30
0.000000
  70
    32
  0
VERTEX
  8
0
  5
52A
 10
5.57421
 20
-9.53274
 30
0.000000
  70
    32
  0
VERTEX
  8
0
  5
52B
 10
5.61048
 20
-9.53271
 30
0.000000
  70
    32
  0
VERTEX
  8
0
  5
52C
 10
5.64675
 20
-9.53267
 30
0.000000
  70
    32
  0
VERTEX
  8
0
  5
52D
 10
5.68302
 20
-9.53264
 30
0.000000
  70
    32
  0
VERTEX
  8
0
  5
52E
 10
5.71929
 20
-9.53260
 30
0.000000
  70
    32
  0
VERTEX
  8
0
  5
52F
 10
5.75556
 20
-9.53256
 30
0.000000
  70
    32
  0
VERTEX
  8
0
  5
530
 10
5.79183
 20
-9.53251
 30
0.000000
  70
    32
  0
VERTEX
  8
0
  5
531
 10
5.82810
 20
-9.53246
 30
0.000000
  70
    32
  0
VERTEX
  8
0
  5
532
 10
5.86437
 20
-9.53241
 30
0.000000
  70
    32
  0
VERTEX
  8
0
  5
533
 10
5.90064
 20
-9.53236
 30
0.000000
  70
    32
  0
VERTEX
  8
0
  5
534
 10
5.93691
 20
-9.53230
 30
0.000000
  70
    32
  0
VERTEX
  8
0
  5
535
 10
5.97318
 20
-9.53224
 30
0.000000
  70
    32
  0
VERTEX
  8
0
  5
536
 10
6.00945
 20
-9.53218
 30
0.000000
  70
    32
  0
VERTEX
  8
0
  5
537
 10
6.04572
 20
-9.53212
 30
0.000000
  70
    32
  0
VERTEX
  8
0
  5
538
 10
6.08199
 20
-9.53205
 30
0.000000
  70
    32
  0
VERTEX
  8
0
  5
539
 10
6.11826
 20
-9.53198
 30
0.000000
  70
    32
  0
SEQEND
  8
0
  5
53A
  0
POLYLINE
  8
0
  5
53B
  66
     1
 10
0.000000
 20
0.000000
 30
0.000000
  70
     8
  0
VERTEX
  8
0
  5
53C
 10
6.11826
 20
-9.53198
 30
0.000000
  70
    32
  0
VERTEX
  8
0
  5
53D
 10
6.12064
 20
-9.53196
 30
0.000000
  70
    32
  0
VERTEX
  8
0
  5
53E
 10
6.12301
 20
-9.53194
 30
0.000000
  70
    32
  0
VERTEX
  8
0
  5
53F
 10
6.12539
 20
-9.53190
 30
0.000000
  70
    32
  0
VERTEX
  8
0
  5
540
 10
6.12777
 20
-9.53186
 30
0.000000
  70
    32
  0
VERTEX
  8
0
  5
541
 10
6.13014
 20
-9.53180
 30
0.000000
  70
    32
  0
VERTEX
  8
0
  5
542
 10
6.13252
 20
-9.53173
 30
0.000000
  70
    32
  0
VERTEX
  8
0
  5
543
 10
6.13489
 20
-9.53166
 30
0.000000
  70
    32
  0
VERTEX
  8
0
  5
544
 10
6.13726
 20
-9.53157
 30
0.000000
  70
    32
  0
VERTEX
  8
0
  5
545
 10
6.13964
 20
-9.53147
 30
0.000000
  70
    32
  0
VERTEX
  8
0
  5
546
 10
6.14201
 20
-9.53136
 30
0.000000
  70
    32
  0
VERTEX
  8
0
  5
547
 10
6.14438
 20
-9.53124
 30
0.000000
  70
    32
  0
VERTEX
  8
0
  5
548
 10
6.14675
 20
-9.53111
 30
0.000000
  70
    32
  0
VERTEX
  8
0
  5
549
 10
6.14912
 20
-9.53097
 30
0.000000
  70
    32
  0
VERTEX
  8
0
  5
54A
 10
6.15149
 20
-9.53081
 30
0.000000
  70
    32
  0
VERTEX
  8
0
  5
54B
 10
6.15386
 20
-9.53065
 30
0.000000
  70
    32
  0
VERTEX
  8
0
  5
54C
 10
6.15623
 20
-9.53048
 30
0.000000
  70
    32
  0
VERTEX
  8
0
  5
54D
 10
6.15859
 20
-9.53029
 30
0.000000
  70
    32
  0
VERTEX
  8
0
  5
54E
 10
6.16096
 20
-9.53010
 30
0.000000
  70
    32
  0
VERTEX
  8
0
  5
54F
 10
6.16332
 20
-9.52990
 30
0.000000
  70
    32
  0
VERTEX
  8
0
  5
550
 10
6.16569
 20
-9.52968
 30
0.000000
  70
    32
  0
VERTEX
  8
0
  5
551
 10
6.16805
 20
-9.52945
 30
0.000000
  70
    32
  0
VERTEX
  8
0
  5
552
 10
6.17041
 20
-9.52922
 30
0.000000
  70
    32
  0
VERTEX
  8
0
  5
553
 10
6.17277
 20
-9.52897
 30
0.000000
  70
    32
  0
VERTEX
  8
0
  5
554
 10
6.17513
 20
-9.52872
 30
0.000000
  70
    32
  0
VERTEX
  8
0
  5
555
 10
6.17748
 20
-9.52845
 30
0.000000
  70
    32
  0
VERTEX
  8
0
  5
556
 10
6.17984
 20
-9.52817
 30
0.000000
  70
    32
  0
VERTEX
  8
0
  5
557
 10
6.18219
 20
-9.52788
 30
0.000000
  70
    32
  0
VERTEX
  8
0
  5
558
 10
6.18454
 20
-9.52758
 30
0.000000
  70
    32
  0
VERTEX
  8
0
  5
559
 10
6.18689
 20
-9.52727
 30
0.000000
  70
    32
  0
VERTEX
  8
0
  5
55A
 10
6.18924
 20
-9.52696
 30
0.000000
  70
    32
  0
VERTEX
  8
0
  5
55B
 10
6.19158
 20
-9.52663
 30
0.000000
  70
    32
  0
VERTEX
  8
0
  5
55C
 10
6.19393
 20
-9.52629
 30
0.000000
  70
    32
  0
VERTEX
  8
0
  5
55D
 10
6.19627
 20
-9.52594
 30
0.000000
  70
    32
  0
VERTEX
  8
0
  5
55E
 10
6.19861
 20
-9.52558
 30
0.000000
  70
    32
  0
VERTEX
  8
0
  5
55F
 10
6.20095
 20
-9.52521
 30
0.000000
  70
    32
  0
VERTEX
  8
0
  5
560
 10
6.20329
 20
-9.52482
 30
0.000000
  70
    32
  0
VERTEX
  8
0
  5
561
 10
6.20562
 20
-9.52443
 30
0.000000
  70
    32
  0
VERTEX
  8
0
  5
562
 10
6.20795
 20
-9.52403
 30
0.000000
  70
    32
  0
VERTEX
  8
0
  5
563
 10
6.21028
 20
-9.52362
 30
0.000000
  70
    32
  0
VERTEX
  8
0
  5
564
 10
6.21261
 20
-9.52320
 30
0.000000
  70
    32
  0
VERTEX
  8
0
  5
565
 10
6.21493
 20
-9.52277
 30
0.000000
  70
    32
  0
VERTEX
  8
0
  5
566
 10
6.21726
 20
-9.52233
 30
0.000000
  70
    32
  0
VERTEX
  8
0
  5
567
 10
6.21958
 20
-9.52187
 30
0.000000
  70
    32
  0
VERTEX
  8
0
  5
568
 10
6.22189
 20
-9.52141
 30
0.000000
  70
    32
  0
VERTEX
  8
0
  5
569
 10
6.22421
 20
-9.52094
 30
0.000000
  70
    32
  0
VERTEX
  8
0
  5
56A
 10
6.22652
 20
-9.52046
 30
0.000000
  70
    32
  0
VERTEX
  8
0
  5
56B
 10
6.22883
 20
-9.51997
 30
0.000000
  70
    32
  0
VERTEX
  8
0
  5
56C
 10
6.23113
 20
-9.51946
 30
0.000000
  70
    32
  0
VERTEX
  8
0
  5
56D
 10
6.23344
 20
-9.51895
 30
0.000000
  70
    32
  0
VERTEX
  8
0
  5
56E
 10
6.23574
 20
-9.51843
 30
0.000000
  70
    32
  0
VERTEX
  8
0
  5
56F
 10
6.23804
 20
-9.51790
 30
0.000000
  70
    32
  0
VERTEX
  8
0
  5
570
 10
6.24033
 20
-9.51735
 30
0.000000
  70
    32
  0
VERTEX
  8
0
  5
571
 10
6.24262
 20
-9.51680
 30
0.000000
  70
    32
  0
VERTEX
  8
0
  5
572
 10
6.24491
 20
-9.51624
 30
0.000000
  70
    32
  0
VERTEX
  8
0
  5
573
 10
6.24720
 20
-9.51567
 30
0.000000
  70
    32
  0
VERTEX
  8
0
  5
574
 10
6.24948
 20
-9.51508
 30
0.000000
  70
    32
  0
VERTEX
  8
0
  5
575
 10
6.25176
 20
-9.51449
 30
0.000000
  70
    32
  0
VERTEX
  8
0
  5
576
 10
6.25403
 20
-9.51389
 30
0.000000
  70
    32
  0
VERTEX
  8
0
  5
577
 10
6.25631
 20
-9.51328
 30
0.000000
  70
    32
  0
VERTEX
  8
0
  5
578
 10
6.25857
 20
-9.51266
 30
0.000000
  70
    32
  0
VERTEX
  8
0
  5
579
 10
6.26084
 20
-9.51202
 30
0.000000
  70
    32
  0
VERTEX
  8
0
  5
57A
 10
6.26310
 20
-9.51138
 30
0.000000
  70
    32
  0
VERTEX
  8
0
  5
57B
 10
6.26536
 20
-9.51073
 30
0.000000
  70
    32
  0
VERTEX
  8
0
  5
57C
 10
6.26761
 20
-9.51007
 30
0.000000
  70
    32
  0
VERTEX
  8
0
  5
57D
 10
6.26986
 20
-9.50940
 30
0.000000
  70
    32
  0
VERTEX
  8
0
  5
57E
 10
6.27211
 20
-9.50872
 30
0.000000
  70
    32
  0
VERTEX
  8
0
  5
57F
 10
6.27435
 20
-9.50803
 30
0.000000
  70
    32
  0
VERTEX
  8
0
  5
580
 10
6.27659
 20
-9.50733
 30
0.000000
  70
    32
  0
VERTEX
  8
0
  5
581
 10
6.27883
 20
-9.50662
 30
0.000000
  70
    32
  0
VERTEX
  8
0
  5
582
 10
6.28106
 20
-9.50590
 30
0.000000
  70
    32
  0
VERTEX
  8
0
  5
583
 10
6.28329
 20
-9.50517
 30
0.000000
  70
    32
  0
VERTEX
  8
0
  5
584
 10
6.28551
 20
-9.50443
 30
0.000000
  70
    32
  0
VERTEX
  8
0
  5
585
 10
6.28773
 20
-9.50368
 30
0.000000
  70
    32
  0
VERTEX
  8
0
  5
586
 10
6.28994
 20
-9.50292
 30
0.000000
  70
    32
  0
VERTEX
  8
0
  5
587
 10
6.29215
 20
-9.50215
 30
0.000000
  70
    32
  0
VERTEX
  8
0
  5
588
 10
6.29436
 20
-9.50137
 30
0.000000
  70
    32
  0
VERTEX
  8
0
  5
589
 10
6.29656
 20
-9.50059
 30
0.000000
  70
    32
  0
VERTEX
  8
0
  5
58A
 10
6.29875
 20
-9.49979
 30
0.000000
  70
    32
  0
VERTEX
  8
0
  5
58B
 10
6.30095
 20
-9.49898
 30
0.000000
  70
    32
  0
VERTEX
  8
0
  5
58C
 10
6.30313
 20
-9.49817
 30
0.000000
  70
    32
  0
VERTEX
  8
0
  5
58D
 10
6.30532
 20
-9.49734
 30
0.000000
  70
    32
  0
VERTEX
  8
0
  5
58E
 10
6.30749
 20
-9.49651
 30
0.000000
  70
    32
  0
VERTEX
  8
0
  5
58F
 10
6.30967
 20
-9.49566
 30
0.000000
  70
    32
  0
VERTEX
  8
0
  5
590
 10
6.31184
 20
-9.49481
 30
0.000000
  70
    32
  0
VERTEX
  8
0
  5
591
 10
6.31400
 20
-9.49394
 30
0.000000
  70
    32
  0
VERTEX
  8
0
  5
592
 10
6.31616
 20
-9.49307
 30
0.000000
  70
    32
  0
VERTEX
  8
0
  5
593
 10
6.31831
 20
-9.49219
 30
0.000000
  70
    32
  0
VERTEX
  8
0
  5
594
 10
6.32046
 20
-9.49130
 30
0.000000
  70
    32
  0
VERTEX
  8
0
  5
595
 10
6.32261
 20
-9.49039
 30
0.000000
  70
    32
  0
VERTEX
  8
0
  5
596
 10
6.32474
 20
-9.48948
 30
0.000000
  70
    32
  0
VERTEX
  8
0
  5
597
 10
6.32688
 20
-9.48856
 30
0.000000
  70
    32
  0
VERTEX
  8
0
  5
598
 10
6.32901
 20
-9.48763
 30
0.000000
  70
    32
  0
VERTEX
  8
0
  5
599
 10
6.33113
 20
-9.48669
 30
0.000000
  70
    32
  0
VERTEX
  8
0
  5
59A
 10
6.33325
 20
-9.48575
 30
0.000000
  70
    32
  0
VERTEX
  8
0
  5
59B
 10
6.33536
 20
-9.48479
 30
0.000000
  70
    32
  0
VERTEX
  8
0
  5
59C
 10
6.33746
 20
-9.48382
 30
0.000000
  70
    32
  0
VERTEX
  8
0
  5
59D
 10
6.33956
 20
-9.48284
 30
0.000000
  70
    32
  0
VERTEX
  8
0
  5
59E
 10
6.34166
 20
-9.48186
 30
0.000000
  70
    32
  0
VERTEX
  8
0
  5
59F
 10
6.34375
 20
-9.48086
 30
0.000000
  70
    32
  0
VERTEX
  8
0
  5
5A0
 10
6.34583
 20
-9.47986
 30
0.000000
  70
    32
  0
VERTEX
  8
0
  5
5A1
 10
6.34791
 20
-9.47885
 30
0.000000
  70
    32
  0
VERTEX
  8
0
  5
5A2
 10
6.34998
 20
-9.47782
 30
0.000000
  70
    32
  0
VERTEX
  8
0
  5
5A3
 10
6.35205
 20
-9.47679
 30
0.000000
  70
    32
  0
VERTEX
  8
0
  5
5A4
 10
6.35411
 20
-9.47575
 30
0.000000
  70
    32
  0
VERTEX
  8
0
  5
5A5
 10
6.35616
 20
-9.47470
 30
0.000000
  70
    32
  0
VERTEX
  8
0
  5
5A6
 10
6.35821
 20
-9.47364
 30
0.000000
  70
    32
  0
VERTEX
  8
0
  5
5A7
 10
6.36025
 20
-9.47257
 30
0.000000
  70
    32
  0
VERTEX
  8
0
  5
5A8
 10
6.36229
 20
-9.47149
 30
0.000000
  70
    32
  0
VERTEX
  8
0
  5
5A9
 10
6.36432
 20
-9.47041
 30
0.000000
  70
    32
  0
VERTEX
  8
0
  5
5AA
 10
6.36634
 20
-9.46931
 30
0.000000
  70
    32
  0
VERTEX
  8
0
  5
5AB
 10
6.36836
 20
-9.46820
 30
0.000000
  70
    32
  0
VERTEX
  8
0
  5
5AC
 10
6.37037
 20
-9.46709
 30
0.000000
  70
    32
  0
VERTEX
  8
0
  5
5AD
 10
6.37238
 20
-9.46597
 30
0.000000
  70
    32
  0
VERTEX
  8
0
  5
5AE
 10
6.37437
 20
-9.46483
 30
0.000000
  70
    32
  0
VERTEX
  8
0
  5
5AF
 10
6.37636
 20
-9.46369
 30
0.000000
  70
    32
  0
VERTEX
  8
0
  5
5B0
 10
6.37835
 20
-9.46254
 30
0.000000
  70
    32
  0
VERTEX
  8
0
  5
5B1
 10
6.38033
 20
-9.46138
 30
0.000000
  70
    32
  0
VERTEX
  8
0
  5
5B2
 10
6.38230
 20
-9.46021
 30
0.000000
  70
    32
  0
VERTEX
  8
0
  5
5B3
 10
6.38426
 20
-9.45904
 30
0.000000
  70
    32
  0
VERTEX
  8
0
  5
5B4
 10
6.38622
 20
-9.45785
 30
0.000000
  70
    32
  0
VERTEX
  8
0
  5
5B5
 10
6.38817
 20
-9.45665
 30
0.000000
  70
    32
  0
VERTEX
  8
0
  5
5B6
 10
6.39011
 20
-9.45545
 30
0.000000
  70
    32
  0
VERTEX
  8
0
  5
5B7
 10
6.39205
 20
-9.45424
 30
0.000000
  70
    32
  0
VERTEX
  8
0
  5
5B8
 10
6.39398
 20
-9.45301
 30
0.000000
  70
    32
  0
VERTEX
  8
0
  5
5B9
 10
6.39590
 20
-9.45178
 30
0.000000
  70
    32
  0
VERTEX
  8
0
  5
5BA
 10
6.39782
 20
-9.45054
 30
0.000000
  70
    32
  0
VERTEX
  8
0
  5
5BB
 10
6.39973
 20
-9.44929
 30
0.000000
  70
    32
  0
SEQEND
  8
0
  5
5BC
  0
POLYLINE
  8
0
  5
5BD
  66
     1
 10
0.000000
 20
0.000000
 30
0.000000
  70
     8
  0
VERTEX
  8
0
  5
5BE
 10
6.39973
 20
-9.44929
 30
0.000000
  70
    32
  0
VERTEX
  8
0
  5
5BF
 10
6.44896
 20
-9.41659
 30
0.000000
  70
    32
  0
VERTEX
  8
0
  5
5C0
 10
6.49768
 20
-9.38348
 30
0.000000
  70
    32
  0
VERTEX
  8
0
  5
5C1
 10
6.54589
 20
-9.34999
 30
0.000000
  70
    32
  0
VERTEX
  8
0
  5
5C2
 10
6.59359
 20
-9.31610
 30
0.000000
  70
    32
  0
VERTEX
  8
0
  5
5C3
 10
6.64079
 20
-9.28184
 30
0.000000
  70
    32
  0
VERTEX
  8
0
  5
5C4
 10
6.68749
 20
-9.24719
 30
0.000000
  70
    32
  0
VERTEX
  8
0
  5
5C5
 10
6.73369
 20
-9.21216
 30
0.000000
  70
    32
  0
VERTEX
  8
0
  5
5C6
 10
6.77939
 20
-9.17677
 30
0.000000
  70
    32
  0
VERTEX
  8
0
  5
5C7
 10
6.82460
 20
-9.14101
 30
0.000000
  70
    32
  0
VERTEX
  8
0
  5
5C8
 10
6.86932
 20
-9.10488
 30
0.000000
  70
    32
  0
VERTEX
  8
0
  5
5C9
 10
6.91355
 20
-9.06839
 30
0.000000
  70
    32
  0
VERTEX
  8
0
  5
5CA
 10
6.95730
 20
-9.03155
 30
0.000000
  70
    32
  0
VERTEX
  8
0
  5
5CB
 10
7.00057
 20
-8.99436
 30
0.000000
  70
    32
  0
VERTEX
  8
0
  5
5CC
 10
7.04336
 20
-8.95682
 30
0.000000
  70
    32
  0
VERTEX
  8
0
  5
5CD
 10
7.08567
 20
-8.91894
 30
0.000000
  70
    32
  0
VERTEX
  8
0
  5
5CE
 10
7.12751
 20
-8.88072
 30
0.000000
  70
    32
  0
VERTEX
  8
0
  5
5CF
 10
7.16888
 20
-8.84217
 30
0.000000
  70
    32
  0
VERTEX
  8
0
  5
5D0
 10
7.20979
 20
-8.80328
 30
0.000000
  70
    32
  0
VERTEX
  8
0
  5
5D1
 10
7.25022
 20
-8.76407
 30
0.000000
  70
    32
  0
VERTEX
  8
0
  5
5D2
 10
7.29020
 20
-8.72453
 30
0.000000
  70
    32
  0
VERTEX
  8
0
  5
5D3
 10
7.32972
 20
-8.68468
 30
0.000000
  70
    32
  0
VERTEX
  8
0
  5
5D4
 10
7.36878
 20
-8.64452
 30
0.000000
  70
    32
  0
VERTEX
  8
0
  5
5D5
 10
7.40738
 20
-8.60404
 30
0.000000
  70
    32
  0
VERTEX
  8
0
  5
5D6
 10
7.44554
 20
-8.56326
 30
0.000000
  70
    32
  0
VERTEX
  8
0
  5
5D7
 10
7.48325
 20
-8.52218
 30
0.000000
  70
    32
  0
VERTEX
  8
0
  5
5D8
 10
7.52051
 20
-8.48080
 30
0.000000
  70
    32
  0
VERTEX
  8
0
  5
5D9
 10
7.55734
 20
-8.43912
 30
0.000000
  70
    32
  0
VERTEX
  8
0
  5
5DA
 10
7.59372
 20
-8.39716
 30
0.000000
  70
    32
  0
VERTEX
  8
0
  5
5DB
 10
7.62966
 20
-8.35491
 30
0.000000
  70
    32
  0
VERTEX
  8
0
  5
5DC
 10
7.66518
 20
-8.31238
 30
0.000000
  70
    32
  0
VERTEX
  8
0
  5
5DD
 10
7.70026
 20
-8.26958
 30
0.000000
  70
    32
  0
VERTEX
  8
0
  5
5DE
 10
7.73491
 20
-8.22650
 30
0.000000
  70
    32
  0
VERTEX
  8
0
  5
5DF
 10
7.76914
 20
-8.18315
 30
0.000000
  70
    32
  0
VERTEX
  8
0
  5
5E0
 10
7.80294
 20
-8.13954
 30
0.000000
  70
    32
  0
VERTEX
  8
0
  5
5E1
 10
7.83633
 20
-8.09567
 30
0.000000
  70
    32
  0
VERTEX
  8
0
  5
5E2
 10
7.86930
 20
-8.05154
 30
0.000000
  70
    32
  0
VERTEX
  8
0
  5
5E3
 10
7.90185
 20
-8.00716
 30
0.000000
  70
    32
  0
VERTEX
  8
0
  5
5E4
 10
7.93399
 20
-7.96253
 30
0.000000
  70
    32
  0
VERTEX
  8
0
  5
5E5
 10
7.96573
 20
-7.91766
 30
0.000000
  70
    32
  0
VERTEX
  8
0
  5
5E6
 10
7.99706
 20
-7.87255
 30
0.000000
  70
    32
  0
VERTEX
  8
0
  5
5E7
 10
8.02798
 20
-7.82720
 30
0.000000
  70
    32
  0
VERTEX
  8
0
  5
5E8
 10
8.05851
 20
-7.78162
 30
0.000000
  70
    32
  0
VERTEX
  8
0
  5
5E9
 10
8.08864
 20
-7.73581
 30
0.000000
  70
    32
  0
VERTEX
  8
0
  5
5EA
 10
8.11837
 20
-7.68978
 30
0.000000
  70
    32
  0
VERTEX
  8
0
  5
5EB
 10
8.14772
 20
-7.64354
 30
0.000000
  70
    32
  0
VERTEX
  8
0
  5
5EC
 10
8.17667
 20
-7.59707
 30
0.000000
  70
    32
  0
VERTEX
  8
0
  5
5ED
 10
8.20524
 20
-7.55040
 30
0.000000
  70
    32
  0
VERTEX
  8
0
  5
5EE
 10
8.23343
 20
-7.50352
 30
0.000000
  70
    32
  0
VERTEX
  8
0
  5
5EF
 10
8.26123
 20
-7.45643
 30
0.000000
  70
    32
  0
VERTEX
  8
0
  5
5F0
 10
8.28866
 20
-7.40915
 30
0.000000
  70
    32
  0
VERTEX
  8
0
  5
5F1
 10
8.31571
 20
-7.36167
 30
0.000000
  70
    32
  0
VERTEX
  8
0
  5
5F2
 10
8.34239
 20
-7.31401
 30
0.000000
  70
    32
  0
VERTEX
  8
0
  5
5F3
 10
8.36870
 20
-7.26615
 30
0.000000
  70
    32
  0
VERTEX
  8
0
  5
5F4
 10
8.39465
 20
-7.21812
 30
0.000000
  70
    32
  0
VERTEX
  8
0
  5
5F5
 10
8.42023
 20
-7.16990
 30
0.000000
  70
    32
  0
VERTEX
  8
0
  5
5F6
 10
8.44545
 20
-7.12152
 30
0.000000
  70
    32
  0
VERTEX
  8
0
  5
5F7
 10
8.47031
 20
-7.07296
 30
0.000000
  70
    32
  0
VERTEX
  8
0
  5
5F8
 10
8.49482
 20
-7.02424
 30
0.000000
  70
    32
  0
VERTEX
  8
0
  5
5F9
 10
8.51898
 20
-6.97535
 30
0.000000
  70
    32
  0
VERTEX
  8
0
  5
5FA
 10
8.54279
 20
-6.92631
 30
0.000000
  70
    32
  0
VERTEX
  8
0
  5
5FB
 10
8.56625
 20
-6.87712
 30
0.000000
  70
    32
  0
VERTEX
  8
0
  5
5FC
 10
8.58936
 20
-6.82778
 30
0.000000
  70
    32
  0
VERTEX
  8
0
  5
5FD
 10
8.61214
 20
-6.77829
 30
0.000000
  70
    32
  0
VERTEX
  8
0
  5
5FE
 10
8.63457
 20
-6.72866
 30
0.000000
  70
    32
  0
VERTEX
  8
0
  5
5FF
 10
8.65668
 20
-6.67890
 30
0.000000
  70
    32
  0
VERTEX
  8
0
  5
600
 10
8.67845
 20
-6.62900
 30
0.000000
  70
    32
  0
VERTEX
  8
0
  5
601
 10
8.69989
 20
-6.57897
 30
0.000000
  70
    32
  0
VERTEX
  8
0
  5
602
 10
8.72100
 20
-6.52882
 30
0.000000
  70
    32
  0
VERTEX
  8
0
  5
603
 10
8.74179
 20
-6.47855
 30
0.000000
  70
    32
  0
VERTEX
  8
0
  5
604
 10
8.76225
 20
-6.42816
 30
0.000000
  70
    32
  0
VERTEX
  8
0
  5
605
 10
8.78240
 20
-6.37767
 30
0.000000
  70
    32
  0
VERTEX
  8
0
  5
606
 10
8.80224
 20
-6.32706
 30
0.000000
  70
    32
  0
VERTEX
  8
0
  5
607
 10
8.82176
 20
-6.27635
 30
0.000000
  70
    32
  0
VERTEX
  8
0
  5
608
 10
8.84097
 20
-6.22554
 30
0.000000
  70
    32
  0
VERTEX
  8
0
  5
609
 10
8.85987
 20
-6.17463
 30
0.000000
  70
    32
  0
VERTEX
  8
0
  5
60A
 10
8.87847
 20
-6.12364
 30
0.000000
  70
    32
  0
VERTEX
  8
0
  5
60B
 10
8.89676
 20
-6.07255
 30
0.000000
  70
    32
  0
VERTEX
  8
0
  5
60C
 10
8.91476
 20
-6.02139
 30
0.000000
  70
    32
  0
VERTEX
  8
0
  5
60D
 10
8.93246
 20
-5.97014
 30
0.000000
  70
    32
  0
VERTEX
  8
0
  5
60E
 10
8.94987
 20
-5.91882
 30
0.000000
  70
    32
  0
VERTEX
  8
0
  5
60F
 10
8.96699
 20
-5.86743
 30
0.000000
  70
    32
  0
VERTEX
  8
0
  5
610
 10
8.98382
 20
-5.81597
 30
0.000000
  70
    32
  0
VERTEX
  8
0
  5
611
 10
9.00037
 20
-5.76445
 30
0.000000
  70
    32
  0
VERTEX
  8
0
  5
612
 10
9.01663
 20
-5.71288
 30
0.000000
  70
    32
  0
VERTEX
  8
0
  5
613
 10
9.03262
 20
-5.66124
 30
0.000000
  70
    32
  0
VERTEX
  8
0
  5
614
 10
9.04832
 20
-5.60956
 30
0.000000
  70
    32
  0
VERTEX
  8
0
  5
615
 10
9.06376
 20
-5.55783
 30
0.000000
  70
    32
  0
VERTEX
  8
0
  5
616
 10
9.07892
 20
-5.50606
 30
0.000000
  70
    32
  0
VERTEX
  8
0
  5
617
 10
9.09382
 20
-5.45425
 30
0.000000
  70
    32
  0
VERTEX
  8
0
  5
618
 10
9.10845
 20
-5.40241
 30
0.000000
  70
    32
  0
VERTEX
  8
0
  5
619
 10
9.12282
 20
-5.35054
 30
0.000000
  70
    32
  0
VERTEX
  8
0
  5
61A
 10
9.13693
 20
-5.29864
 30
0.000000
  70
    32
  0
VERTEX
  8
0
  5
61B
 10
9.15078
 20
-5.24673
 30
0.000000
  70
    32
  0
VERTEX
  8
0
  5
61C
 10
9.16438
 20
-5.19479
 30
0.000000
  70
    32
  0
VERTEX
  8
0
  5
61D
 10
9.17773
 20
-5.14284
 30
0.000000
  70
    32
  0
VERTEX
  8
0
  5
61E
 10
9.19083
 20
-5.09089
 30
0.000000
  70
    32
  0
VERTEX
  8
0
  5
61F
 10
9.20368
 20
-5.03893
 30
0.000000
  70
    32
  0
VERTEX
  8
0
  5
620
 10
9.21630
 20
-4.98696
 30
0.000000
  70
    32
  0
VERTEX
  8
0
  5
621
 10
9.22867
 20
-4.93501
 30
0.000000
  70
    32
  0
VERTEX
  8
0
  5
622
 10
9.24080
 20
-4.88306
 30
0.000000
  70
    32
  0
VERTEX
  8
0
  5
623
 10
9.25270
 20
-4.83112
 30
0.000000
  70
    32
  0
VERTEX
  8
0
  5
624
 10
9.26437
 20
-4.77919
 30
0.000000
  70
    32
  0
VERTEX
  8
0
  5
625
 10
9.27581
 20
-4.72729
 30
0.000000
  70
    32
  0
VERTEX
  8
0
  5
626
 10
9.28703
 20
-4.67541
 30
0.000000
  70
    32
  0
VERTEX
  8
0
  5
627
 10
9.29802
 20
-4.62356
 30
0.000000
  70
    32
  0
VERTEX
  8
0
  5
628
 10
9.30879
 20
-4.57174
 30
0.000000
  70
    32
  0
VERTEX
  8
0
  5
629
 10
9.31935
 20
-4.51996
 30
0.000000
  70
    32
  0
VERTEX
  8
0
  5
62A
 10
9.32969
 20
-4.46822
 30
0.000000
  70
    32
  0
VERTEX
  8
0
  5
62B
 10
9.33982
 20
-4.41652
 30
0.000000
  70
    32
  0
VERTEX
  8
0
  5
62C
 10
9.34974
 20
-4.36488
 30
0.000000
  70
    32
  0
VERTEX
  8
0
  5
62D
 10
9.35945
 20
-4.31328
 30
0.000000
  70
    32
  0
VERTEX
  8
0
  5
62E
 10
9.36774
 20
-4.26846
 30
0.000000
  70
    32
  0
VERTEX
  8
0
  5
62F
 10
9.37467
 20
-4.23035
 30
0.000000
  70
    32
  0
VERTEX
  8
0
  5
630
 10
9.38151
 20
-4.19223
 30
0.000000
  70
    32
  0
VERTEX
  8
0
  5
631
 10
9.38825
 20
-4.15410
 30
0.000000
  70
    32
  0
VERTEX
  8
0
  5
632
 10
9.39489
 20
-4.11596
 30
0.000000
  70
    32
  0
VERTEX
  8
0
  5
633
 10
9.40144
 20
-4.07781
 30
0.000000
  70
    32
  0
VERTEX
  8
0
  5
634
 10
9.40789
 20
-4.03964
 30
0.000000
  70
    32
  0
VERTEX
  8
0
  5
635
 10
9.41424
 20
-4.00147
 30
0.000000
  70
    32
  0
VERTEX
  8
0
  5
636
 10
9.42050
 20
-3.96329
 30
0.000000
  70
    32
  0
VERTEX
  8
0
  5
637
 10
9.42667
 20
-3.92510
 30
0.000000
  70
    32
  0
VERTEX
  8
0
  5
638
 10
9.43274
 20
-3.88689
 30
0.000000
  70
    32
  0
VERTEX
  8
0
  5
639
 10
9.43872
 20
-3.84868
 30
0.000000
  70
    32
  0
VERTEX
  8
0
  5
63A
 10
9.44461
 20
-3.81046
 30
0.000000
  70
    32
  0
VERTEX
  8
0
  5
63B
 10
9.45040
 20
-3.77222
 30
0.000000
  70
    32
  0
VERTEX
  8
0
  5
63C
 10
9.45611
 20
-3.73398
 30
0.000000
  70
    32
  0
VERTEX
  8
0
  5
63D
 10
9.46172
 20
-3.69573
 30
0.000000
  70
    32
  0
VERTEX
  8
0
  5
63E
 10
9.46725
 20
-3.65747
 30
0.000000
  70
    32
  0
VERTEX
  8
0
  5
63F
 10
9.47268
 20
-3.61920
 30
0.000000
  70
    32
  0
VERTEX
  8
0
  5
640
 10
9.47803
 20
-3.58092
 30
0.000000
  70
    32
  0
VERTEX
  8
0
  5
641
 10
9.48330
 20
-3.54263
 30
0.000000
  70
    32
  0
VERTEX
  8
0
  5
642
 10
9.48847
 20
-3.50434
 30
0.000000
  70
    32
  0
VERTEX
  8
0
  5
643
 10
9.49356
 20
-3.46603
 30
0.000000
  70
    32
  0
VERTEX
  8
0
  5
644
 10
9.49856
 20
-3.42772
 30
0.000000
  70
    32
  0
VERTEX
  8
0
  5
645
 10
9.50348
 20
-3.38940
 30
0.000000
  70
    32
  0
VERTEX
  8
0
  5
646
 10
9.50831
 20
-3.35107
 30
0.000000
  70
    32
  0
VERTEX
  8
0
  5
647
 10
9.51306
 20
-3.31273
 30
0.000000
  70
    32
  0
VERTEX
  8
0
  5
648
 10
9.51773
 20
-3.27438
 30
0.000000
  70
    32
  0
VERTEX
  8
0
  5
649
 10
9.52231
 20
-3.23603
 30
0.000000
  70
    32
  0
VERTEX
  8
0
  5
64A
 10
9.52682
 20
-3.19767
 30
0.000000
  70
    32
  0
VERTEX
  8
0
  5
64B
 10
9.53124
 20
-3.15930
 30
0.000000
  70
    32
  0
VERTEX
  8
0
  5
64C
 10
9.53558
 20
-3.12092
 30
0.000000
  70
    32
  0
VERTEX
  8
0
  5
64D
 10
9.53985
 20
-3.08254
 30
0.000000
  70
    32
  0
VERTEX
  8
0
  5
64E
 10
9.54403
 20
-3.04415
 30
0.000000
  70
    32
  0
VERTEX
  8
0
  5
64F
 10
9.54813
 20
-3.00575
 30
0.000000
  70
    32
  0
VERTEX
  8
0
  5
650
 10
9.55216
 20
-2.96735
 30
0.000000
  70
    32
  0
VERTEX
  8
0
  5
651
 10
9.55611
 20
-2.92894
 30
0.000000
  70
    32
  0
VERTEX
  8
0
  5
652
 10
9.55999
 20
-2.89052
 30
0.000000
  70
    32
  0
VERTEX
  8
0
  5
653
 10
9.56379
 20
-2.85210
 30
0.000000
  70
    32
  0
VERTEX
  8
0
  5
654
 10
9.56751
 20
-2.81367
 30
0.000000
  70
    32
  0
VERTEX
  8
0
  5
655
 10
9.57116
 20
-2.77523
 30
0.000000
  70
    32
  0
VERTEX
  8
0
  5
656
 10
9.57473
 20
-2.73679
 30
0.000000
  70
    32
  0
VERTEX
  8
0
  5
657
 10
9.57824
 20
-2.69834
 30
0.000000
  70
    32
  0
VERTEX
  8
0
  5
658
 10
9.58167
 20
-2.65989
 30
0.000000
  70
    32
  0
VERTEX
  8
0
  5
659
 10
9.58502
 20
-2.62143
 30
0.000000
  70
    32
  0
VERTEX
  8
0
  5
65A
 10
9.58831
 20
-2.58296
 30
0.000000
  70
    32
  0
VERTEX
  8
0
  5
65B
 10
9.59153
 20
-2.54449
 30
0.000000
  70
    32
  0
VERTEX
  8
0
  5
65C
 10
9.59467
 20
-2.50602
 30
0.000000
  70
    32
  0
VERTEX
  8
0
  5
65D
 10
9.59775
 20
-2.46753
 30
0.000000
  70
    32
  0
VERTEX
  8
0
  5
65E
 10
9.60076
 20
-2.42905
 30
0.000000
  70
    32
  0
VERTEX
  8
0
  5
65F
 10
9.60370
 20
-2.39056
 30
0.000000
  70
    32
  0
VERTEX
  8
0
  5
660
 10
9.60658
 20
-2.35206
 30
0.000000
  70
    32
  0
VERTEX
  8
0
  5
661
 10
9.60938
 20
-2.31356
 30
0.000000
  70
    32
  0
VERTEX
  8
0
  5
662
 10
9.61213
 20
-2.27506
 30
0.000000
  70
    32
  0
VERTEX
  8
0
  5
663
 10
9.61480
 20
-2.23655
 30
0.000000
  70
    32
  0
VERTEX
  8
0
  5
664
 10
9.61741
 20
-2.19804
 30
0.000000
  70
    32
  0
VERTEX
  8
0
  5
665
 10
9.61996
 20
-2.15952
 30
0.000000
  70
    32
  0
VERTEX
  8
0
  5
666
 10
9.62245
 20
-2.12100
 30
0.000000
  70
    32
  0
VERTEX
  8
0
  5
667
 10
9.62487
 20
-2.08247
 30
0.000000
  70
    32
  0
VERTEX
  8
0
  5
668
 10
9.62723
 20
-2.04395
 30
0.000000
  70
    32
  0
VERTEX
  8
0
  5
669
 10
9.62953
 20
-2.00541
 30
0.000000
  70
    32
  0
VERTEX
  8
0
  5
66A
 10
9.63177
 20
-1.96688
 30
0.000000
  70
    32
  0
VERTEX
  8
0
  5
66B
 10
9.63394
 20
-1.92834
 30
0.000000
  70
    32
  0
VERTEX
  8
0
  5
66C
 10
9.63606
 20
-1.88980
 30
0.000000
  70
    32
  0
VERTEX
  8
0
  5
66D
 10
9.63812
 20
-1.85126
 30
0.000000
  70
    32
  0
VERTEX
  8
0
  5
66E
 10
9.64012
 20
-1.81271
 30
0.000000
  70
    32
  0
VERTEX
  8
0
  5
66F
 10
9.64207
 20
-1.77416
 30
0.000000
  70
    32
  0
VERTEX
  8
0
  5
670
 10
9.64396
 20
-1.73561
 30
0.000000
  70
    32
  0
VERTEX
  8
0
  5
671
 10
9.64579
 20
-1.69705
 30
0.000000
  70
    32
  0
VERTEX
  8
0
  5
672
 10
9.64757
 20
-1.65849
 30
0.000000
  70
    32
  0
VERTEX
  8
0
  5
673
 10
9.64929
 20
-1.61994
 30
0.000000
  70
    32
  0
VERTEX
  8
0
  5
674
 10
9.65096
 20
-1.58137
 30
0.000000
  70
    32
  0
VERTEX
  8
0
  5
675
 10
9.65257
 20
-1.54281
 30
0.000000
  70
    32
  0
VERTEX
  8
0
  5
676
 10
9.65413
 20
-1.50425
 30
0.000000
  70
    32
  0
VERTEX
  8
0
  5
677
 10
9.65564
 20
-1.46568
 30
0.000000
  70
    32
  0
VERTEX
  8
0
  5
678
 10
9.65710
 20
-1.42711
 30
0.000000
  70
    32
  0
VERTEX
  8
0
  5
679
 10
9.65851
 20
-1.38854
 30
0.000000
  70
    32
  0
VERTEX
  8
0
  5
67A
 10
9.65986
 20
-1.34997
 30
0.000000
  70
    32
  0
VERTEX
  8
0
  5
67B
 10
9.66117
 20
-1.31140
 30
0.000000
  70
    32
  0
VERTEX
  8
0
  5
67C
 10
9.66243
 20
-1.27283
 30
0.000000
  70
    32
  0
VERTEX
  8
0
  5
67D
 10
9.66364
 20
-1.23425
 30
0.000000
  70
    32
  0
VERTEX
  8
0
  5
67E
 10
9.66480
 20
-1.19568
 30
0.000000
  70
    32
  0
VERTEX
  8
0
  5
67F
 10
9.66592
 20
-1.15710
 30
0.000000
  70
    32
  0
VERTEX
  8
0
  5
680
 10
9.66699
 20
-1.11853
 30
0.000000
  70
    32
  0
VERTEX
  8
0
  5
681
 10
9.66801
 20
-1.07995
 30
0.000000
  70
    32
  0
VERTEX
  8
0
  5
682
 10
9.66899
 20
-1.04138
 30
0.000000
  70
    32
  0
VERTEX
  8
0
  5
683
 10
9.66993
 20
-1.00280
 30
0.000000
  70
    32
  0
VERTEX
  8
0
  5
684
 10
9.67082
 20
-0.964225
 30
0.000000
  70
    32
  0
VERTEX
  8
0
  5
685
 10
9.67167
 20
-0.925650
 30
0.000000
  70
    32
  0
VERTEX
  8
0
  5
686
 10
9.67247
 20
-0.887075
 30
0.000000
  70
    32
  0
VERTEX
  8
0
  5
687
 10
9.67324
 20
-0.848500
 30
0.000000
  70
    32
  0
VERTEX
  8
0
  5
688
 10
9.67396
 20
-0.809926
 30
0.000000
  70
    32
  0
VERTEX
  8
0
  5
689
 10
9.67464
 20
-0.771353
 30
0.000000
  70
    32
  0
VERTEX
  8
0
  5
68A
 10
9.67528
 20
-0.732781
 30
0.000000
  70
    32
  0
VERTEX
  8
0
  5
68B
 10
9.67589
 20
-0.694210
 30
0.000000
  70
    32
  0
VERTEX
  8
0
  5
68C
 10
9.67645
 20
-0.655640
 30
0.000000
  70
    32
  0
VERTEX
  8
0
  5
68D
 10
9.67698
 20
-0.617071
 30
0.000000
  70
    32
  0
VERTEX
  8
0
  5
68E
 10
9.67747
 20
-0.578504
 30
0.000000
  70
    32
  0
VERTEX
  8
0
  5
68F
 10
9.67793
 20
-0.539938
 30
0.000000
  70
    32
  0
VERTEX
  8
0
  5
690
 10
9.67835
 20
-0.501374
 30
0.000000
  70
    32
  0
VERTEX
  8
0
  5
691
 10
9.67873
 20
-0.462812
 30
0.000000
  70
    32
  0
VERTEX
  8
0
  5
692
 10
9.67908
 20
-0.424252
 30
0.000000
  70
    32
  0
VERTEX
  8
0
  5
693
 10
9.67940
 20
-0.385694
 30
0.000000
  70
    32
  0
VERTEX
  8
0
  5
694
 10
9.67968
 20
-0.347138
 30
0.000000
  70
    32
  0
VERTEX
  8
0
  5
695
 10
9.67993
 20
-0.308584
 30
0.000000
  70
    32
  0
VERTEX
  8
0
  5
696
 10
9.68015
 20
-0.270033
 30
0.000000
  70
    32
  0
VERTEX
  8
0
  5
697
 10
9.68033
 20
-0.231485
 30
0.000000
  70
    32
  0
VERTEX
  8
0
  5
698
 10
9.68049
 20
-0.192939
 30
0.000000
  70
    32
  0
VERTEX
  8
0
  5
699
 10
9.68062
 20
-0.154397
 30
0.000000
  70
    32
  0
VERTEX
  8
0
  5
69A
 10
9.68071
 20
-0.115857
 30
0.000000
  70
    32
  0
VERTEX
  8
0
  5
69B
 10
9.68078
 20
-0.0773208
 30
0.000000
  70
    32
  0
VERTEX
  8
0
  5
69C
 10
9.68082
 20
-0.0387877
 30
0.000000
  70
    32
  0
VERTEX
  8
0
  5
69D
 10
9.68083
 20
-0.000258026
 30
0.000000
  70
    32
  0
SEQEND
  8
0
  5
69E
  0
POLYLINE
  8
0
  5
69F
  66
     1
 10
0.000000
 20
0.000000
 30
0.000000
  70
     8
  0
VERTEX
  8
0
  5
6A0
 10
9.68083
 20
-0.000258026
 30
0.000000
  70
    32
  0
VERTEX
  8
0
  5
6A1
 10
9.68081
 20
0.0541987
 30
0.000000
  70
    32
  0
VERTEX
  8
0
  5
6A2
 10
9.68074
 20
0.108682
 30
0.000000
  70
    32
  0
VERTEX
  8
0
  5
6A3
 10
9.68063
 20
0.163190
 30
0.000000
  70
    32
  0
VERTEX
  8
0
  5
6A4
 10
9.68046
 20
0.217723
 30
0.000000
  70
    32
  0
VERTEX
  8
0
  5
6A5
 10
9.68024
 20
0.272280
 30
0.000000
  70
    32
  0
VERTEX
  8
0
  5
6A6
 10
9.67997
 20
0.326860
 30
0.000000
  70
    32
  0
VERTEX
  8
0
  5
6A7
 10
9.67963
 20
0.381462
 30
0.000000
  70
    32
  0
VERTEX
  8
0
  5
6A8
 10
9.67924
 20
0.436086
 30
0.000000
  70
    32
  0
VERTEX
  8
0
  5
6A9
 10
9.67879
 20
0.490730
 30
0.000000
  70
    32
  0
VERTEX
  8
0
  5
6AA
 10
9.67828
 20
0.545394
 30
0.000000
  70
    32
  0
VERTEX
  8
0
  5
6AB
 10
9.67770
 20
0.600077
 30
0.000000
  70
    32
  0
VERTEX
  8
0
  5
6AC
 10
9.67705
 20
0.654777
 30
0.000000
  70
    32
  0
VERTEX
  8
0
  5
6AD
 10
9.67633
 20
0.709495
 30
0.000000
  70
    32
  0
VERTEX
  8
0
  5
6AE
 10
9.67554
 20
0.764230
 30
0.000000
  70
    32
  0
VERTEX
  8
0
  5
6AF
 10
9.67467
 20
0.818980
 30
0.000000
  70
    32
  0
VERTEX
  8
0
  5
6B0
 10
9.67373
 20
0.873745
 30
0.000000
  70
    32
  0
VERTEX
  8
0
  5
6B1
 10
9.67271
 20
0.928524
 30
0.000000
  70
    32
  0
VERTEX
  8
0
  5
6B2
 10
9.67161
 20
0.983316
 30
0.000000
  70
    32
  0
VERTEX
  8
0
  5
6B3
 10
9.67042
 20
1.03812
 30
0.000000
  70
    32
  0
VERTEX
  8
0
  5
6B4
 10
9.66915
 20
1.09294
 30
0.000000
  70
    32
  0
VERTEX
  8
0
  5
6B5
 10
9.66779
 20
1.14776
 30
0.000000
  70
    32
  0
VERTEX
  8
0
  5
6B6
 10
9.66634
 20
1.20260
 30
0.000000
  70
    32
  0
VERTEX
  8
0
  5
6B7
 10
9.66480
 20
1.25745
 30
0.000000
  70
    32
  0
VERTEX
  8
0
  5
6B8
 10
9.66317
 20
1.31230
 30
0.000000
  70
    32
  0
VERTEX
  8
0
  5
6B9
 10
9.66144
 20
1.36716
 30
0.000000
  70
    32
  0
VERTEX
  8
0
  5
6BA
 10
9.65961
 20
1.42203
 30
0.000000
  70
    32
  0
VERTEX
  8
0
  5
6BB
 10
9.65768
 20
1.47690
 30
0.000000
  70
    32
  0
VERTEX
  8
0
  5
6BC
 10
9.65565
 20
1.53178
 30
0.000000
  70
    32
  0
VERTEX
  8
0
  5
6BD
 10
9.65352
 20
1.58667
 30
0.000000
  70
    32
  0
VERTEX
  8
0
  5
6BE
 10
9.65127
 20
1.64155
 30
0.000000
  70
    32
  0
VERTEX
  8
0
  5
6BF
 10
9.64892
 20
1.69644
 30
0.000000
  70
    32
  0
VERTEX
  8
0
  5
6C0
 10
9.64645
 20
1.75133
 30
0.000000
  70
    32
  0
VERTEX
  8
0
  5
6C1
 10
9.64388
 20
1.80622
 30
0.000000
  70
    32
  0
VERTEX
  8
0
  5
6C2
 10
9.64118
 20
1.86112
 30
0.000000
  70
    32
  0
VERTEX
  8
0
  5
6C3
 10
9.63837
 20
1.91601
 30
0.000000
  70
    32
  0
VERTEX
  8
0
  5
6C4
 10
9.63544
 20
1.97090
 30
0.000000
  70
    32
  0
VERTEX
  8
0
  5
6C5
 10
9.63238
 20
2.02578
 30
0.000000
  70
    32
  0
VERTEX
  8
0
  5
6C6
 10
9.62921
 20
2.08067
 30
0.000000
  70
    32
  0
VERTEX
  8
0
  5
6C7
 10
9.62590
 20
2.13555
 30
0.000000
  70
    32
  0
VERTEX
  8
0
  5
6C8
 10
9.62247
 20
2.19042
 30
0.000000
  70
    32
  0
VERTEX
  8
0
  5
6C9
 10
9.61890
 20
2.24529
 30
0.000000
  70
    32
  0
VERTEX
  8
0
  5
6CA
 10
9.61520
 20
2.30016
 30
0.000000
  70
    32
  0
VERTEX
  8
0
  5
6CB
 10
9.61137
 20
2.35501
 30
0.000000
  70
    32
  0
VERTEX
  8
0
  5
6CC
 10
9.60739
 20
2.40986
 30
0.000000
  70
    32
  0
VERTEX
  8
0
  5
6CD
 10
9.60328
 20
2.46470
 30
0.000000
  70
    32
  0
VERTEX
  8
0
  5
6CE
 10
9.59903
 20
2.51953
 30
0.000000
  70
    32
  0
VERTEX
  8
0
  5
6CF
 10
9.59463
 20
2.57435
 30
0.000000
  70
    32
  0
VERTEX
  8
0
  5
6D0
 10
9.59009
 20
2.62915
 30
0.000000
  70
    32
  0
VERTEX
  8
0
  5
6D1
 10
9.58539
 20
2.68395
 30
0.000000
  70
    32
  0
VERTEX
  8
0
  5
6D2
 10
9.58055
 20
2.73873
 30
0.000000
  70
    32
  0
VERTEX
  8
0
  5
6D3
 10
9.57555
 20
2.79350
 30
0.000000
  70
    32
  0
VERTEX
  8
0
  5
6D4
 10
9.57040
 20
2.84825
 30
0.000000
  70
    32
  0
VERTEX
  8
0
  5
6D5
 10
9.56509
 20
2.90299
 30
0.000000
  70
    32
  0
VERTEX
  8
0
  5
6D6
 10
9.55962
 20
2.95771
 30
0.000000
  70
    32
  0
VERTEX
  8
0
  5
6D7
 10
9.55399
 20
3.01241
 30
0.000000
  70
    32
  0
VERTEX
  8
0
  5
6D8
 10
9.54820
 20
3.06710
 30
0.000000
  70
    32
  0
VERTEX
  8
0
  5
6D9
 10
9.54224
 20
3.12177
 30
0.000000
  70
    32
  0
VERTEX
  8
0
  5
6DA
 10
9.53611
 20
3.17642
 30
0.000000
  70
    32
  0
VERTEX
  8
0
  5
6DB
 10
9.52981
 20
3.23105
 30
0.000000
  70
    32
  0
VERTEX
  8
0
  5
6DC
 10
9.52334
 20
3.28565
 30
0.000000
  70
    32
  0
VERTEX
  8
0
  5
6DD
 10
9.51670
 20
3.34024
 30
0.000000
  70
    32
  0
VERTEX
  8
0
  5
6DE
 10
9.50987
 20
3.39480
 30
0.000000
  70
    32
  0
VERTEX
  8
0
  5
6DF
 10
9.50287
 20
3.44934
 30
0.000000
  70
    32
  0
VERTEX
  8
0
  5
6E0
 10
9.49569
 20
3.50385
 30
0.000000
  70
    32
  0
VERTEX
  8
0
  5
6E1
 10
9.48832
 20
3.55834
 30
0.000000
  70
    32
  0
VERTEX
  8
0
  5
6E2
 10
9.48077
 20
3.61280
 30
0.000000
  70
    32
  0
VERTEX
  8
0
  5
6E3
 10
9.47303
 20
3.66724
 30
0.000000
  70
    32
  0
VERTEX
  8
0
  5
6E4
 10
9.46510
 20
3.72164
 30
0.000000
  70
    32
  0
VERTEX
  8
0
  5
6E5
 10
9.45698
 20
3.77602
 30
0.000000
  70
    32
  0
VERTEX
  8
0
  5
6E6
 10
9.44867
 20
3.83037
 30
0.000000
  70
    32
  0
VERTEX
  8
0
  5
6E7
 10
9.44015
 20
3.88469
 30
0.000000
  70
    32
  0
VERTEX
  8
0
  5
6E8
 10
9.43144
 20
3.93898
 30
0.000000
  70
    32
  0
VERTEX
  8
0
  5
6E9
 10
9.42253
 20
3.99324
 30
0.000000
  70
    32
  0
VERTEX
  8
0
  5
6EA
 10
9.41342
 20
4.04746
 30
0.000000
  70
    32
  0
VERTEX
  8
0
  5
6EB
 10
9.40409
 20
4.10165
 30
0.000000
  70
    32
  0
VERTEX
  8
0
  5
6EC
 10
9.39457
 20
4.15581
 30
0.000000
  70
    32
  0
VERTEX
  8
0
  5
6ED
 10
9.38483
 20
4.20993
 30
0.000000
  70
    32
  0
VERTEX
  8
0
  5
6EE
 10
9.37488
 20
4.26401
 30
0.000000
  70
    32
  0
VERTEX
  8
0
  5
6EF
 10
9.36472
 20
4.31806
 30
0.000000
  70
    32
  0
VERTEX
  8
0
  5
6F0
 10
9.35434
 20
4.37207
 30
0.000000
  70
    32
  0
VERTEX
  8
0
  5
6F1
 10
9.34374
 20
4.42605
 30
0.000000
  70
    32
  0
VERTEX
  8
0
  5
6F2
 10
9.33292
 20
4.47998
 30
0.000000
  70
    32
  0
VERTEX
  8
0
  5
6F3
 10
9.32188
 20
4.53387
 30
0.000000
  70
    32
  0
VERTEX
  8
0
  5
6F4
 10
9.31062
 20
4.58772
 30
0.000000
  70
    32
  0
VERTEX
  8
0
  5
6F5
 10
9.29913
 20
4.64154
 30
0.000000
  70
    32
  0
VERTEX
  8
0
  5
6F6
 10
9.28740
 20
4.69530
 30
0.000000
  70
    32
  0
VERTEX
  8
0
  5
6F7
 10
9.27545
 20
4.74903
 30
0.000000
  70
    32
  0
VERTEX
  8
0
  5
6F8
 10
9.26326
 20
4.80271
 30
0.000000
  70
    32
  0
VERTEX
  8
0
  5
6F9
 10
9.25084
 20
4.85634
 30
0.000000
  70
    32
  0
VERTEX
  8
0
  5
6FA
 10
9.23818
 20
4.90993
 30
0.000000
  70
    32
  0
VERTEX
  8
0
  5
6FB
 10
9.22528
 20
4.96348
 30
0.000000
  70
    32
  0
VERTEX
  8
0
  5
6FC
 10
9.21214
 20
5.01697
 30
0.000000
  70
    32
  0
VERTEX
  8
0
  5
6FD
 10
9.19875
 20
5.07042
 30
0.000000
  70
    32
  0
VERTEX
  8
0
  5
6FE
 10
9.18512
 20
5.12382
 30
0.000000
  70
    32
  0
VERTEX
  8
0
  5
6FF
 10
9.17124
 20
5.17717
 30
0.000000
  70
    32
  0
VERTEX
  8
0
  5
700
 10
9.15710
 20
5.23047
 30
0.000000
  70
    32
  0
VERTEX
  8
0
  5
701
 10
9.14272
 20
5.28372
 30
0.000000
  70
    32
  0
VERTEX
  8
0
  5
702
 10
9.12807
 20
5.33691
 30
0.000000
  70
    32
  0
VERTEX
  8
0
  5
703
 10
9.11317
 20
5.39005
 30
0.000000
  70
    32
  0
VERTEX
  8
0
  5
704
 10
9.09802
 20
5.44314
 30
0.000000
  70
    32
  0
VERTEX
  8
0
  5
705
 10
9.08259
 20
5.49617
 30
0.000000
  70
    32
  0
VERTEX
  8
0
  5
706
 10
9.06691
 20
5.54915
 30
0.000000
  70
    32
  0
VERTEX
  8
0
  5
707
 10
9.05096
 20
5.60207
 30
0.000000
  70
    32
  0
VERTEX
  8
0
  5
708
 10
9.03474
 20
5.65493
 30
0.000000
  70
    32
  0
VERTEX
  8
0
  5
709
 10
9.01825
 20
5.70774
 30
0.000000
  70
    32
  0
VERTEX
  8
0
  5
70A
 10
9.00148
 20
5.76048
 30
0.000000
  70
    32
  0
VERTEX
  8
0
  5
70B
 10
8.98444
 20
5.81317
 30
0.000000
  70
    32
  0
VERTEX
  8
0
  5
70C
 10
8.96713
 20
5.86580
 30
0.000000
  70
    32
  0
VERTEX
  8
0
  5
70D
 10
8.94953
 20
5.91836
 30
0.000000
  70
    32
  0
VERTEX
  8
0
  5
70E
 10
8.93166
 20
5.97087
 30
0.000000
  70
    32
  0
VERTEX
  8
0
  5
70F
 10
8.91350
 20
6.02331
 30
0.000000
  70
    32
  0
VERTEX
  8
0
  5
710
 10
8.89809
 20
6.06708
 30
0.000000
  70
    32
  0
VERTEX
  8
0
  5
711
 10
8.88555
 20
6.10223
 30
0.000000
  70
    32
  0
VERTEX
  8
0
  5
712
 10
8.87285
 20
6.13735
 30
0.000000
  70
    32
  0
VERTEX
  8
0
  5
713
 10
8.86000
 20
6.17244
 30
0.000000
  70
    32
  0
VERTEX
  8
0
  5
714
 10
8.84699
 20
6.20750
 30
0.000000
  70
    32
  0
VERTEX
  8
0
  5
715
 10
8.83383
 20
6.24253
 30
0.000000
  70
    32
  0
VERTEX
  8
0
  5
716
 10
8.82051
 20
6.27753
 30
0.000000
  70
    32
  0
VERTEX
  8
0
  5
717
 10
8.80703
 20
6.31250
 30
0.000000
  70
    32
  0
VERTEX
  8
0
  5
718
 10
8.79340
 20
6.34743
 30
0.000000
  70
    32
  0
VERTEX
  8
0
  5
719
 10
8.77960
 20
6.38232
 30
0.000000
  70
    32
  0
VERTEX
  8
0
  5
71A
 10
8.76565
 20
6.41718
 30
0.000000
  70
    32
  0
VERTEX
  8
0
  5
71B
 10
8.75154
 20
6.45199
 30
0.000000
  70
    32
  0
VERTEX
  8
0
  5
71C
 10
8.73726
 20
6.48677
 30
0.000000
  70
    32
  0
VERTEX
  8
0
  5
71D
 10
8.72283
 20
6.52150
 30
0.000000
  70
    32
  0
VERTEX
  8
0
  5
71E
 10
8.70823
 20
6.55618
 30
0.000000
  70
    32
  0
VERTEX
  8
0
  5
71F
 10
8.69347
 20
6.59082
 30
0.000000
  70
    32
  0
VERTEX
  8
0
  5
720
 10
8.67854
 20
6.62541
 30
0.000000
  70
    32
  0
VERTEX
  8
0
  5
721
 10
8.66345
 20
6.65995
 30
0.000000
  70
    32
  0
VERTEX
  8
0
  5
722
 10
8.64820
 20
6.69444
 30
0.000000
  70
    32
  0
VERTEX
  8
0
  5
723
 10
8.63277
 20
6.72887
 30
0.000000
  70
    32
  0
VERTEX
  8
0
  5
724
 10
8.61718
 20
6.76325
 30
0.000000
  70
    32
  0
VERTEX
  8
0
  5
725
 10
8.60143
 20
6.79757
 30
0.000000
  70
    32
  0
VERTEX
  8
0
  5
726
 10
8.58550
 20
6.83184
 30
0.000000
  70
    32
  0
VERTEX
  8
0
  5
727
 10
8.56941
 20
6.86604
 30
0.000000
  70
    32
  0
VERTEX
  8
0
  5
728
 10
8.55314
 20
6.90019
 30
0.000000
  70
    32
  0
VERTEX
  8
0
  5
729
 10
8.53671
 20
6.93427
 30
0.000000
  70
    32
  0
VERTEX
  8
0
  5
72A
 10
8.52010
 20
6.96828
 30
0.000000
  70
    32
  0
VERTEX
  8
0
  5
72B
 10
8.50332
 20
7.00223
 30
0.000000
  70
    32
  0
VERTEX
  8
0
  5
72C
 10
8.48637
 20
7.03611
 30
0.000000
  70
    32
  0
VERTEX
  8
0
  5
72D
 10
8.46924
 20
7.06993
 30
0.000000
  70
    32
  0
VERTEX
  8
0
  5
72E
 10
8.45194
 20
7.10367
 30
0.000000
  70
    32
  0
VERTEX
  8
0
  5
72F
 10
8.43446
 20
7.13733
 30
0.000000
  70
    32
  0
VERTEX
  8
0
  5
730
 10
8.41680
 20
7.17093
 30
0.000000
  70
    32
  0
VERTEX
  8
0
  5
731
 10
8.39897
 20
7.20444
 30
0.000000
  70
    32
  0
VERTEX
  8
0
  5
732
 10
8.38097
 20
7.23788
 30
0.000000
  70
    32
  0
VERTEX
  8
0
  5
733
 10
8.36278
 20
7.27124
 30
0.000000
  70
    32
  0
VERTEX
  8
0
  5
734
 10
8.34441
 20
7.30452
 30
0.000000
  70
    32
  0
VERTEX
  8
0
  5
735
 10
8.32587
 20
7.33771
 30
0.000000
  70
    32
  0
VERTEX
  8
0
  5
736
 10
8.30714
 20
7.37082
 30
0.000000
  70
    32
  0
VERTEX
  8
0
  5
737
 10
8.28823
 20
7.40385
 30
0.000000
  70
    32
  0
VERTEX
  8
0
  5
738
 10
8.26914
 20
7.43678
 30
0.000000
  70
    32
  0
VERTEX
  8
0
  5
739
 10
8.24986
 20
7.46963
 30
0.000000
  70
    32
  0
VERTEX
  8
0
  5
73A
 10
8.23040
 20
7.50239
 30
0.000000
  70
    32
  0
VERTEX
  8
0
  5
73B
 10
8.21076
 20
7.53505
 30
0.000000
  70
    32
  0
VERTEX
  8
0
  5
73C
 10
8.19093
 20
7.56762
 30
0.000000
  70
    32
  0
VERTEX
  8
0
  5
73D
 10
8.17092
 20
7.60009
 30
0.000000
  70
    32
  0
VERTEX
  8
0
  5
73E
 10
8.15071
 20
7.63247
 30
0.000000
  70
    32
  0
VERTEX
  8
0
  5
73F
 10
8.13032
 20
7.66475
 30
0.000000
  70
    32
  0
VERTEX
  8
0
  5
740
 10
8.10975
 20
7.69692
 30
0.000000
  70
    32
  0
VERTEX
  8
0
  5
741
 10
8.08898
 20
7.72900
 30
0.000000
  70
    32
  0
VERTEX
  8
0
  5
742
 10
8.06802
 20
7.76097
 30
0.000000
  70
    32
  0
VERTEX
  8
0
  5
743
 10
8.04687
 20
7.79283
 30
0.000000
  70
    32
  0
VERTEX
  8
0
  5
744
 10
8.02553
 20
7.82459
 30
0.000000
  70
    32
  0
VERTEX
  8
0
  5
745
 10
8.00400
 20
7.85624
 30
0.000000
  70
    32
  0
VERTEX
  8
0
  5
746
 10
7.98227
 20
7.88777
 30
0.000000
  70
    32
  0
VERTEX
  8
0
  5
747
 10
7.96035
 20
7.91920
 30
0.000000
  70
    32
  0
VERTEX
  8
0
  5
748
 10
7.93824
 20
7.95051
 30
0.000000
  70
    32
  0
VERTEX
  8
0
  5
749
 10
7.91593
 20
7.98170
 30
0.000000
  70
    32
  0
VERTEX
  8
0
  5
74A
 10
7.89342
 20
8.01278
 30
0.000000
  70
    32
  0
VERTEX
  8
0
  5
74B
 10
7.87072
 20
8.04374
 30
0.000000
  70
    32
  0
VERTEX
  8
0
  5
74C
 10
7.84782
 20
8.07458
 30
0.000000
  70
    32
  0
VERTEX
  8
0
  5
74D
 10
7.82472
 20
8.10530
 30
0.000000
  70
    32
  0
VERTEX
  8
0
  5
74E
 10
7.80142
 20
8.13589
 30
0.000000
  70
    32
  0
VERTEX
  8
0
  5
74F
 10
7.77792
 20
8.16636
 30
0.000000
  70
    32
  0
VERTEX
  8
0
  5
750
 10
7.75422
 20
8.19670
 30
0.000000
  70
    32
  0
VERTEX
  8
0
  5
751
 10
7.73032
 20
8.22691
 30
0.000000
  70
    32
  0
VERTEX
  8
0
  5
752
 10
7.70622
 20
8.25699
 30
0.000000
  70
    32
  0
VERTEX
  8
0
  5
753
 10
7.68191
 20
8.28694
 30
0.000000
  70
    32
  0
VERTEX
  8
0
  5
754
 10
7.65740
 20
8.31676
 30
0.000000
  70
    32
  0
VERTEX
  8
0
  5
755
 10
7.63269
 20
8.34644
 30
0.000000
  70
    32
  0
VERTEX
  8
0
  5
756
 10
7.60777
 20
8.37598
 30
0.000000
  70
    32
  0
VERTEX
  8
0
  5
757
 10
7.58264
 20
8.40539
 30
0.000000
  70
    32
  0
VERTEX
  8
0
  5
758
 10
7.55731
 20
8.43466
 30
0.000000
  70
    32
  0
VERTEX
  8
0
  5
759
 10
7.53177
 20
8.46378
 30
0.000000
  70
    32
  0
VERTEX
  8
0
  5
75A
 10
7.50602
 20
8.49276
 30
0.000000
  70
    32
  0
VERTEX
  8
0
  5
75B
 10
7.48006
 20
8.52160
 30
0.000000
  70
    32
  0
VERTEX
  8
0
  5
75C
 10
7.45389
 20
8.55029
 30
0.000000
  70
    32
  0
VERTEX
  8
0
  5
75D
 10
7.42751
 20
8.57883
 30
0.000000
  70
    32
  0
VERTEX
  8
0
  5
75E
 10
7.40092
 20
8.60722
 30
0.000000
  70
    32
  0
VERTEX
  8
0
  5
75F
 10
7.37412
 20
8.63546
 30
0.000000
  70
    32
  0
VERTEX
  8
0
  5
760
 10
7.34710
 20
8.66354
 30
0.000000
  70
    32
  0
VERTEX
  8
0
  5
761
 10
7.31987
 20
8.69147
 30
0.000000
  70
    32
  0
VERTEX
  8
0
  5
762
 10
7.29242
 20
8.71925
 30
0.000000
  70
    32
  0
VERTEX
  8
0
  5
763
 10
7.26476
 20
8.74687
 30
0.000000
  70
    32
  0
VERTEX
  8
0
  5
764
 10
7.23689
 20
8.77432
 30
0.000000
  70
    32
  0
VERTEX
  8
0
  5
765
 10
7.20879
 20
8.80162
 30
0.000000
  70
    32
  0
VERTEX
  8
0
  5
766
 10
7.18048
 20
8.82875
 30
0.000000
  70
    32
  0
VERTEX
  8
0
  5
767
 10
7.15195
 20
8.85572
 30
0.000000
  70
    32
  0
VERTEX
  8
0
  5
768
 10
7.12320
 20
8.88252
 30
0.000000
  70
    32
  0
VERTEX
  8
0
  5
769
 10
7.09424
 20
8.90915
 30
0.000000
  70
    32
  0
VERTEX
  8
0
  5
76A
 10
7.06505
 20
8.93562
 30
0.000000
  70
    32
  0
VERTEX
  8
0
  5
76B
 10
7.03564
 20
8.96191
 30
0.000000
  70
    32
  0
VERTEX
  8
0
  5
76C
 10
7.00600
 20
8.98803
 30
0.000000
  70
    32
  0
VERTEX
  8
0
  5
76D
 10
6.97615
 20
9.01398
 30
0.000000
  70
    32
  0
VERTEX
  8
0
  5
76E
 10
6.94607
 20
9.03975
 30
0.000000
  70
    32
  0
VERTEX
  8
0
  5
76F
 10
6.91576
 20
9.06534
 30
0.000000
  70
    32
  0
VERTEX
  8
0
  5
770
 10
6.88523
 20
9.09075
 30
0.000000
  70
    32
  0
VERTEX
  8
0
  5
771
 10
6.85448
 20
9.11598
 30
0.000000
  70
    32
  0
VERTEX
  8
0
  5
772
 10
6.82349
 20
9.14103
 30
0.000000
  70
    32
  0
VERTEX
  8
0
  5
773
 10
6.79228
 20
9.16589
 30
0.000000
  70
    32
  0
VERTEX
  8
0
  5
774
 10
6.76085
 20
9.19057
 30
0.000000
  70
    32
  0
VERTEX
  8
0
  5
775
 10
6.72918
 20
9.21506
 30
0.000000
  70
    32
  0
VERTEX
  8
0
  5
776
 10
6.69728
 20
9.23936
 30
0.000000
  70
    32
  0
VERTEX
  8
0
  5
777
 10
6.66515
 20
9.26348
 30
0.000000
  70
    32
  0
VERTEX
  8
0
  5
778
 10
6.63279
 20
9.28739
 30
0.000000
  70
    32
  0
VERTEX
  8
0
  5
779
 10
6.60020
 20
9.31112
 30
0.000000
  70
    32
  0
VERTEX
  8
0
  5
77A
 10
6.56737
 20
9.33465
 30
0.000000
  70
    32
  0
VERTEX
  8
0
  5
77B
 10
6.53431
 20
9.35798
 30
0.000000
  70
    32
  0
VERTEX
  8
0
  5
77C
 10
6.50102
 20
9.38111
 30
0.000000
  70
    32
  0
VERTEX
  8
0
  5
77D
 10
6.46749
 20
9.40404
 30
0.000000
  70
    32
  0
VERTEX
  8
0
  5
77E
 10
6.43373
 20
9.42677
 30
0.000000
  70
    32
  0
VERTEX
  8
0
  5
77F
 10
6.39973
 20
9.44929
 30
0.000000
  70
    32
  0
SEQEND
  8
0
  5
780
  0
LINE
  5
44
  8
0
 10
0.5
 20
8.6429697844047837
 30
0.0
 11
0.5
 21
-8.6427968171577163
 31
0.0
  0
ATTDEF
  5
46
  8
0
  6
CONTINUOUS
 62
     6
 10
0.0
 20
0.0
 30
0.0
 40
0.003
  1
K-3589
  3

  2
MODELNUMBER
 70
     2
  0
ATTDEF
  5
47
  8
0
  6
CONTINUOUS
 62
     6
 10
0.0
 20
-0.005
 30
0.0
 40
0.003
  1
CIMARRON
  3

  2
TRADENAME
 70
     2
  0
ATTDEF
  5
48
  8
0
  6
CONTINUOUS
 62
     6
 10
0.0
 20
-0.01
 30
0.0
 40
0.003
  1
TOILETS
  3

  2
PRODUCT
 70
     2
  0
ATTDEF
  5
49
  8
0
  6
CONTINUOUS
 62
     6
 10
0.0
 20
-0.015
 30
0.0
 40
0.003
  1
VITREOUS CHINA
  3

  2
MATERIAL
 70
     2
  0
POLYLINE
  8
0
  5
781
  66
     1
 10
0.000000
 20
0.000000
 30
0.000000
  70
     8
  0
VERTEX
  8
0
  5
782
 10
9.30404
 20
-4.59474
 30
0.000000
  70
    32
  0
VERTEX
  8
0
  5
783
 10
9.35828
 20
-4.59966
 30
0.000000
  70
    32
  0
VERTEX
  8
0
  5
784
 10
9.41246
 20
-4.60463
 30
0.000000
  70
    32
  0
VERTEX
  8
0
  5
785
 10
9.46657
 20
-4.60965
 30
0.000000
  70
    32
  0
VERTEX
  8
0
  5
786
 10
9.52062
 20
-4.61472
 30
0.000000
  70
    32
  0
VERTEX
  8
0
  5
787
 10
9.57459
 20
-4.61984
 30
0.000000
  70
    32
  0
VERTEX
  8
0
  5
788
 10
9.62849
 20
-4.62500
 30
0.000000
  70
    32
  0
VERTEX
  8
0
  5
789
 10
9.68232
 20
-4.63021
 30
0.000000
  70
    32
  0
VERTEX
  8
0
  5
78A
 10
9.73606
 20
-4.63547
 30
0.000000
  70
    32
  0
VERTEX
  8
0
  5
78B
 10
9.78971
 20
-4.64077
 30
0.000000
  70
    32
  0
VERTEX
  8
0
  5
78C
 10
9.84328
 20
-4.64612
 30
0.000000
  70
    32
  0
VERTEX
  8
0
  5
78D
 10
9.89676
 20
-4.65150
 30
0.000000
  70
    32
  0
VERTEX
  8
0
  5
78E
 10
9.95014
 20
-4.65693
 30
0.000000
  70
    32
  0
VERTEX
  8
0
  5
78F
 10
10.0034
 20
-4.66240
 30
0.000000
  70
    32
  0
VERTEX
  8
0
  5
790
 10
10.0566
 20
-4.66792
 30
0.000000
  70
    32
  0
VERTEX
  8
0
  5
791
 10
10.1097
 20
-4.67347
 30
0.000000
  70
    32
  0
VERTEX
  8
0
  5
792
 10
10.1627
 20
-4.67906
 30
0.000000
  70
    32
  0
VERTEX
  8
0
  5
793
 10
10.2155
 20
-4.68469
 30
0.000000
  70
    32
  0
VERTEX
  8
0
  5
794
 10
10.2683
 20
-4.69035
 30
0.000000
  70
    32
  0
VERTEX
  8
0
  5
795
 10
10.3209
 20
-4.69605
 30
0.000000
  70
    32
  0
VERTEX
  8
0
  5
796
 10
10.3734
 20
-4.70179
 30
0.000000
  70
    32
  0
VERTEX
  8
0
  5
797
 10
10.4258
 20
-4.70756
 30
0.000000
  70
    32
  0
VERTEX
  8
0
  5
798
 10
10.4781
 20
-4.71337
 30
0.000000
  70
    32
  0
VERTEX
  8
0
  5
799
 10
10.5302
 20
-4.71921
 30
0.000000
  70
    32
  0
VERTEX
  8
0
  5
79A
 10
10.5822
 20
-4.72508
 30
0.000000
  70
    32
  0
VERTEX
  8
0
  5
79B
 10
10.6340
 20
-4.73098
 30
0.000000
  70
    32
  0
VERTEX
  8
0
  5
79C
 10
10.6858
 20
-4.73692
 30
0.000000
  70
    32
  0
VERTEX
  8
0
  5
79D
 10
10.7373
 20
-4.74288
 30
0.000000
  70
    32
  0
VERTEX
  8
0
  5
79E
 10
10.7888
 20
-4.74887
 30
0.000000
  70
    32
  0
VERTEX
  8
0
  5
79F
 10
10.8400
 20
-4.75490
 30
0.000000
  70
    32
  0
VERTEX
  8
0
  5
7A0
 10
10.8911
 20
-4.76094
 30
0.000000
  70
    32
  0
VERTEX
  8
0
  5
7A1
 10
10.9421
 20
-4.76702
 30
0.000000
  70
    32
  0
VERTEX
  8
0
  5
7A2
 10
10.9929
 20
-4.77312
 30
0.000000
  70
    32
  0
VERTEX
  8
0
  5
7A3
 10
11.0436
 20
-4.77924
 30
0.000000
  70
    32
  0
VERTEX
  8
0
  5
7A4
 10
11.0940
 20
-4.78539
 30
0.000000
  70
    32
  0
VERTEX
  8
0
  5
7A5
 10
11.1443
 20
-4.79157
 30
0.000000
  70
    32
  0
VERTEX
  8
0
  5
7A6
 10
11.1945
 20
-4.79776
 30
0.000000
  70
    32
  0
VERTEX
  8
0
  5
7A7
 10
11.2444
 20
-4.80398
 30
0.000000
  70
    32
  0
VERTEX
  8
0
  5
7A8
 10
11.2942
 20
-4.81021
 30
0.000000
  70
    32
  0
VERTEX
  8
0
  5
7A9
 10
11.3438
 20
-4.81647
 30
0.000000
  70
    32
  0
VERTEX
  8
0
  5
7AA
 10
11.3932
 20
-4.82275
 30
0.000000
  70
    32
  0
VERTEX
  8
0
  5
7AB
 10
11.4424
 20
-4.82904
 30
0.000000
  70
    32
  0
VERTEX
  8
0
  5
7AC
 10
11.4914
 20
-4.83535
 30
0.000000
  70
    32
  0
VERTEX
  8
0
  5
7AD
 10
11.5402
 20
-4.84168
 30
0.000000
  70
    32
  0
VERTEX
  8
0
  5
7AE
 10
11.5888
 20
-4.84803
 30
0.000000
  70
    32
  0
VERTEX
  8
0
  5
7AF
 10
11.6373
 20
-4.85438
 30
0.000000
  70
    32
  0
VERTEX
  8
0
  5
7B0
 10
11.6855
 20
-4.86076
 30
0.000000
  70
    32
  0
VERTEX
  8
0
  5
7B1
 10
11.7335
 20
-4.86714
 30
0.000000
  70
    32
  0
VERTEX
  8
0
  5
7B2
 10
11.7813
 20
-4.87354
 30
0.000000
  70
    32
  0
VERTEX
  8
0
  5
7B3
 10
11.8288
 20
-4.87995
 30
0.000000
  70
    32
  0
VERTEX
  8
0
  5
7B4
 10
11.8762
 20
-4.88637
 30
0.000000
  70
    32
  0
VERTEX
  8
0
  5
7B5
 10
11.9233
 20
-4.89281
 30
0.000000
  70
    32
  0
VERTEX
  8
0
  5
7B6
 10
11.9702
 20
-4.89925
 30
0.000000
  70
    32
  0
VERTEX
  8
0
  5
7B7
 10
12.0169
 20
-4.90569
 30
0.000000
  70
    32
  0
VERTEX
  8
0
  5
7B8
 10
12.0633
 20
-4.91215
 30
0.000000
  70
    32
  0
VERTEX
  8
0
  5
7B9
 10
12.1095
 20
-4.91861
 30
0.000000
  70
    32
  0
VERTEX
  8
0
  5
7BA
 10
12.1555
 20
-4.92508
 30
0.000000
  70
    32
  0
VERTEX
  8
0
  5
7BB
 10
12.2012
 20
-4.93156
 30
0.000000
  70
    32
  0
VERTEX
  8
0
  5
7BC
 10
12.2467
 20
-4.93803
 30
0.000000
  70
    32
  0
VERTEX
  8
0
  5
7BD
 10
12.2919
 20
-4.94452
 30
0.000000
  70
    32
  0
VERTEX
  8
0
  5
7BE
 10
12.3369
 20
-4.95100
 30
0.000000
  70
    32
  0
VERTEX
  8
0
  5
7BF
 10
12.3816
 20
-4.95749
 30
0.000000
  70
    32
  0
VERTEX
  8
0
  5
7C0
 10
12.4261
 20
-4.96397
 30
0.000000
  70
    32
  0
VERTEX
  8
0
  5
7C1
 10
12.4703
 20
-4.97046
 30
0.000000
  70
    32
  0
VERTEX
  8
0
  5
7C2
 10
12.5142
 20
-4.97694
 30
0.000000
  70
    32
  0
VERTEX
  8
0
  5
7C3
 10
12.5579
 20
-4.98343
 30
0.000000
  70
    32
  0
VERTEX
  8
0
  5
7C4
 10
12.6012
 20
-4.98991
 30
0.000000
  70
    32
  0
VERTEX
  8
0
  5
7C5
 10
12.6444
 20
-4.99639
 30
0.000000
  70
    32
  0
VERTEX
  8
0
  5
7C6
 10
12.6872
 20
-5.00286
 30
0.000000
  70
    32
  0
VERTEX
  8
0
  5
7C7
 10
12.7297
 20
-5.00933
 30
0.000000
  70
    32
  0
VERTEX
  8
0
  5
7C8
 10
12.7720
 20
-5.01580
 30
0.000000
  70
    32
  0
VERTEX
  8
0
  5
7C9
 10
12.8140
 20
-5.02225
 30
0.000000
  70
    32
  0
VERTEX
  8
0
  5
7CA
 10
12.8557
 20
-5.02870
 30
0.000000
  70
    32
  0
VERTEX
  8
0
  5
7CB
 10
12.8970
 20
-5.03515
 30
0.000000
  70
    32
  0
VERTEX
  8
0
  5
7CC
 10
12.9381
 20
-5.04158
 30
0.000000
  70
    32
  0
VERTEX
  8
0
  5
7CD
 10
12.9789
 20
-5.04800
 30
0.000000
  70
    32
  0
VERTEX
  8
0
  5
7CE
 10
13.0194
 20
-5.05441
 30
0.000000
  70
    32
  0
VERTEX
  8
0
  5
7CF
 10
13.0596
 20
-5.06081
 30
0.000000
  70
    32
  0
VERTEX
  8
0
  5
7D0
 10
13.0994
 20
-5.06720
 30
0.000000
  70
    32
  0
VERTEX
  8
0
  5
7D1
 10
13.1390
 20
-5.07358
 30
0.000000
  70
    32
  0
VERTEX
  8
0
  5
7D2
 10
13.1782
 20
-5.07994
 30
0.000000
  70
    32
  0
VERTEX
  8
0
  5
7D3
 10
13.2171
 20
-5.08629
 30
0.000000
  70
    32
  0
VERTEX
  8
0
  5
7D4
 10
13.2557
 20
-5.09262
 30
0.000000
  70
    32
  0
VERTEX
  8
0
  5
7D5
 10
13.2939
 20
-5.09893
 30
0.000000
  70
    32
  0
VERTEX
  8
0
  5
7D6
 10
13.3319
 20
-5.10523
 30
0.000000
  70
    32
  0
VERTEX
  8
0
  5
7D7
 10
13.3694
 20
-5.11151
 30
0.000000
  70
    32
  0
VERTEX
  8
0
  5
7D8
 10
13.4067
 20
-5.11777
 30
0.000000
  70
    32
  0
VERTEX
  8
0
  5
7D9
 10
13.4436
 20
-5.12401
 30
0.000000
  70
    32
  0
VERTEX
  8
0
  5
7DA
 10
13.4801
 20
-5.13023
 30
0.000000
  70
    32
  0
VERTEX
  8
0
  5
7DB
 10
13.5163
 20
-5.13642
 30
0.000000
  70
    32
  0
VERTEX
  8
0
  5
7DC
 10
13.5522
 20
-5.14260
 30
0.000000
  70
    32
  0
VERTEX
  8
0
  5
7DD
 10
13.5877
 20
-5.14875
 30
0.000000
  70
    32
  0
VERTEX
  8
0
  5
7DE
 10
13.6229
 20
-5.15488
 30
0.000000
  70
    32
  0
VERTEX
  8
0
  5
7DF
 10
13.6576
 20
-5.16098
 30
0.000000
  70
    32
  0
VERTEX
  8
0
  5
7E0
 10
13.6921
 20
-5.16706
 30
0.000000
  70
    32
  0
VERTEX
  8
0
  5
7E1
 10
13.7261
 20
-5.17312
 30
0.000000
  70
    32
  0
VERTEX
  8
0
  5
7E2
 10
13.7598
 20
-5.17914
 30
0.000000
  70
    32
  0
VERTEX
  8
0
  5
7E3
 10
13.7931
 20
-5.18514
 30
0.000000
  70
    32
  0
VERTEX
  8
0
  5
7E4
 10
13.8260
 20
-5.19111
 30
0.000000
  70
    32
  0
VERTEX
  8
0
  5
7E5
 10
13.8585
 20
-5.19704
 30
0.000000
  70
    32
  0
VERTEX
  8
0
  5
7E6
 10
13.8907
 20
-5.20295
 30
0.000000
  70
    32
  0
VERTEX
  8
0
  5
7E7
 10
13.9225
 20
-5.20883
 30
0.000000
  70
    32
  0
VERTEX
  8
0
  5
7E8
 10
13.9539
 20
-5.21467
 30
0.000000
  70
    32
  0
VERTEX
  8
0
  5
7E9
 10
13.9848
 20
-5.22048
 30
0.000000
  70
    32
  0
VERTEX
  8
0
  5
7EA
 10
14.0154
 20
-5.22626
 30
0.000000
  70
    32
  0
VERTEX
  8
0
  5
7EB
 10
14.0456
 20
-5.23200
 30
0.000000
  70
    32
  0
VERTEX
  8
0
  5
7EC
 10
14.0754
 20
-5.23771
 30
0.000000
  70
    32
  0
VERTEX
  8
0
  5
7ED
 10
14.1048
 20
-5.24338
 30
0.000000
  70
    32
  0
VERTEX
  8
0
  5
7EE
 10
14.1337
 20
-5.24902
 30
0.000000
  70
    32
  0
VERTEX
  8
0
  5
7EF
 10
14.1623
 20
-5.25461
 30
0.000000
  70
    32
  0
VERTEX
  8
0
  5
7F0
 10
14.1904
 20
-5.26017
 30
0.000000
  70
    32
  0
VERTEX
  8
0
  5
7F1
 10
14.2181
 20
-5.26569
 30
0.000000
  70
    32
  0
VERTEX
  8
0
  5
7F2
 10
14.2454
 20
-5.27116
 30
0.000000
  70
    32
  0
VERTEX
  8
0
  5
7F3
 10
14.2723
 20
-5.27660
 30
0.000000
  70
    32
  0
VERTEX
  8
0
  5
7F4
 10
14.2987
 20
-5.28199
 30
0.000000
  70
    32
  0
VERTEX
  8
0
  5
7F5
 10
14.3247
 20
-5.28734
 30
0.000000
  70
    32
  0
VERTEX
  8
0
  5
7F6
 10
14.3502
 20
-5.29265
 30
0.000000
  70
    32
  0
VERTEX
  8
0
  5
7F7
 10
14.3753
 20
-5.29791
 30
0.000000
  70
    32
  0
VERTEX
  8
0
  5
7F8
 10
14.4000
 20
-5.30313
 30
0.000000
  70
    32
  0
VERTEX
  8
0
  5
7F9
 10
14.4242
 20
-5.30830
 30
0.000000
  70
    32
  0
VERTEX
  8
0
  5
7FA
 10
14.4480
 20
-5.31343
 30
0.000000
  70
    32
  0
VERTEX
  8
0
  5
7FB
 10
14.4713
 20
-5.31850
 30
0.000000
  70
    32
  0
VERTEX
  8
0
  5
7FC
 10
14.4942
 20
-5.32353
 30
0.000000
  70
    32
  0
VERTEX
  8
0
  5
7FD
 10
14.5166
 20
-5.32851
 30
0.000000
  70
    32
  0
VERTEX
  8
0
  5
7FE
 10
14.5385
 20
-5.33344
 30
0.000000
  70
    32
  0
VERTEX
  8
0
  5
7FF
 10
14.5600
 20
-5.33831
 30
0.000000
  70
    32
  0
VERTEX
  8
0
  5
800
 10
14.5810
 20
-5.34314
 30
0.000000
  70
    32
  0
VERTEX
  8
0
  5
801
 10
14.6015
 20
-5.34791
 30
0.000000
  70
    32
  0
SEQEND
  8
0
  5
802
  0
POLYLINE
  8
0
  5
803
  66
     1
 10
0.000000
 20
0.000000
 30
0.000000
  70
     8
  0
VERTEX
  8
0
  5
804
 10
14.6015
 20
-5.34791
 30
0.000000
  70
    32
  0
VERTEX
  8
0
  5
805
 10
14.6307
 20
-5.35481
 30
0.000000
  70
    32
  0
VERTEX
  8
0
  5
806
 10
14.6602
 20
-5.36190
 30
0.000000
  70
    32
  0
VERTEX
  8
0
  5
807
 10
14.6901
 20
-5.36917
 30
0.000000
  70
    32
  0
VERTEX
  8
0
  5
808
 10
14.7203
 20
-5.37663
 30
0.000000
  70
    32
  0
VERTEX
  8
0
  5
809
 10
14.7509
 20
-5.38426
 30
0.000000
  70
    32
  0
VERTEX
  8
0
  5
80A
 10
14.7818
 20
-5.39207
 30
0.000000
  70
    32
  0
VERTEX
  8
0
  5
80B
 10
14.8131
 20
-5.40004
 30
0.000000
  70
    32
  0
VERTEX
  8
0
  5
80C
 10
14.8447
 20
-5.40819
 30
0.000000
  70
    32
  0
VERTEX
  8
0
  5
80D
 10
14.8766
 20
-5.41649
 30
0.000000
  70
    32
  0
VERTEX
  8
0
  5
80E
 10
14.9089
 20
-5.42496
 30
0.000000
  70
    32
  0
VERTEX
  8
0
  5
80F
 10
14.9415
 20
-5.43357
 30
0.000000
  70
    32
  0
VERTEX
  8
0
  5
810
 10
14.9744
 20
-5.44234
 30
0.000000
  70
    32
  0
VERTEX
  8
0
  5
811
 10
15.0077
 20
-5.45126
 30
0.000000
  70
    32
  0
VERTEX
  8
0
  5
812
 10
15.0414
 20
-5.46032
 30
0.000000
  70
    32
  0
VERTEX
  8
0
  5
813
 10
15.0753
 20
-5.46951
 30
0.000000
  70
    32
  0
VERTEX
  8
0
  5
814
 10
15.1096
 20
-5.47885
 30
0.000000
  70
    32
  0
VERTEX
  8
0
  5
815
 10
15.1442
 20
-5.48831
 30
0.000000
  70
    32
  0
VERTEX
  8
0
  5
816
 10
15.1792
 20
-5.49790
 30
0.000000
  70
    32
  0
VERTEX
  8
0
  5
817
 10
15.2145
 20
-5.50761
 30
0.000000
  70
    32
  0
VERTEX
  8
0
  5
818
 10
15.2501
 20
-5.51744
 30
0.000000
  70
    32
  0
VERTEX
  8
0
  5
819
 10
15.2860
 20
-5.52739
 30
0.000000
  70
    32
  0
VERTEX
  8
0
  5
81A
 10
15.3223
 20
-5.53745
 30
0.000000
  70
    32
  0
VERTEX
  8
0
  5
81B
 10
15.3589
 20
-5.54762
 30
0.000000
  70
    32
  0
VERTEX
  8
0
  5
81C
 10
15.3958
 20
-5.55789
 30
0.000000
  70
    32
  0
VERTEX
  8
0
  5
81D
 10
15.4330
 20
-5.56826
 30
0.000000
  70
    32
  0
VERTEX
  8
0
  5
81E
 10
15.4706
 20
-5.57873
 30
0.000000
  70
    32
  0
VERTEX
  8
0
  5
81F
 10
15.5085
 20
-5.58929
 30
0.000000
  70
    32
  0
VERTEX
  8
0
  5
820
 10
15.5467
 20
-5.59994
 30
0.000000
  70
    32
  0
VERTEX
  8
0
  5
821
 10
15.5852
 20
-5.61067
 30
0.000000
  70
    32
  0
VERTEX
  8
0
  5
822
 10
15.6240
 20
-5.62148
 30
0.000000
  70
    32
  0
VERTEX
  8
0
  5
823
 10
15.6631
 20
-5.63237
 30
0.000000
  70
    32
  0
VERTEX
  8
0
  5
824
 10
15.7026
 20
-5.64334
 30
0.000000
  70
    32
  0
VERTEX
  8
0
  5
825
 10
15.7424
 20
-5.65437
 30
0.000000
  70
    32
  0
VERTEX
  8
0
  5
826
 10
15.7825
 20
-5.66546
 30
0.000000
  70
    32
  0
VERTEX
  8
0
  5
827
 10
15.8229
 20
-5.67662
 30
0.000000
  70
    32
  0
VERTEX
  8
0
  5
828
 10
15.8636
 20
-5.68784
 30
0.000000
  70
    32
  0
VERTEX
  8
0
  5
829
 10
15.9046
 20
-5.69910
 30
0.000000
  70
    32
  0
VERTEX
  8
0
  5
82A
 10
15.9459
 20
-5.71042
 30
0.000000
  70
    32
  0
VERTEX
  8
0
  5
82B
 10
15.9875
 20
-5.72179
 30
0.000000
  70
    32
  0
VERTEX
  8
0
  5
82C
 10
16.0295
 20
-5.73319
 30
0.000000
  70
    32
  0
VERTEX
  8
0
  5
82D
 10
16.0717
 20
-5.74463
 30
0.000000
  70
    32
  0
VERTEX
  8
0
  5
82E
 10
16.1142
 20
-5.75611
 30
0.000000
  70
    32
  0
VERTEX
  8
0
  5
82F
 10
16.1571
 20
-5.76761
 30
0.000000
  70
    32
  0
VERTEX
  8
0
  5
830
 10
16.2002
 20
-5.77915
 30
0.000000
  70
    32
  0
VERTEX
  8
0
  5
831
 10
16.2437
 20
-5.79070
 30
0.000000
  70
    32
  0
VERTEX
  8
0
  5
832
 10
16.2874
 20
-5.80227
 30
0.000000
  70
    32
  0
VERTEX
  8
0
  5
833
 10
16.3315
 20
-5.81386
 30
0.000000
  70
    32
  0
VERTEX
  8
0
  5
834
 10
16.3758
 20
-5.82546
 30
0.000000
  70
    32
  0
VERTEX
  8
0
  5
835
 10
16.4204
 20
-5.83707
 30
0.000000
  70
    32
  0
VERTEX
  8
0
  5
836
 10
16.4653
 20
-5.84867
 30
0.000000
  70
    32
  0
VERTEX
  8
0
  5
837
 10
16.5106
 20
-5.86028
 30
0.000000
  70
    32
  0
VERTEX
  8
0
  5
838
 10
16.5561
 20
-5.87188
 30
0.000000
  70
    32
  0
VERTEX
  8
0
  5
839
 10
16.6019
 20
-5.88347
 30
0.000000
  70
    32
  0
VERTEX
  8
0
  5
83A
 10
16.6479
 20
-5.89505
 30
0.000000
  70
    32
  0
VERTEX
  8
0
  5
83B
 10
16.6943
 20
-5.90662
 30
0.000000
  70
    32
  0
VERTEX
  8
0
  5
83C
 10
16.7410
 20
-5.91816
 30
0.000000
  70
    32
  0
VERTEX
  8
0
  5
83D
 10
16.7879
 20
-5.92968
 30
0.000000
  70
    32
  0
VERTEX
  8
0
  5
83E
 10
16.8351
 20
-5.94117
 30
0.000000
  70
    32
  0
VERTEX
  8
0
  5
83F
 10
16.8827
 20
-5.95262
 30
0.000000
  70
    32
  0
VERTEX
  8
0
  5
840
 10
16.9305
 20
-5.96405
 30
0.000000
  70
    32
  0
VERTEX
  8
0
  5
841
 10
16.9785
 20
-5.97543
 30
0.000000
  70
    32
  0
VERTEX
  8
0
  5
842
 10
17.0269
 20
-5.98677
 30
0.000000
  70
    32
  0
VERTEX
  8
0
  5
843
 10
17.0755
 20
-5.99806
 30
0.000000
  70
    32
  0
VERTEX
  8
0
  5
844
 10
17.1244
 20
-6.00929
 30
0.000000
  70
    32
  0
VERTEX
  8
0
  5
845
 10
17.1736
 20
-6.02048
 30
0.000000
  70
    32
  0
VERTEX
  8
0
  5
846
 10
17.2231
 20
-6.03160
 30
0.000000
  70
    32
  0
VERTEX
  8
0
  5
847
 10
17.2728
 20
-6.04266
 30
0.000000
  70
    32
  0
VERTEX
  8
0
  5
848
 10
17.3228
 20
-6.05365
 30
0.000000
  70
    32
  0
VERTEX
  8
0
  5
849
 10
17.3731
 20
-6.06458
 30
0.000000
  70
    32
  0
VERTEX
  8
0
  5
84A
 10
17.4237
 20
-6.07542
 30
0.000000
  70
    32
  0
VERTEX
  8
0
  5
84B
 10
17.4745
 20
-6.08619
 30
0.000000
  70
    32
  0
VERTEX
  8
0
  5
84C
 10
17.5256
 20
-6.09688
 30
0.000000
  70
    32
  0
VERTEX
  8
0
  5
84D
 10
17.5769
 20
-6.10748
 30
0.000000
  70
    32
  0
VERTEX
  8
0
  5
84E
 10
17.6286
 20
-6.11798
 30
0.000000
  70
    32
  0
VERTEX
  8
0
  5
84F
 10
17.6804
 20
-6.12840
 30
0.000000
  70
    32
  0
VERTEX
  8
0
  5
850
 10
17.7326
 20
-6.13871
 30
0.000000
  70
    32
  0
VERTEX
  8
0
  5
851
 10
17.7850
 20
-6.14893
 30
0.000000
  70
    32
  0
VERTEX
  8
0
  5
852
 10
17.8377
 20
-6.15903
 30
0.000000
  70
    32
  0
VERTEX
  8
0
  5
853
 10
17.8906
 20
-6.16903
 30
0.000000
  70
    32
  0
VERTEX
  8
0
  5
854
 10
17.9438
 20
-6.17892
 30
0.000000
  70
    32
  0
VERTEX
  8
0
  5
855
 10
17.9973
 20
-6.18868
 30
0.000000
  70
    32
  0
VERTEX
  8
0
  5
856
 10
18.0510
 20
-6.19833
 30
0.000000
  70
    32
  0
VERTEX
  8
0
  5
857
 10
18.1049
 20
-6.20785
 30
0.000000
  70
    32
  0
VERTEX
  8
0
  5
858
 10
18.1592
 20
-6.21724
 30
0.000000
  70
    32
  0
VERTEX
  8
0
  5
859
 10
18.2136
 20
-6.22649
 30
0.000000
  70
    32
  0
VERTEX
  8
0
  5
85A
 10
18.2683
 20
-6.23561
 30
0.000000
  70
    32
  0
VERTEX
  8
0
  5
85B
 10
18.3233
 20
-6.24459
 30
0.000000
  70
    32
  0
VERTEX
  8
0
  5
85C
 10
18.3785
 20
-6.25342
 30
0.000000
  70
    32
  0
VERTEX
  8
0
  5
85D
 10
18.4340
 20
-6.26211
 30
0.000000
  70
    32
  0
VERTEX
  8
0
  5
85E
 10
18.4897
 20
-6.27064
 30
0.000000
  70
    32
  0
VERTEX
  8
0
  5
85F
 10
18.5457
 20
-6.27901
 30
0.000000
  70
    32
  0
VERTEX
  8
0
  5
860
 10
18.6019
 20
-6.28723
 30
0.000000
  70
    32
  0
VERTEX
  8
0
  5
861
 10
18.6584
 20
-6.29528
 30
0.000000
  70
    32
  0
VERTEX
  8
0
  5
862
 10
18.7151
 20
-6.30316
 30
0.000000
  70
    32
  0
VERTEX
  8
0
  5
863
 10
18.7720
 20
-6.31087
 30
0.000000
  70
    32
  0
VERTEX
  8
0
  5
864
 10
18.8292
 20
-6.31840
 30
0.000000
  70
    32
  0
VERTEX
  8
0
  5
865
 10
18.8866
 20
-6.32576
 30
0.000000
  70
    32
  0
VERTEX
  8
0
  5
866
 10
18.9443
 20
-6.33293
 30
0.000000
  70
    32
  0
VERTEX
  8
0
  5
867
 10
19.0022
 20
-6.33991
 30
0.000000
  70
    32
  0
VERTEX
  8
0
  5
868
 10
19.0603
 20
-6.34670
 30
0.000000
  70
    32
  0
VERTEX
  8
0
  5
869
 10
19.1187
 20
-6.35330
 30
0.000000
  70
    32
  0
VERTEX
  8
0
  5
86A
 10
19.1773
 20
-6.35969
 30
0.000000
  70
    32
  0
VERTEX
  8
0
  5
86B
 10
19.2361
 20
-6.36589
 30
0.000000
  70
    32
  0
VERTEX
  8
0
  5
86C
 10
19.2952
 20
-6.37187
 30
0.000000
  70
    32
  0
VERTEX
  8
0
  5
86D
 10
19.3545
 20
-6.37765
 30
0.000000
  70
    32
  0
VERTEX
  8
0
  5
86E
 10
19.4140
 20
-6.38321
 30
0.000000
  70
    32
  0
VERTEX
  8
0
  5
86F
 10
19.4737
 20
-6.38855
 30
0.000000
  70
    32
  0
VERTEX
  8
0
  5
870
 10
19.5337
 20
-6.39367
 30
0.000000
  70
    32
  0
VERTEX
  8
0
  5
871
 10
19.5939
 20
-6.39856
 30
0.000000
  70
    32
  0
VERTEX
  8
0
  5
872
 10
19.6543
 20
-6.40322
 30
0.000000
  70
    32
  0
VERTEX
  8
0
  5
873
 10
19.7150
 20
-6.40765
 30
0.000000
  70
    32
  0
VERTEX
  8
0
  5
874
 10
19.7759
 20
-6.41184
 30
0.000000
  70
    32
  0
VERTEX
  8
0
  5
875
 10
19.8370
 20
-6.41579
 30
0.000000
  70
    32
  0
VERTEX
  8
0
  5
876
 10
19.8983
 20
-6.41949
 30
0.000000
  70
    32
  0
VERTEX
  8
0
  5
877
 10
19.9598
 20
-6.42294
 30
0.000000
  70
    32
  0
VERTEX
  8
0
  5
878
 10
20.0216
 20
-6.42614
 30
0.000000
  70
    32
  0
VERTEX
  8
0
  5
879
 10
20.0835
 20
-6.42908
 30
0.000000
  70
    32
  0
VERTEX
  8
0
  5
87A
 10
20.1457
 20
-6.43175
 30
0.000000
  70
    32
  0
VERTEX
  8
0
  5
87B
 10
20.2081
 20
-6.43417
 30
0.000000
  70
    32
  0
VERTEX
  8
0
  5
87C
 10
20.2707
 20
-6.43631
 30
0.000000
  70
    32
  0
VERTEX
  8
0
  5
87D
 10
20.3335
 20
-6.43818
 30
0.000000
  70
    32
  0
VERTEX
  8
0
  5
87E
 10
20.3966
 20
-6.43977
 30
0.000000
  70
    32
  0
VERTEX
  8
0
  5
87F
 10
20.4598
 20
-6.44109
 30
0.000000
  70
    32
  0
VERTEX
  8
0
  5
880
 10
20.5233
 20
-6.44211
 30
0.000000
  70
    32
  0
VERTEX
  8
0
  5
881
 10
20.5869
 20
-6.44285
 30
0.000000
  70
    32
  0
VERTEX
  8
0
  5
882
 10
20.6508
 20
-6.44330
 30
0.000000
  70
    32
  0
VERTEX
  8
0
  5
883
 10
20.7148
 20
-6.44345
 30
0.000000
  70
    32
  0
SEQEND
  8
0
  5
884
  0
POLYLINE
  8
0
  5
885
  66
     1
 10
0.000000
 20
0.000000
 30
0.000000
  70
     8
  0
VERTEX
  8
0
  5
886
 10
20.5715
 20
-6.44345
 30
0.000000
  70
    32
  0
VERTEX
  8
0
  5
887
 10
20.5715
 20
-6.44345
 30
0.000000
  70
    32
  0
VERTEX
  8
0
  5
888
 10
20.5715
 20
-6.44345
 30
0.000000
  70
    32
  0
VERTEX
  8
0
  5
889
 10
20.5715
 20
-6.44345
 30
0.000000
  70
    32
  0
VERTEX
  8
0
  5
88A
 10
20.5715
 20
-6.44344
 30
0.000000
  70
    32
  0
VERTEX
  8
0
  5
88B
 10
20.5715
 20
-6.44344
 30
0.000000
  70
    32
  0
VERTEX
  8
0
  5
88C
 10
20.5715
 20
-6.44344
 30
0.000000
  70
    32
  0
VERTEX
  8
0
  5
88D
 10
20.5714
 20
-6.44344
 30
0.000000
  70
    32
  0
VERTEX
  8
0
  5
88E
 10
20.5714
 20
-6.44343
 30
0.000000
  70
    32
  0
VERTEX
  8
0
  5
88F
 10
20.5714
 20
-6.44343
 30
0.000000
  70
    32
  0
VERTEX
  8
0
  5
890
 10
20.5714
 20
-6.44342
 30
0.000000
  70
    32
  0
VERTEX
  8
0
  5
891
 10
20.5714
 20
-6.44342
 30
0.000000
  70
    32
  0
VERTEX
  8
0
  5
892
 10
20.5714
 20
-6.44341
 30
0.000000
  70
    32
  0
VERTEX
  8
0
  5
893
 10
20.5714
 20
-6.44341
 30
0.000000
  70
    32
  0
VERTEX
  8
0
  5
894
 10
20.5714
 20
-6.44340
 30
0.000000
  70
    32
  0
VERTEX
  8
0
  5
895
 10
20.5714
 20
-6.44339
 30
0.000000
  70
    32
  0
VERTEX
  8
0
  5
896
 10
20.5714
 20
-6.44339
 30
0.000000
  70
    32
  0
VERTEX
  8
0
  5
897
 10
20.5714
 20
-6.44338
 30
0.000000
  70
    32
  0
VERTEX
  8
0
  5
898
 10
20.5713
 20
-6.44337
 30
0.000000
  70
    32
  0
VERTEX
  8
0
  5
899
 10
20.5713
 20
-6.44336
 30
0.000000
  70
    32
  0
VERTEX
  8
0
  5
89A
 10
20.5713
 20
-6.44336
 30
0.000000
  70
    32
  0
VERTEX
  8
0
  5
89B
 10
20.5713
 20
-6.44335
 30
0.000000
  70
    32
  0
VERTEX
  8
0
  5
89C
 10
20.5713
 20
-6.44334
 30
0.000000
  70
    32
  0
VERTEX
  8
0
  5
89D
 10
20.5713
 20
-6.44333
 30
0.000000
  70
    32
  0
VERTEX
  8
0
  5
89E
 10
20.5712
 20
-6.44332
 30
0.000000
  70
    32
  0
VERTEX
  8
0
  5
89F
 10
20.5712
 20
-6.44331
 30
0.000000
  70
    32
  0
VERTEX
  8
0
  5
8A0
 10
20.5712
 20
-6.44330
 30
0.000000
  70
    32
  0
VERTEX
  8
0
  5
8A1
 10
20.5712
 20
-6.44329
 30
0.000000
  70
    32
  0
VERTEX
  8
0
  5
8A2
 10
20.5712
 20
-6.44328
 30
0.000000
  70
    32
  0
VERTEX
  8
0
  5
8A3
 10
20.5712
 20
-6.44327
 30
0.000000
  70
    32
  0
VERTEX
  8
0
  5
8A4
 10
20.5711
 20
-6.44325
 30
0.000000
  70
    32
  0
VERTEX
  8
0
  5
8A5
 10
20.5711
 20
-6.44324
 30
0.000000
  70
    32
  0
VERTEX
  8
0
  5
8A6
 10
20.5711
 20
-6.44323
 30
0.000000
  70
    32
  0
VERTEX
  8
0
  5
8A7
 10
20.5711
 20
-6.44322
 30
0.000000
  70
    32
  0
VERTEX
  8
0
  5
8A8
 10
20.5710
 20
-6.44320
 30
0.000000
  70
    32
  0
VERTEX
  8
0
  5
8A9
 10
20.5710
 20
-6.44319
 30
0.000000
  70
    32
  0
VERTEX
  8
0
  5
8AA
 10
20.5710
 20
-6.44318
 30
0.000000
  70
    32
  0
VERTEX
  8
0
  5
8AB
 10
20.5710
 20
-6.44317
 30
0.000000
  70
    32
  0
VERTEX
  8
0
  5
8AC
 10
20.5710
 20
-6.44315
 30
0.000000
  70
    32
  0
VERTEX
  8
0
  5
8AD
 10
20.5709
 20
-6.44314
 30
0.000000
  70
    32
  0
VERTEX
  8
0
  5
8AE
 10
20.5709
 20
-6.44312
 30
0.000000
  70
    32
  0
VERTEX
  8
0
  5
8AF
 10
20.5709
 20
-6.44311
 30
0.000000
  70
    32
  0
VERTEX
  8
0
  5
8B0
 10
20.5709
 20
-6.44310
 30
0.000000
  70
    32
  0
VERTEX
  8
0
  5
8B1
 10
20.5708
 20
-6.44308
 30
0.000000
  70
    32
  0
VERTEX
  8
0
  5
8B2
 10
20.5708
 20
-6.44307
 30
0.000000
  70
    32
  0
VERTEX
  8
0
  5
8B3
 10
20.5708
 20
-6.44305
 30
0.000000
  70
    32
  0
VERTEX
  8
0
  5
8B4
 10
20.5708
 20
-6.44304
 30
0.000000
  70
    32
  0
VERTEX
  8
0
  5
8B5
 10
20.5707
 20
-6.44302
 30
0.000000
  70
    32
  0
VERTEX
  8
0
  5
8B6
 10
20.5707
 20
-6.44301
 30
0.000000
  70
    32
  0
VERTEX
  8
0
  5
8B7
 10
20.5707
 20
-6.44299
 30
0.000000
  70
    32
  0
VERTEX
  8
0
  5
8B8
 10
20.5706
 20
-6.44298
 30
0.000000
  70
    32
  0
VERTEX
  8
0
  5
8B9
 10
20.5706
 20
-6.44296
 30
0.000000
  70
    32
  0
VERTEX
  8
0
  5
8BA
 10
20.5706
 20
-6.44294
 30
0.000000
  70
    32
  0
VERTEX
  8
0
  5
8BB
 10
20.5706
 20
-6.44293
 30
0.000000
  70
    32
  0
VERTEX
  8
0
  5
8BC
 10
20.5705
 20
-6.44291
 30
0.000000
  70
    32
  0
VERTEX
  8
0
  5
8BD
 10
20.5705
 20
-6.44290
 30
0.000000
  70
    32
  0
VERTEX
  8
0
  5
8BE
 10
20.5705
 20
-6.44288
 30
0.000000
  70
    32
  0
VERTEX
  8
0
  5
8BF
 10
20.5704
 20
-6.44286
 30
0.000000
  70
    32
  0
VERTEX
  8
0
  5
8C0
 10
20.5704
 20
-6.44285
 30
0.000000
  70
    32
  0
VERTEX
  8
0
  5
8C1
 10
20.5704
 20
-6.44283
 30
0.000000
  70
    32
  0
VERTEX
  8
0
  5
8C2
 10
20.5704
 20
-6.44282
 30
0.000000
  70
    32
  0
VERTEX
  8
0
  5
8C3
 10
20.5703
 20
-6.44280
 30
0.000000
  70
    32
  0
VERTEX
  8
0
  5
8C4
 10
20.5703
 20
-6.44278
 30
0.000000
  70
    32
  0
VERTEX
  8
0
  5
8C5
 10
20.5703
 20
-6.44277
 30
0.000000
  70
    32
  0
VERTEX
  8
0
  5
8C6
 10
20.5703
 20
-6.44275
 30
0.000000
  70
    32
  0
VERTEX
  8
0
  5
8C7
 10
20.5702
 20
-6.44273
 30
0.000000
  70
    32
  0
VERTEX
  8
0
  5
8C8
 10
20.5702
 20
-6.44272
 30
0.000000
  70
    32
  0
VERTEX
  8
0
  5
8C9
 10
20.5702
 20
-6.44270
 30
0.000000
  70
    32
  0
VERTEX
  8
0
  5
8CA
 10
20.5701
 20
-6.44269
 30
0.000000
  70
    32
  0
VERTEX
  8
0
  5
8CB
 10
20.5701
 20
-6.44267
 30
0.000000
  70
    32
  0
VERTEX
  8
0
  5
8CC
 10
20.5701
 20
-6.44265
 30
0.000000
  70
    32
  0
VERTEX
  8
0
  5
8CD
 10
20.5701
 20
-6.44264
 30
0.000000
  70
    32
  0
VERTEX
  8
0
  5
8CE
 10
20.5700
 20
-6.44262
 30
0.000000
  70
    32
  0
VERTEX
  8
0
  5
8CF
 10
20.5700
 20
-6.44261
 30
0.000000
  70
    32
  0
VERTEX
  8
0
  5
8D0
 10
20.5700
 20
-6.44259
 30
0.000000
  70
    32
  0
VERTEX
  8
0
  5
8D1
 10
20.5699
 20
-6.44257
 30
0.000000
  70
    32
  0
VERTEX
  8
0
  5
8D2
 10
20.5699
 20
-6.44256
 30
0.000000
  70
    32
  0
VERTEX
  8
0
  5
8D3
 10
20.5699
 20
-6.44254
 30
0.000000
  70
    32
  0
VERTEX
  8
0
  5
8D4
 10
20.5699
 20
-6.44253
 30
0.000000
  70
    32
  0
VERTEX
  8
0
  5
8D5
 10
20.5698
 20
-6.44251
 30
0.000000
  70
    32
  0
VERTEX
  8
0
  5
8D6
 10
20.5698
 20
-6.44250
 30
0.000000
  70
    32
  0
VERTEX
  8
0
  5
8D7
 10
20.5698
 20
-6.44248
 30
0.000000
  70
    32
  0
VERTEX
  8
0
  5
8D8
 10
20.5698
 20
-6.44247
 30
0.000000
  70
    32
  0
VERTEX
  8
0
  5
8D9
 10
20.5697
 20
-6.44245
 30
0.000000
  70
    32
  0
VERTEX
  8
0
  5
8DA
 10
20.5697
 20
-6.44244
 30
0.000000
  70
    32
  0
VERTEX
  8
0
  5
8DB
 10
20.5697
 20
-6.44242
 30
0.000000
  70
    32
  0
VERTEX
  8
0
  5
8DC
 10
20.5697
 20
-6.44241
 30
0.000000
  70
    32
  0
VERTEX
  8
0
  5
8DD
 10
20.5696
 20
-6.44239
 30
0.000000
  70
    32
  0
VERTEX
  8
0
  5
8DE
 10
20.5696
 20
-6.44238
 30
0.000000
  70
    32
  0
VERTEX
  8
0
  5
8DF
 10
20.5696
 20
-6.44237
 30
0.000000
  70
    32
  0
VERTEX
  8
0
  5
8E0
 10
20.5696
 20
-6.44235
 30
0.000000
  70
    32
  0
VERTEX
  8
0
  5
8E1
 10
20.5695
 20
-6.44234
 30
0.000000
  70
    32
  0
VERTEX
  8
0
  5
8E2
 10
20.5695
 20
-6.44233
 30
0.000000
  70
    32
  0
VERTEX
  8
0
  5
8E3
 10
20.5695
 20
-6.44231
 30
0.000000
  70
    32
  0
VERTEX
  8
0
  5
8E4
 10
20.5695
 20
-6.44230
 30
0.000000
  70
    32
  0
VERTEX
  8
0
  5
8E5
 10
20.5694
 20
-6.44229
 30
0.000000
  70
    32
  0
VERTEX
  8
0
  5
8E6
 10
20.5694
 20
-6.44228
 30
0.000000
  70
    32
  0
VERTEX
  8
0
  5
8E7
 10
20.5694
 20
-6.44226
 30
0.000000
  70
    32
  0
VERTEX
  8
0
  5
8E8
 10
20.5694
 20
-6.44225
 30
0.000000
  70
    32
  0
VERTEX
  8
0
  5
8E9
 10
20.5694
 20
-6.44224
 30
0.000000
  70
    32
  0
VERTEX
  8
0
  5
8EA
 10
20.5693
 20
-6.44223
 30
0.000000
  70
    32
  0
VERTEX
  8
0
  5
8EB
 10
20.5693
 20
-6.44222
 30
0.000000
  70
    32
  0
VERTEX
  8
0
  5
8EC
 10
20.5693
 20
-6.44221
 30
0.000000
  70
    32
  0
VERTEX
  8
0
  5
8ED
 10
20.5693
 20
-6.44220
 30
0.000000
  70
    32
  0
VERTEX
  8
0
  5
8EE
 10
20.5693
 20
-6.44219
 30
0.000000
  70
    32
  0
VERTEX
  8
0
  5
8EF
 10
20.5693
 20
-6.44218
 30
0.000000
  70
    32
  0
VERTEX
  8
0
  5
8F0
 10
20.5692
 20
-6.44217
 30
0.000000
  70
    32
  0
VERTEX
  8
0
  5
8F1
 10
20.5692
 20
-6.44216
 30
0.000000
  70
    32
  0
VERTEX
  8
0
  5
8F2
 10
20.5692
 20
-6.44215
 30
0.000000
  70
    32
  0
VERTEX
  8
0
  5
8F3
 10
20.5692
 20
-6.44215
 30
0.000000
  70
    32
  0
VERTEX
  8
0
  5
8F4
 10
20.5692
 20
-6.44214
 30
0.000000
  70
    32
  0
VERTEX
  8
0
  5
8F5
 10
20.5692
 20
-6.44213
 30
0.000000
  70
    32
  0
VERTEX
  8
0
  5
8F6
 10
20.5692
 20
-6.44212
 30
0.000000
  70
    32
  0
VERTEX
  8
0
  5
8F7
 10
20.5691
 20
-6.44212
 30
0.000000
  70
    32
  0
VERTEX
  8
0
  5
8F8
 10
20.5691
 20
-6.44211
 30
0.000000
  70
    32
  0
VERTEX
  8
0
  5
8F9
 10
20.5691
 20
-6.44210
 30
0.000000
  70
    32
  0
VERTEX
  8
0
  5
8FA
 10
20.5691
 20
-6.44210
 30
0.000000
  70
    32
  0
VERTEX
  8
0
  5
8FB
 10
20.5691
 20
-6.44209
 30
0.000000
  70
    32
  0
VERTEX
  8
0
  5
8FC
 10
20.5691
 20
-6.44209
 30
0.000000
  70
    32
  0
VERTEX
  8
0
  5
8FD
 10
20.5691
 20
-6.44209
 30
0.000000
  70
    32
  0
VERTEX
  8
0
  5
8FE
 10
20.5691
 20
-6.44208
 30
0.000000
  70
    32
  0
VERTEX
  8
0
  5
8FF
 10
20.5691
 20
-6.44208
 30
0.000000
  70
    32
  0
VERTEX
  8
0
  5
900
 10
20.5691
 20
-6.44208
 30
0.000000
  70
    32
  0
VERTEX
  8
0
  5
901
 10
20.5691
 20
-6.44207
 30
0.000000
  70
    32
  0
VERTEX
  8
0
  5
902
 10
20.5691
 20
-6.44207
 30
0.000000
  70
    32
  0
VERTEX
  8
0
  5
903
 10
20.5691
 20
-6.44207
 30
0.000000
  70
    32
  0
VERTEX
  8
0
  5
904
 10
20.5691
 20
-6.44207
 30
0.000000
  70
    32
  0
VERTEX
  8
0
  5
905
 10
20.5691
 20
-6.44207
 30
0.000000
  70
    32
  0
SEQEND
  8
0
  5
906
  0
POLYLINE
  8
0
  5
907
  66
     1
 10
0.000000
 20
0.000000
 30
0.000000
  70
     8
  0
VERTEX
  8
0
  5
908
 10
20.7124
 20
-6.44207
 30
0.000000
  70
    32
  0
VERTEX
  8
0
  5
909
 10
20.8277
 20
-6.44146
 30
0.000000
  70
    32
  0
VERTEX
  8
0
  5
90A
 10
20.9428
 20
-6.43965
 30
0.000000
  70
    32
  0
VERTEX
  8
0
  5
90B
 10
21.0576
 20
-6.43665
 30
0.000000
  70
    32
  0
VERTEX
  8
0
  5
90C
 10
21.1722
 20
-6.43246
 30
0.000000
  70
    32
  0
VERTEX
  8
0
  5
90D
 10
21.2865
 20
-6.42710
 30
0.000000
  70
    32
  0
VERTEX
  8
0
  5
90E
 10
21.4005
 20
-6.42057
 30
0.000000
  70
    32
  0
VERTEX
  8
0
  5
90F
 10
21.5142
 20
-6.41288
 30
0.000000
  70
    32
  0
VERTEX
  8
0
  5
910
 10
21.6276
 20
-6.40405
 30
0.000000
  70
    32
  0
VERTEX
  8
0
  5
911
 10
21.7407
 20
-6.39408
 30
0.000000
  70
    32
  0
VERTEX
  8
0
  5
912
 10
21.8535
 20
-6.38299
 30
0.000000
  70
    32
  0
VERTEX
  8
0
  5
913
 10
21.9660
 20
-6.37079
 30
0.000000
  70
    32
  0
VERTEX
  8
0
  5
914
 10
22.0781
 20
-6.35747
 30
0.000000
  70
    32
  0
VERTEX
  8
0
  5
915
 10
22.1898
 20
-6.34306
 30
0.000000
  70
    32
  0
VERTEX
  8
0
  5
916
 10
22.3012
 20
-6.32757
 30
0.000000
  70
    32
  0
VERTEX
  8
0
  5
917
 10
22.4122
 20
-6.31100
 30
0.000000
  70
    32
  0
VERTEX
  8
0
  5
918
 10
22.5228
 20
-6.29336
 30
0.000000
  70
    32
  0
VERTEX
  8
0
  5
919
 10
22.6330
 20
-6.27466
 30
0.000000
  70
    32
  0
VERTEX
  8
0
  5
91A
 10
22.7428
 20
-6.25492
 30
0.000000
  70
    32
  0
VERTEX
  8
0
  5
91B
 10
22.8522
 20
-6.23414
 30
0.000000
  70
    32
  0
VERTEX
  8
0
  5
91C
 10
22.9612
 20
-6.21234
 30
0.000000
  70
    32
  0
VERTEX
  8
0
  5
91D
 10
23.0697
 20
-6.18951
 30
0.000000
  70
    32
  0
VERTEX
  8
0
  5
91E
 10
23.1777
 20
-6.16568
 30
0.000000
  70
    32
  0
VERTEX
  8
0
  5
91F
 10
23.2853
 20
-6.14086
 30
0.000000
  70
    32
  0
VERTEX
  8
0
  5
920
 10
23.3925
 20
-6.11504
 30
0.000000
  70
    32
  0
VERTEX
  8
0
  5
921
 10
23.4991
 20
-6.08825
 30
0.000000
  70
    32
  0
VERTEX
  8
0
  5
922
 10
23.6053
 20
-6.06049
 30
0.000000
  70
    32
  0
VERTEX
  8
0
  5
923
 10
23.7109
 20
-6.03177
 30
0.000000
  70
    32
  0
VERTEX
  8
0
  5
924
 10
23.8160
 20
-6.00210
 30
0.000000
  70
    32
  0
VERTEX
  8
0
  5
925
 10
23.9206
 20
-5.97150
 30
0.000000
  70
    32
  0
VERTEX
  8
0
  5
926
 10
24.0247
 20
-5.93996
 30
0.000000
  70
    32
  0
VERTEX
  8
0
  5
927
 10
24.1282
 20
-5.90751
 30
0.000000
  70
    32
  0
VERTEX
  8
0
  5
928
 10
24.2311
 20
-5.87415
 30
0.000000
  70
    32
  0
VERTEX
  8
0
  5
929
 10
24.3335
 20
-5.83989
 30
0.000000
  70
    32
  0
VERTEX
  8
0
  5
92A
 10
24.4353
 20
-5.80474
 30
0.000000
  70
    32
  0
VERTEX
  8
0
  5
92B
 10
24.5365
 20
-5.76872
 30
0.000000
  70
    32
  0
VERTEX
  8
0
  5
92C
 10
24.6371
 20
-5.73182
 30
0.000000
  70
    32
  0
VERTEX
  8
0
  5
92D
 10
24.7371
 20
-5.69406
 30
0.000000
  70
    32
  0
VERTEX
  8
0
  5
92E
 10
24.8364
 20
-5.65546
 30
0.000000
  70
    32
  0
VERTEX
  8
0
  5
92F
 10
24.9352
 20
-5.61601
 30
0.000000
  70
    32
  0
VERTEX
  8
0
  5
930
 10
25.0333
 20
-5.57574
 30
0.000000
  70
    32
  0
VERTEX
  8
0
  5
931
 10
25.1307
 20
-5.53464
 30
0.000000
  70
    32
  0
VERTEX
  8
0
  5
932
 10
25.2274
 20
-5.49274
 30
0.000000
  70
    32
  0
VERTEX
  8
0
  5
933
 10
25.3235
 20
-5.45003
 30
0.000000
  70
    32
  0
VERTEX
  8
0
  5
934
 10
25.4189
 20
-5.40654
 30
0.000000
  70
    32
  0
VERTEX
  8
0
  5
935
 10
25.5136
 20
-5.36226
 30
0.000000
  70
    32
  0
VERTEX
  8
0
  5
936
 10
25.6076
 20
-5.31722
 30
0.000000
  70
    32
  0
VERTEX
  8
0
  5
937
 10
25.7008
 20
-5.27141
 30
0.000000
  70
    32
  0
VERTEX
  8
0
  5
938
 10
25.7934
 20
-5.22485
 30
0.000000
  70
    32
  0
VERTEX
  8
0
  5
939
 10
25.8852
 20
-5.17755
 30
0.000000
  70
    32
  0
VERTEX
  8
0
  5
93A
 10
25.9762
 20
-5.12952
 30
0.000000
  70
    32
  0
VERTEX
  8
0
  5
93B
 10
26.0665
 20
-5.08077
 30
0.000000
  70
    32
  0
VERTEX
  8
0
  5
93C
 10
26.1560
 20
-5.03131
 30
0.000000
  70
    32
  0
VERTEX
  8
0
  5
93D
 10
26.2447
 20
-4.98114
 30
0.000000
  70
    32
  0
VERTEX
  8
0
  5
93E
 10
26.3326
 20
-4.93029
 30
0.000000
  70
    32
  0
VERTEX
  8
0
  5
93F
 10
26.4197
 20
-4.87875
 30
0.000000
  70
    32
  0
VERTEX
  8
0
  5
940
 10
26.5060
 20
-4.82654
 30
0.000000
  70
    32
  0
VERTEX
  8
0
  5
941
 10
26.5915
 20
-4.77367
 30
0.000000
  70
    32
  0
VERTEX
  8
0
  5
942
 10
26.6761
 20
-4.72014
 30
0.000000
  70
    32
  0
VERTEX
  8
0
  5
943
 10
26.7599
 20
-4.66598
 30
0.000000
  70
    32
  0
VERTEX
  8
0
  5
944
 10
26.8428
 20
-4.61118
 30
0.000000
  70
    32
  0
VERTEX
  8
0
  5
945
 10
26.9248
 20
-4.55576
 30
0.000000
  70
    32
  0
VERTEX
  8
0
  5
946
 10
27.0060
 20
-4.49972
 30
0.000000
  70
    32
  0
VERTEX
  8
0
  5
947
 10
27.0862
 20
-4.44309
 30
0.000000
  70
    32
  0
VERTEX
  8
0
  5
948
 10
27.1656
 20
-4.38586
 30
0.000000
  70
    32
  0
VERTEX
  8
0
  5
949
 10
27.2440
 20
-4.32804
 30
0.000000
  70
    32
  0
VERTEX
  8
0
  5
94A
 10
27.3216
 20
-4.26966
 30
0.000000
  70
    32
  0
VERTEX
  8
0
  5
94B
 10
27.3982
 20
-4.21071
 30
0.000000
  70
    32
  0
VERTEX
  8
0
  5
94C
 10
27.4738
 20
-4.15120
 30
0.000000
  70
    32
  0
VERTEX
  8
0
  5
94D
 10
27.5485
 20
-4.09115
 30
0.000000
  70
    32
  0
VERTEX
  8
0
  5
94E
 10
27.6222
 20
-4.03057
 30
0.000000
  70
    32
  0
VERTEX
  8
0
  5
94F
 10
27.6949
 20
-3.96947
 30
0.000000
  70
    32
  0
VERTEX
  8
0
  5
950
 10
27.7667
 20
-3.90785
 30
0.000000
  70
    32
  0
VERTEX
  8
0
  5
951
 10
27.8374
 20
-3.84572
 30
0.000000
  70
    32
  0
VERTEX
  8
0
  5
952
 10
27.9072
 20
-3.78311
 30
0.000000
  70
    32
  0
VERTEX
  8
0
  5
953
 10
27.9759
 20
-3.72000
 30
0.000000
  70
    32
  0
VERTEX
  8
0
  5
954
 10
28.0436
 20
-3.65643
 30
0.000000
  70
    32
  0
VERTEX
  8
0
  5
955
 10
28.1102
 20
-3.59238
 30
0.000000
  70
    32
  0
VERTEX
  8
0
  5
956
 10
28.1758
 20
-3.52789
 30
0.000000
  70
    32
  0
VERTEX
  8
0
  5
957
 10
28.2403
 20
-3.46294
 30
0.000000
  70
    32
  0
VERTEX
  8
0
  5
958
 10
28.3038
 20
-3.39757
 30
0.000000
  70
    32
  0
VERTEX
  8
0
  5
959
 10
28.3661
 20
-3.33176
 30
0.000000
  70
    32
  0
VERTEX
  8
0
  5
95A
 10
28.4274
 20
-3.26555
 30
0.000000
  70
    32
  0
VERTEX
  8
0
  5
95B
 10
28.4876
 20
-3.19892
 30
0.000000
  70
    32
  0
VERTEX
  8
0
  5
95C
 10
28.5466
 20
-3.13190
 30
0.000000
  70
    32
  0
VERTEX
  8
0
  5
95D
 10
28.6045
 20
-3.06450
 30
0.000000
  70
    32
  0
VERTEX
  8
0
  5
95E
 10
28.6613
 20
-2.99671
 30
0.000000
  70
    32
  0
VERTEX
  8
0
  5
95F
 10
28.7169
 20
-2.92857
 30
0.000000
  70
    32
  0
VERTEX
  8
0
  5
960
 10
28.7714
 20
-2.86006
 30
0.000000
  70
    32
  0
VERTEX
  8
0
  5
961
 10
28.8246
 20
-2.79121
 30
0.000000
  70
    32
  0
VERTEX
  8
0
  5
962
 10
28.8768
 20
-2.72202
 30
0.000000
  70
    32
  0
VERTEX
  8
0
  5
963
 10
28.9277
 20
-2.65251
 30
0.000000
  70
    32
  0
VERTEX
  8
0
  5
964
 10
28.9774
 20
-2.58268
 30
0.000000
  70
    32
  0
VERTEX
  8
0
  5
965
 10
29.0259
 20
-2.51254
 30
0.000000
  70
    32
  0
VERTEX
  8
0
  5
966
 10
29.0731
 20
-2.44210
 30
0.000000
  70
    32
  0
VERTEX
  8
0
  5
967
 10
29.1192
 20
-2.37138
 30
0.000000
  70
    32
  0
VERTEX
  8
0
  5
968
 10
29.1639
 20
-2.30038
 30
0.000000
  70
    32
  0
VERTEX
  8
0
  5
969
 10
29.2075
 20
-2.22911
 30
0.000000
  70
    32
  0
VERTEX
  8
0
  5
96A
 10
29.2497
 20
-2.15759
 30
0.000000
  70
    32
  0
VERTEX
  8
0
  5
96B
 10
29.2907
 20
-2.08581
 30
0.000000
  70
    32
  0
VERTEX
  8
0
  5
96C
 10
29.3304
 20
-2.01380
 30
0.000000
  70
    32
  0
VERTEX
  8
0
  5
96D
 10
29.3688
 20
-1.94156
 30
0.000000
  70
    32
  0
VERTEX
  8
0
  5
96E
 10
29.4058
 20
-1.86911
 30
0.000000
  70
    32
  0
VERTEX
  8
0
  5
96F
 10
29.4416
 20
-1.79644
 30
0.000000
  70
    32
  0
VERTEX
  8
0
  5
970
 10
29.4760
 20
-1.72358
 30
0.000000
  70
    32
  0
VERTEX
  8
0
  5
971
 10
29.5091
 20
-1.65052
 30
0.000000
  70
    32
  0
VERTEX
  8
0
  5
972
 10
29.5408
 20
-1.57729
 30
0.000000
  70
    32
  0
VERTEX
  8
0
  5
973
 10
29.5712
 20
-1.50389
 30
0.000000
  70
    32
  0
VERTEX
  8
0
  5
974
 10
29.6001
 20
-1.43033
 30
0.000000
  70
    32
  0
VERTEX
  8
0
  5
975
 10
29.6277
 20
-1.35662
 30
0.000000
  70
    32
  0
VERTEX
  8
0
  5
976
 10
29.6539
 20
-1.28277
 30
0.000000
  70
    32
  0
VERTEX
  8
0
  5
977
 10
29.6787
 20
-1.20880
 30
0.000000
  70
    32
  0
VERTEX
  8
0
  5
978
 10
29.7021
 20
-1.13470
 30
0.000000
  70
    32
  0
VERTEX
  8
0
  5
979
 10
29.7240
 20
-1.06049
 30
0.000000
  70
    32
  0
VERTEX
  8
0
  5
97A
 10
29.7445
 20
-0.986184
 30
0.000000
  70
    32
  0
VERTEX
  8
0
  5
97B
 10
29.7636
 20
-0.911787
 30
0.000000
  70
    32
  0
VERTEX
  8
0
  5
97C
 10
29.7811
 20
-0.837310
 30
0.000000
  70
    32
  0
VERTEX
  8
0
  5
97D
 10
29.7972
 20
-0.762762
 30
0.000000
  70
    32
  0
VERTEX
  8
0
  5
97E
 10
29.8119
 20
-0.688154
 30
0.000000
  70
    32
  0
VERTEX
  8
0
  5
97F
 10
29.8250
 20
-0.613495
 30
0.000000
  70
    32
  0
VERTEX
  8
0
  5
980
 10
29.8366
 20
-0.538796
 30
0.000000
  70
    32
  0
VERTEX
  8
0
  5
981
 10
29.8468
 20
-0.464066
 30
0.000000
  70
    32
  0
VERTEX
  8
0
  5
982
 10
29.8553
 20
-0.389314
 30
0.000000
  70
    32
  0
VERTEX
  8
0
  5
983
 10
29.8624
 20
-0.314552
 30
0.000000
  70
    32
  0
VERTEX
  8
0
  5
984
 10
29.8679
 20
-0.239788
 30
0.000000
  70
    32
  0
VERTEX
  8
0
  5
985
 10
29.8718
 20
-0.165033
 30
0.000000
  70
    32
  0
VERTEX
  8
0
  5
986
 10
29.8742
 20
-0.0902969
 30
0.000000
  70
    32
  0
VERTEX
  8
0
  5
987
 10
29.8750
 20
-0.0155887
 30
0.000000
  70
    32
  0
SEQEND
  8
0
  5
988
  0
POLYLINE
  8
0
  5
989
  66
     1
 10
0.000000
 20
0.000000
 30
0.000000
  70
     8
  0
VERTEX
  8
0
  5
98A
 10
29.8750
 20
-0.0155887
 30
0.000000
  70
    32
  0
VERTEX
  8
0
  5
98B
 10
29.8750
 20
-0.0155700
 30
0.000000
  70
    32
  0
VERTEX
  8
0
  5
98C
 10
29.8750
 20
-0.0155141
 30
0.000000
  70
    32
  0
VERTEX
  8
0
  5
98D
 10
29.8750
 20
-0.0154218
 30
0.000000
  70
    32
  0
VERTEX
  8
0
  5
98E
 10
29.8750
 20
-0.0152936
 30
0.000000
  70
    32
  0
VERTEX
  8
0
  5
98F
 10
29.8750
 20
-0.0151301
 30
0.000000
  70
    32
  0
VERTEX
  8
0
  5
990
 10
29.8750
 20
-0.0149319
 30
0.000000
  70
    32
  0
VERTEX
  8
0
  5
991
 10
29.8750
 20
-0.0146995
 30
0.000000
  70
    32
  0
VERTEX
  8
0
  5
992
 10
29.8750
 20
-0.0144336
 30
0.000000
  70
    32
  0
VERTEX
  8
0
  5
993
 10
29.8750
 20
-0.0141348
 30
0.000000
  70
    32
  0
VERTEX
  8
0
  5
994
 10
29.8750
 20
-0.0138037
 30
0.000000
  70
    32
  0
VERTEX
  8
0
  5
995
 10
29.8750
 20
-0.0134408
 30
0.000000
  70
    32
  0
VERTEX
  8
0
  5
996
 10
29.8750
 20
-0.0130467
 30
0.000000
  70
    32
  0
VERTEX
  8
0
  5
997
 10
29.8750
 20
-0.0126221
 30
0.000000
  70
    32
  0
VERTEX
  8
0
  5
998
 10
29.8750
 20
-0.0121676
 30
0.000000
  70
    32
  0
VERTEX
  8
0
  5
999
 10
29.8750
 20
-0.0116836
 30
0.000000
  70
    32
  0
VERTEX
  8
0
  5
99A
 10
29.8750
 20
-0.0111709
 30
0.000000
  70
    32
  0
VERTEX
  8
0
  5
99B
 10
29.8750
 20
-0.0106300
 30
0.000000
  70
    32
  0
VERTEX
  8
0
  5
99C
 10
29.8750
 20
-0.0100615
 30
0.000000
  70
    32
  0
VERTEX
  8
0
  5
99D
 10
29.8750
 20
-0.00946606
 30
0.000000
  70
    32
  0
VERTEX
  8
0
  5
99E
 10
29.8750
 20
-0.00884417
 30
0.000000
  70
    32
  0
VERTEX
  8
0
  5
99F
 10
29.8750
 20
-0.00819647
 30
0.000000
  70
    32
  0
VERTEX
  8
0
  5
9A0
 10
29.8750
 20
-0.00752355
 30
0.000000
  70
    32
  0
VERTEX
  8
0
  5
9A1
 10
29.8750
 20
-0.00682600
 30
0.000000
  70
    32
  0
VERTEX
  8
0
  5
9A2
 10
29.8750
 20
-0.00610443
 30
0.000000
  70
    32
  0
VERTEX
  8
0
  5
9A3
 10
29.8750
 20
-0.00535941
 30
0.000000
  70
    32
  0
VERTEX
  8
0
  5
9A4
 10
29.8750
 20
-0.00459155
 30
0.000000
  70
    32
  0
VERTEX
  8
0
  5
9A5
 10
29.8750
 20
-0.00380144
 30
0.000000
  70
    32
  0
VERTEX
  8
0
  5
9A6
 10
29.8750
 20
-0.00298968
 30
0.000000
  70
    32
  0
VERTEX
  8
0
  5
9A7
 10
29.8750
 20
-0.00215685
 30
0.000000
  70
    32
  0
VERTEX
  8
0
  5
9A8
 10
29.8750
 20
-0.00130355
 30
0.000000
  70
    32
  0
VERTEX
  8
0
  5
9A9
 10
29.8750
 20
-0.000430366
 30
0.000000
  70
    32
  0
VERTEX
  8
0
  5
9AA
 10
29.8750
 20
0.000462098
 30
0.000000
  70
    32
  0
VERTEX
  8
0
  5
9AB
 10
29.8750
 20
0.00137325
 30
0.000000
  70
    32
  0
VERTEX
  8
0
  5
9AC
 10
29.8750
 20
0.00230250
 30
0.000000
  70
    32
  0
VERTEX
  8
0
  5
9AD
 10
29.8750
 20
0.00324926
 30
0.000000
  70
    32
  0
VERTEX
  8
0
  5
9AE
 10
29.8750
 20
0.00421293
 30
0.000000
  70
    32
  0
VERTEX
  8
0
  5
9AF
 10
29.8750
 20
0.00519291
 30
0.000000
  70
    32
  0
VERTEX
  8
0
  5
9B0
 10
29.8750
 20
0.00618862
 30
0.000000
  70
    32
  0
VERTEX
  8
0
  5
9B1
 10
29.8750
 20
0.00719946
 30
0.000000
  70
    32
  0
VERTEX
  8
0
  5
9B2
 10
29.8750
 20
0.00822484
 30
0.000000
  70
    32
  0
VERTEX
  8
0
  5
9B3
 10
29.8750
 20
0.00926416
 30
0.000000
  70
    32
  0
VERTEX
  8
0
  5
9B4
 10
29.8750
 20
0.0103168
 30
0.000000
  70
    32
  0
VERTEX
  8
0
  5
9B5
 10
29.8750
 20
0.0113823
 30
0.000000
  70
    32
  0
VERTEX
  8
0
  5
9B6
 10
29.8750
 20
0.0124598
 30
0.000000
  70
    32
  0
VERTEX
  8
0
  5
9B7
 10
29.8750
 20
0.0135490
 30
0.000000
  70
    32
  0
VERTEX
  8
0
  5
9B8
 10
29.8750
 20
0.0146492
 30
0.000000
  70
    32
  0
VERTEX
  8
0
  5
9B9
 10
29.8750
 20
0.0157597
 30
0.000000
  70
    32
  0
VERTEX
  8
0
  5
9BA
 10
29.8750
 20
0.0168800
 30
0.000000
  70
    32
  0
VERTEX
  8
0
  5
9BB
 10
29.8750
 20
0.0180095
 30
0.000000
  70
    32
  0
VERTEX
  8
0
  5
9BC
 10
29.8750
 20
0.0191476
 30
0.000000
  70
    32
  0
VERTEX
  8
0
  5
9BD
 10
29.8750
 20
0.0202937
 30
0.000000
  70
    32
  0
VERTEX
  8
0
  5
9BE
 10
29.8750
 20
0.0214473
 30
0.000000
  70
    32
  0
VERTEX
  8
0
  5
9BF
 10
29.8750
 20
0.0226076
 30
0.000000
  70
    32
  0
VERTEX
  8
0
  5
9C0
 10
29.8750
 20
0.0237742
 30
0.000000
  70
    32
  0
VERTEX
  8
0
  5
9C1
 10
29.8750
 20
0.0249465
 30
0.000000
  70
    32
  0
VERTEX
  8
0
  5
9C2
 10
29.8750
 20
0.0261238
 30
0.000000
  70
    32
  0
VERTEX
  8
0
  5
9C3
 10
29.8750
 20
0.0273055
 30
0.000000
  70
    32
  0
VERTEX
  8
0
  5
9C4
 10
29.8750
 20
0.0284911
 30
0.000000
  70
    32
  0
VERTEX
  8
0
  5
9C5
 10
29.8750
 20
0.0296799
 30
0.000000
  70
    32
  0
VERTEX
  8
0
  5
9C6
 10
29.8750
 20
0.0308714
 30
0.000000
  70
    32
  0
VERTEX
  8
0
  5
9C7
 10
29.8750
 20
0.0320650
 30
0.000000
  70
    32
  0
VERTEX
  8
0
  5
9C8
 10
29.8750
 20
0.0332601
 30
0.000000
  70
    32
  0
VERTEX
  8
0
  5
9C9
 10
29.8750
 20
0.0344561
 30
0.000000
  70
    32
  0
VERTEX
  8
0
  5
9CA
 10
29.8750
 20
0.0356523
 30
0.000000
  70
    32
  0
VERTEX
  8
0
  5
9CB
 10
29.8750
 20
0.0368483
 30
0.000000
  70
    32
  0
VERTEX
  8
0
  5
9CC
 10
29.8750
 20
0.0380434
 30
0.000000
  70
    32
  0
VERTEX
  8
0
  5
9CD
 10
29.8750
 20
0.0392370
 30
0.000000
  70
    32
  0
VERTEX
  8
0
  5
9CE
 10
29.8750
 20
0.0404285
 30
0.000000
  70
    32
  0
VERTEX
  8
0
  5
9CF
 10
29.8750
 20
0.0416173
 30
0.000000
  70
    32
  0
VERTEX
  8
0
  5
9D0
 10
29.8750
 20
0.0428029
 30
0.000000
  70
    32
  0
VERTEX
  8
0
  5
9D1
 10
29.8750
 20
0.0439847
 30
0.000000
  70
    32
  0
VERTEX
  8
0
  5
9D2
 10
29.8750
 20
0.0451619
 30
0.000000
  70
    32
  0
VERTEX
  8
0
  5
9D3
 10
29.8750
 20
0.0463342
 30
0.000000
  70
    32
  0
VERTEX
  8
0
  5
9D4
 10
29.8750
 20
0.0475008
 30
0.000000
  70
    32
  0
VERTEX
  8
0
  5
9D5
 10
29.8750
 20
0.0486611
 30
0.000000
  70
    32
  0
VERTEX
  8
0
  5
9D6
 10
29.8750
 20
0.0498147
 30
0.000000
  70
    32
  0
VERTEX
  8
0
  5
9D7
 10
29.8750
 20
0.0509608
 30
0.000000
  70
    32
  0
VERTEX
  8
0
  5
9D8
 10
29.8750
 20
0.0520989
 30
0.000000
  70
    32
  0
VERTEX
  8
0
  5
9D9
 10
29.8750
 20
0.0532284
 30
0.000000
  70
    32
  0
VERTEX
  8
0
  5
9DA
 10
29.8750
 20
0.0543487
 30
0.000000
  70
    32
  0
VERTEX
  8
0
  5
9DB
 10
29.8750
 20
0.0554593
 30
0.000000
  70
    32
  0
VERTEX
  8
0
  5
9DC
 10
29.8750
 20
0.0565594
 30
0.000000
  70
    32
  0
VERTEX
  8
0
  5
9DD
 10
29.8750
 20
0.0576486
 30
0.000000
  70
    32
  0
VERTEX
  8
0
  5
9DE
 10
29.8750
 20
0.0587261
 30
0.000000
  70
    32
  0
VERTEX
  8
0
  5
9DF
 10
29.8750
 20
0.0597916
 30
0.000000
  70
    32
  0
VERTEX
  8
0
  5
9E0
 10
29.8750
 20
0.0608442
 30
0.000000
  70
    32
  0
VERTEX
  8
0
  5
9E1
 10
29.8750
 20
0.0618836
 30
0.000000
  70
    32
  0
VERTEX
  8
0
  5
9E2
 10
29.8750
 20
0.0629089
 30
0.000000
  70
    32
  0
VERTEX
  8
0
  5
9E3
 10
29.8750
 20
0.0639198
 30
0.000000
  70
    32
  0
VERTEX
  8
0
  5
9E4
 10
29.8750
 20
0.0649155
 30
0.000000
  70
    32
  0
VERTEX
  8
0
  5
9E5
 10
29.8750
 20
0.0658955
 30
0.000000
  70
    32
  0
VERTEX
  8
0
  5
9E6
 10
29.8750
 20
0.0668591
 30
0.000000
  70
    32
  0
VERTEX
  8
0
  5
9E7
 10
29.8750
 20
0.0678059
 30
0.000000
  70
    32
  0
VERTEX
  8
0
  5
9E8
 10
29.8750
 20
0.0687352
 30
0.000000
  70
    32
  0
VERTEX
  8
0
  5
9E9
 10
29.8750
 20
0.0696463
 30
0.000000
  70
    32
  0
VERTEX
  8
0
  5
9EA
 10
29.8750
 20
0.0705388
 30
0.000000
  70
    32
  0
VERTEX
  8
0
  5
9EB
 10
29.8750
 20
0.0714120
 30
0.000000
  70
    32
  0
VERTEX
  8
0
  5
9EC
 10
29.8750
 20
0.0722653
 30
0.000000
  70
    32
  0
VERTEX
  8
0
  5
9ED
 10
29.8750
 20
0.0730981
 30
0.000000
  70
    32
  0
VERTEX
  8
0
  5
9EE
 10
29.8750
 20
0.0739099
 30
0.000000
  70
    32
  0
VERTEX
  8
0
  5
9EF
 10
29.8750
 20
0.0747000
 30
0.000000
  70
    32
  0
VERTEX
  8
0
  5
9F0
 10
29.8750
 20
0.0754678
 30
0.000000
  70
    32
  0
VERTEX
  8
0
  5
9F1
 10
29.8750
 20
0.0762128
 30
0.000000
  70
    32
  0
VERTEX
  8
0
  5
9F2
 10
29.8750
 20
0.0769344
 30
0.000000
  70
    32
  0
VERTEX
  8
0
  5
9F3
 10
29.8750
 20
0.0776320
 30
0.000000
  70
    32
  0
VERTEX
  8
0
  5
9F4
 10
29.8750
 20
0.0783049
 30
0.000000
  70
    32
  0
VERTEX
  8
0
  5
9F5
 10
29.8750
 20
0.0789526
 30
0.000000
  70
    32
  0
VERTEX
  8
0
  5
9F6
 10
29.8750
 20
0.0795745
 30
0.000000
  70
    32
  0
VERTEX
  8
0
  5
9F7
 10
29.8750
 20
0.0801700
 30
0.000000
  70
    32
  0
VERTEX
  8
0
  5
9F8
 10
29.8750
 20
0.0807384
 30
0.000000
  70
    32
  0
VERTEX
  8
0
  5
9F9
 10
29.8750
 20
0.0812793
 30
0.000000
  70
    32
  0
VERTEX
  8
0
  5
9FA
 10
29.8750
 20
0.0817921
 30
0.000000
  70
    32
  0
VERTEX
  8
0
  5
9FB
 10
29.8750
 20
0.0822760
 30
0.000000
  70
    32
  0
VERTEX
  8
0
  5
9FC
 10
29.8750
 20
0.0827306
 30
0.000000
  70
    32
  0
VERTEX
  8
0
  5
9FD
 10
29.8750
 20
0.0831551
 30
0.000000
  70
    32
  0
VERTEX
  8
0
  5
9FE
 10
29.8750
 20
0.0835492
 30
0.000000
  70
    32
  0
VERTEX
  8
0
  5
9FF
 10
29.8750
 20
0.0839121
 30
0.000000
  70
    32
  0
VERTEX
  8
0
  5
A00
 10
29.8750
 20
0.0842432
 30
0.000000
  70
    32
  0
VERTEX
  8
0
  5
A01
 10
29.8750
 20
0.0845420
 30
0.000000
  70
    32
  0
VERTEX
  8
0
  5
A02
 10
29.8750
 20
0.0848079
 30
0.000000
  70
    32
  0
VERTEX
  8
0
  5
A03
 10
29.8750
 20
0.0850403
 30
0.000000
  70
    32
  0
VERTEX
  8
0
  5
A04
 10
29.8750
 20
0.0852385
 30
0.000000
  70
    32
  0
VERTEX
  8
0
  5
A05
 10
29.8750
 20
0.0854020
 30
0.000000
  70
    32
  0
VERTEX
  8
0
  5
A06
 10
29.8750
 20
0.0855302
 30
0.000000
  70
    32
  0
VERTEX
  8
0
  5
A07
 10
29.8750
 20
0.0856225
 30
0.000000
  70
    32
  0
VERTEX
  8
0
  5
A08
 10
29.8750
 20
0.0856784
 30
0.000000
  70
    32
  0
VERTEX
  8
0
  5
A09
 10
29.8750
 20
0.0856971
 30
0.000000
  70
    32
  0
SEQEND
  8
0
  5
A0A
  0
POLYLINE
  8
0
  5
A0B
  66
     1
 10
0.000000
 20
0.000000
 30
0.000000
  70
     8
  0
VERTEX
  8
0
  5
A0C
 10
29.8750
 20
0.0856971
 30
0.000000
  70
    32
  0
VERTEX
  8
0
  5
A0D
 10
29.8742
 20
0.158952
 30
0.000000
  70
    32
  0
VERTEX
  8
0
  5
A0E
 10
29.8718
 20
0.232290
 30
0.000000
  70
    32
  0
VERTEX
  8
0
  5
A0F
 10
29.8679
 20
0.305702
 30
0.000000
  70
    32
  0
VERTEX
  8
0
  5
A10
 10
29.8624
 20
0.379176
 30
0.000000
  70
    32
  0
VERTEX
  8
0
  5
A11
 10
29.8553
 20
0.452701
 30
0.000000
  70
    32
  0
VERTEX
  8
0
  5
A12
 10
29.8468
 20
0.526268
 30
0.000000
  70
    32
  0
VERTEX
  8
0
  5
A13
 10
29.8366
 20
0.599866
 30
0.000000
  70
    32
  0
VERTEX
  8
0
  5
A14
 10
29.8250
 20
0.673483
 30
0.000000
  70
    32
  0
VERTEX
  8
0
  5
A15
 10
29.8119
 20
0.747111
 30
0.000000
  70
    32
  0
VERTEX
  8
0
  5
A16
 10
29.7972
 20
0.820737
 30
0.000000
  70
    32
  0
VERTEX
  8
0
  5
A17
 10
29.7811
 20
0.894352
 30
0.000000
  70
    32
  0
VERTEX
  8
0
  5
A18
 10
29.7636
 20
0.967945
 30
0.000000
  70
    32
  0
VERTEX
  8
0
  5
A19
 10
29.7445
 20
1.04150
 30
0.000000
  70
    32
  0
VERTEX
  8
0
  5
A1A
 10
29.7240
 20
1.11502
 30
0.000000
  70
    32
  0
VERTEX
  8
0
  5
A1B
 10
29.7021
 20
1.18848
 30
0.000000
  70
    32
  0
VERTEX
  8
0
  5
A1C
 10
29.6787
 20
1.26188
 30
0.000000
  70
    32
  0
VERTEX
  8
0
  5
A1D
 10
29.6539
 20
1.33521
 30
0.000000
  70
    32
  0
VERTEX
  8
0
  5
A1E
 10
29.6277
 20
1.40845
 30
0.000000
  70
    32
  0
VERTEX
  8
0
  5
A1F
 10
29.6001
 20
1.48159
 30
0.000000
  70
    32
  0
VERTEX
  8
0
  5
A20
 10
29.5712
 20
1.55462
 30
0.000000
  70
    32
  0
VERTEX
  8
0
  5
A21
 10
29.5408
 20
1.62754
 30
0.000000
  70
    32
  0
VERTEX
  8
0
  5
A22
 10
29.5091
 20
1.70033
 30
0.000000
  70
    32
  0
VERTEX
  8
0
  5
A23
 10
29.4760
 20
1.77299
 30
0.000000
  70
    32
  0
VERTEX
  8
0
  5
A24
 10
29.4416
 20
1.84549
 30
0.000000
  70
    32
  0
VERTEX
  8
0
  5
A25
 10
29.4058
 20
1.91784
 30
0.000000
  70
    32
  0
VERTEX
  8
0
  5
A26
 10
29.3688
 20
1.99001
 30
0.000000
  70
    32
  0
VERTEX
  8
0
  5
A27
 10
29.3304
 20
2.06200
 30
0.000000
  70
    32
  0
VERTEX
  8
0
  5
A28
 10
29.2907
 20
2.13381
 30
0.000000
  70
    32
  0
VERTEX
  8
0
  5
A29
 10
29.2497
 20
2.20541
 30
0.000000
  70
    32
  0
VERTEX
  8
0
  5
A2A
 10
29.2075
 20
2.27680
 30
0.000000
  70
    32
  0
VERTEX
  8
0
  5
A2B
 10
29.1639
 20
2.34797
 30
0.000000
  70
    32
  0
VERTEX
  8
0
  5
A2C
 10
29.1192
 20
2.41890
 30
0.000000
  70
    32
  0
VERTEX
  8
0
  5
A2D
 10
29.0731
 20
2.48959
 30
0.000000
  70
    32
  0
VERTEX
  8
0
  5
A2E
 10
29.0259
 20
2.56002
 30
0.000000
  70
    32
  0
VERTEX
  8
0
  5
A2F
 10
28.9774
 20
2.63020
 30
0.000000
  70
    32
  0
VERTEX
  8
0
  5
A30
 10
28.9277
 20
2.70009
 30
0.000000
  70
    32
  0
VERTEX
  8
0
  5
A31
 10
28.8768
 20
2.76970
 30
0.000000
  70
    32
  0
VERTEX
  8
0
  5
A32
 10
28.8246
 20
2.83901
 30
0.000000
  70
    32
  0
VERTEX
  8
0
  5
A33
 10
28.7714
 20
2.90802
 30
0.000000
  70
    32
  0
VERTEX
  8
0
  5
A34
 10
28.7169
 20
2.97670
 30
0.000000
  70
    32
  0
VERTEX
  8
0
  5
A35
 10
28.6613
 20
3.04506
 30
0.000000
  70
    32
  0
VERTEX
  8
0
  5
A36
 10
28.6045
 20
3.11308
 30
0.000000
  70
    32
  0
VERTEX
  8
0
  5
A37
 10
28.5466
 20
3.18075
 30
0.000000
  70
    32
  0
VERTEX
  8
0
  5
A38
 10
28.4876
 20
3.24806
 30
0.000000
  70
    32
  0
VERTEX
  8
0
  5
A39
 10
28.4274
 20
3.31500
 30
0.000000
  70
    32
  0
VERTEX
  8
0
  5
A3A
 10
28.3661
 20
3.38156
 30
0.000000
  70
    32
  0
VERTEX
  8
0
  5
A3B
 10
28.3038
 20
3.44773
 30
0.000000
  70
    32
  0
VERTEX
  8
0
  5
A3C
 10
28.2403
 20
3.51349
 30
0.000000
  70
    32
  0
VERTEX
  8
0
  5
A3D
 10
28.1758
 20
3.57885
 30
0.000000
  70
    32
  0
VERTEX
  8
0
  5
A3E
 10
28.1102
 20
3.64378
 30
0.000000
  70
    32
  0
VERTEX
  8
0
  5
A3F
 10
28.0436
 20
3.70827
 30
0.000000
  70
    32
  0
VERTEX
  8
0
  5
A40
 10
27.9759
 20
3.77232
 30
0.000000
  70
    32
  0
VERTEX
  8
0
  5
A41
 10
27.9072
 20
3.83592
 30
0.000000
  70
    32
  0
VERTEX
  8
0
  5
A42
 10
27.8374
 20
3.89905
 30
0.000000
  70
    32
  0
VERTEX
  8
0
  5
A43
 10
27.7667
 20
3.96170
 30
0.000000
  70
    32
  0
VERTEX
  8
0
  5
A44
 10
27.6949
 20
4.02387
 30
0.000000
  70
    32
  0
VERTEX
  8
0
  5
A45
 10
27.6222
 20
4.08554
 30
0.000000
  70
    32
  0
VERTEX
  8
0
  5
A46
 10
27.5485
 20
4.14670
 30
0.000000
  70
    32
  0
VERTEX
  8
0
  5
A47
 10
27.4738
 20
4.20734
 30
0.000000
  70
    32
  0
VERTEX
  8
0
  5
A48
 10
27.3982
 20
4.26746
 30
0.000000
  70
    32
  0
VERTEX
  8
0
  5
A49
 10
27.3216
 20
4.32703
 30
0.000000
  70
    32
  0
VERTEX
  8
0
  5
A4A
 10
27.2440
 20
4.38606
 30
0.000000
  70
    32
  0
VERTEX
  8
0
  5
A4B
 10
27.1656
 20
4.44452
 30
0.000000
  70
    32
  0
VERTEX
  8
0
  5
A4C
 10
27.0862
 20
4.50242
 30
0.000000
  70
    32
  0
VERTEX
  8
0
  5
A4D
 10
27.0060
 20
4.55973
 30
0.000000
  70
    32
  0
VERTEX
  8
0
  5
A4E
 10
26.9248
 20
4.61645
 30
0.000000
  70
    32
  0
VERTEX
  8
0
  5
A4F
 10
26.8428
 20
4.67257
 30
0.000000
  70
    32
  0
VERTEX
  8
0
  5
A50
 10
26.7599
 20
4.72807
 30
0.000000
  70
    32
  0
VERTEX
  8
0
  5
A51
 10
26.6761
 20
4.78295
 30
0.000000
  70
    32
  0
VERTEX
  8
0
  5
A52
 10
26.5915
 20
4.83719
 30
0.000000
  70
    32
  0
VERTEX
  8
0
  5
A53
 10
26.5060
 20
4.89079
 30
0.000000
  70
    32
  0
VERTEX
  8
0
  5
A54
 10
26.4197
 20
4.94374
 30
0.000000
  70
    32
  0
VERTEX
  8
0
  5
A55
 10
26.3326
 20
4.99601
 30
0.000000
  70
    32
  0
VERTEX
  8
0
  5
A56
 10
26.2447
 20
5.04761
 30
0.000000
  70
    32
  0
VERTEX
  8
0
  5
A57
 10
26.1560
 20
5.09853
 30
0.000000
  70
    32
  0
VERTEX
  8
0
  5
A58
 10
26.0665
 20
5.14874
 30
0.000000
  70
    32
  0
VERTEX
  8
0
  5
A59
 10
25.9762
 20
5.19825
 30
0.000000
  70
    32
  0
VERTEX
  8
0
  5
A5A
 10
25.8852
 20
5.24704
 30
0.000000
  70
    32
  0
VERTEX
  8
0
  5
A5B
 10
25.7934
 20
5.29510
 30
0.000000
  70
    32
  0
VERTEX
  8
0
  5
A5C
 10
25.7008
 20
5.34242
 30
0.000000
  70
    32
  0
VERTEX
  8
0
  5
A5D
 10
25.6076
 20
5.38898
 30
0.000000
  70
    32
  0
VERTEX
  8
0
  5
A5E
 10
25.5136
 20
5.43479
 30
0.000000
  70
    32
  0
VERTEX
  8
0
  5
A5F
 10
25.4189
 20
5.47983
 30
0.000000
  70
    32
  0
VERTEX
  8
0
  5
A60
 10
25.3235
 20
5.52408
 30
0.000000
  70
    32
  0
VERTEX
  8
0
  5
A61
 10
25.2274
 20
5.56754
 30
0.000000
  70
    32
  0
VERTEX
  8
0
  5
A62
 10
25.1307
 20
5.61019
 30
0.000000
  70
    32
  0
VERTEX
  8
0
  5
A63
 10
25.0333
 20
5.65204
 30
0.000000
  70
    32
  0
VERTEX
  8
0
  5
A64
 10
24.9352
 20
5.69305
 30
0.000000
  70
    32
  0
VERTEX
  8
0
  5
A65
 10
24.8364
 20
5.73324
 30
0.000000
  70
    32
  0
VERTEX
  8
0
  5
A66
 10
24.7371
 20
5.77257
 30
0.000000
  70
    32
  0
VERTEX
  8
0
  5
A67
 10
24.6371
 20
5.81105
 30
0.000000
  70
    32
  0
VERTEX
  8
0
  5
A68
 10
24.5365
 20
5.84867
 30
0.000000
  70
    32
  0
VERTEX
  8
0
  5
A69
 10
24.4353
 20
5.88540
 30
0.000000
  70
    32
  0
VERTEX
  8
0
  5
A6A
 10
24.3335
 20
5.92125
 30
0.000000
  70
    32
  0
VERTEX
  8
0
  5
A6B
 10
24.2311
 20
5.95620
 30
0.000000
  70
    32
  0
VERTEX
  8
0
  5
A6C
 10
24.1282
 20
5.99024
 30
0.000000
  70
    32
  0
VERTEX
  8
0
  5
A6D
 10
24.0247
 20
6.02336
 30
0.000000
  70
    32
  0
VERTEX
  8
0
  5
A6E
 10
23.9206
 20
6.05555
 30
0.000000
  70
    32
  0
VERTEX
  8
0
  5
A6F
 10
23.8160
 20
6.08680
 30
0.000000
  70
    32
  0
VERTEX
  8
0
  5
A70
 10
23.7109
 20
6.11710
 30
0.000000
  70
    32
  0
VERTEX
  8
0
  5
A71
 10
23.6053
 20
6.14644
 30
0.000000
  70
    32
  0
VERTEX
  8
0
  5
A72
 10
23.4991
 20
6.17480
 30
0.000000
  70
    32
  0
VERTEX
  8
0
  5
A73
 10
23.3925
 20
6.20218
 30
0.000000
  70
    32
  0
VERTEX
  8
0
  5
A74
 10
23.2853
 20
6.22857
 30
0.000000
  70
    32
  0
VERTEX
  8
0
  5
A75
 10
23.1777
 20
6.25395
 30
0.000000
  70
    32
  0
VERTEX
  8
0
  5
A76
 10
23.0697
 20
6.27832
 30
0.000000
  70
    32
  0
VERTEX
  8
0
  5
A77
 10
22.9612
 20
6.30167
 30
0.000000
  70
    32
  0
VERTEX
  8
0
  5
A78
 10
22.8522
 20
6.32397
 30
0.000000
  70
    32
  0
VERTEX
  8
0
  5
A79
 10
22.7428
 20
6.34524
 30
0.000000
  70
    32
  0
VERTEX
  8
0
  5
A7A
 10
22.6330
 20
6.36544
 30
0.000000
  70
    32
  0
VERTEX
  8
0
  5
A7B
 10
22.5228
 20
6.38458
 30
0.000000
  70
    32
  0
VERTEX
  8
0
  5
A7C
 10
22.4122
 20
6.40264
 30
0.000000
  70
    32
  0
VERTEX
  8
0
  5
A7D
 10
22.3012
 20
6.41961
 30
0.000000
  70
    32
  0
VERTEX
  8
0
  5
A7E
 10
22.1898
 20
6.43548
 30
0.000000
  70
    32
  0
VERTEX
  8
0
  5
A7F
 10
22.0781
 20
6.45024
 30
0.000000
  70
    32
  0
VERTEX
  8
0
  5
A80
 10
21.9660
 20
6.46388
 30
0.000000
  70
    32
  0
VERTEX
  8
0
  5
A81
 10
21.8535
 20
6.47639
 30
0.000000
  70
    32
  0
VERTEX
  8
0
  5
A82
 10
21.7407
 20
6.48776
 30
0.000000
  70
    32
  0
VERTEX
  8
0
  5
A83
 10
21.6276
 20
6.49798
 30
0.000000
  70
    32
  0
VERTEX
  8
0
  5
A84
 10
21.5142
 20
6.50704
 30
0.000000
  70
    32
  0
VERTEX
  8
0
  5
A85
 10
21.4005
 20
6.51492
 30
0.000000
  70
    32
  0
VERTEX
  8
0
  5
A86
 10
21.2865
 20
6.52162
 30
0.000000
  70
    32
  0
VERTEX
  8
0
  5
A87
 10
21.1722
 20
6.52712
 30
0.000000
  70
    32
  0
VERTEX
  8
0
  5
A88
 10
21.0576
 20
6.53142
 30
0.000000
  70
    32
  0
VERTEX
  8
0
  5
A89
 10
20.9428
 20
6.53450
 30
0.000000
  70
    32
  0
VERTEX
  8
0
  5
A8A
 10
20.8277
 20
6.53636
 30
0.000000
  70
    32
  0
VERTEX
  8
0
  5
A8B
 10
20.7124
 20
6.53698
 30
0.000000
  70
    32
  0
SEQEND
  8
0
  5
A8C
  0
POLYLINE
  8
0
  5
A8D
  66
     1
 10
0.000000
 20
0.000000
 30
0.000000
  70
     8
  0
VERTEX
  8
0
  5
A8E
 10
20.5691
 20
6.53698
 30
0.000000
  70
    32
  0
VERTEX
  8
0
  5
A8F
 10
20.5691
 20
6.53698
 30
0.000000
  70
    32
  0
VERTEX
  8
0
  5
A90
 10
20.5691
 20
6.53698
 30
0.000000
  70
    32
  0
VERTEX
  8
0
  5
A91
 10
20.5691
 20
6.53698
 30
0.000000
  70
    32
  0
VERTEX
  8
0
  5
A92
 10
20.5691
 20
6.53698
 30
0.000000
  70
    32
  0
VERTEX
  8
0
  5
A93
 10
20.5691
 20
6.53698
 30
0.000000
  70
    32
  0
VERTEX
  8
0
  5
A94
 10
20.5691
 20
6.53698
 30
0.000000
  70
    32
  0
VERTEX
  8
0
  5
A95
 10
20.5691
 20
6.53698
 30
0.000000
  70
    32
  0
VERTEX
  8
0
  5
A96
 10
20.5691
 20
6.53698
 30
0.000000
  70
    32
  0
VERTEX
  8
0
  5
A97
 10
20.5691
 20
6.53698
 30
0.000000
  70
    32
  0
VERTEX
  8
0
  5
A98
 10
20.5691
 20
6.53698
 30
0.000000
  70
    32
  0
VERTEX
  8
0
  5
A99
 10
20.5691
 20
6.53698
 30
0.000000
  70
    32
  0
VERTEX
  8
0
  5
A9A
 10
20.5691
 20
6.53697
 30
0.000000
  70
    32
  0
VERTEX
  8
0
  5
A9B
 10
20.5691
 20
6.53697
 30
0.000000
  70
    32
  0
VERTEX
  8
0
  5
A9C
 10
20.5691
 20
6.53697
 30
0.000000
  70
    32
  0
VERTEX
  8
0
  5
A9D
 10
20.5691
 20
6.53697
 30
0.000000
  70
    32
  0
VERTEX
  8
0
  5
A9E
 10
20.5691
 20
6.53697
 30
0.000000
  70
    32
  0
VERTEX
  8
0
  5
A9F
 10
20.5692
 20
6.53697
 30
0.000000
  70
    32
  0
VERTEX
  8
0
  5
AA0
 10
20.5692
 20
6.53696
 30
0.000000
  70
    32
  0
VERTEX
  8
0
  5
AA1
 10
20.5692
 20
6.53696
 30
0.000000
  70
    32
  0
VERTEX
  8
0
  5
AA2
 10
20.5692
 20
6.53696
 30
0.000000
  70
    32
  0
VERTEX
  8
0
  5
AA3
 10
20.5692
 20
6.53696
 30
0.000000
  70
    32
  0
VERTEX
  8
0
  5
AA4
 10
20.5692
 20
6.53696
 30
0.000000
  70
    32
  0
VERTEX
  8
0
  5
AA5
 10
20.5692
 20
6.53695
 30
0.000000
  70
    32
  0
VERTEX
  8
0
  5
AA6
 10
20.5693
 20
6.53695
 30
0.000000
  70
    32
  0
VERTEX
  8
0
  5
AA7
 10
20.5693
 20
6.53695
 30
0.000000
  70
    32
  0
VERTEX
  8
0
  5
AA8
 10
20.5693
 20
6.53695
 30
0.000000
  70
    32
  0
VERTEX
  8
0
  5
AA9
 10
20.5693
 20
6.53694
 30
0.000000
  70
    32
  0
VERTEX
  8
0
  5
AAA
 10
20.5693
 20
6.53694
 30
0.000000
  70
    32
  0
VERTEX
  8
0
  5
AAB
 10
20.5693
 20
6.53694
 30
0.000000
  70
    32
  0
VERTEX
  8
0
  5
AAC
 10
20.5694
 20
6.53693
 30
0.000000
  70
    32
  0
VERTEX
  8
0
  5
AAD
 10
20.5694
 20
6.53693
 30
0.000000
  70
    32
  0
VERTEX
  8
0
  5
AAE
 10
20.5694
 20
6.53693
 30
0.000000
  70
    32
  0
VERTEX
  8
0
  5
AAF
 10
20.5694
 20
6.53693
 30
0.000000
  70
    32
  0
VERTEX
  8
0
  5
AB0
 10
20.5694
 20
6.53692
 30
0.000000
  70
    32
  0
VERTEX
  8
0
  5
AB1
 10
20.5694
 20
6.53692
 30
0.000000
  70
    32
  0
VERTEX
  8
0
  5
AB2
 10
20.5695
 20
6.53692
 30
0.000000
  70
    32
  0
VERTEX
  8
0
  5
AB3
 10
20.5695
 20
6.53691
 30
0.000000
  70
    32
  0
VERTEX
  8
0
  5
AB4
 10
20.5695
 20
6.53691
 30
0.000000
  70
    32
  0
VERTEX
  8
0
  5
AB5
 10
20.5695
 20
6.53691
 30
0.000000
  70
    32
  0
VERTEX
  8
0
  5
AB6
 10
20.5695
 20
6.53690
 30
0.000000
  70
    32
  0
VERTEX
  8
0
  5
AB7
 10
20.5696
 20
6.53690
 30
0.000000
  70
    32
  0
VERTEX
  8
0
  5
AB8
 10
20.5696
 20
6.53689
 30
0.000000
  70
    32
  0
VERTEX
  8
0
  5
AB9
 10
20.5696
 20
6.53689
 30
0.000000
  70
    32
  0
VERTEX
  8
0
  5
ABA
 10
20.5696
 20
6.53689
 30
0.000000
  70
    32
  0
VERTEX
  8
0
  5
ABB
 10
20.5697
 20
6.53688
 30
0.000000
  70
    32
  0
VERTEX
  8
0
  5
ABC
 10
20.5697
 20
6.53688
 30
0.000000
  70
    32
  0
VERTEX
  8
0
  5
ABD
 10
20.5697
 20
6.53688
 30
0.000000
  70
    32
  0
VERTEX
  8
0
  5
ABE
 10
20.5697
 20
6.53687
 30
0.000000
  70
    32
  0
VERTEX
  8
0
  5
ABF
 10
20.5697
 20
6.53687
 30
0.000000
  70
    32
  0
VERTEX
  8
0
  5
AC0
 10
20.5698
 20
6.53686
 30
0.000000
  70
    32
  0
VERTEX
  8
0
  5
AC1
 10
20.5698
 20
6.53686
 30
0.000000
  70
    32
  0
VERTEX
  8
0
  5
AC2
 10
20.5698
 20
6.53686
 30
0.000000
  70
    32
  0
VERTEX
  8
0
  5
AC3
 10
20.5698
 20
6.53685
 30
0.000000
  70
    32
  0
VERTEX
  8
0
  5
AC4
 10
20.5699
 20
6.53685
 30
0.000000
  70
    32
  0
VERTEX
  8
0
  5
AC5
 10
20.5699
 20
6.53685
 30
0.000000
  70
    32
  0
VERTEX
  8
0
  5
AC6
 10
20.5699
 20
6.53684
 30
0.000000
  70
    32
  0
VERTEX
  8
0
  5
AC7
 10
20.5699
 20
6.53684
 30
0.000000
  70
    32
  0
VERTEX
  8
0
  5
AC8
 10
20.5700
 20
6.53683
 30
0.000000
  70
    32
  0
VERTEX
  8
0
  5
AC9
 10
20.5700
 20
6.53683
 30
0.000000
  70
    32
  0
VERTEX
  8
0
  5
ACA
 10
20.5700
 20
6.53682
 30
0.000000
  70
    32
  0
VERTEX
  8
0
  5
ACB
 10
20.5700
 20
6.53682
 30
0.000000
  70
    32
  0
VERTEX
  8
0
  5
ACC
 10
20.5701
 20
6.53682
 30
0.000000
  70
    32
  0
VERTEX
  8
0
  5
ACD
 10
20.5701
 20
6.53681
 30
0.000000
  70
    32
  0
VERTEX
  8
0
  5
ACE
 10
20.5701
 20
6.53681
 30
0.000000
  70
    32
  0
VERTEX
  8
0
  5
ACF
 10
20.5701
 20
6.53680
 30
0.000000
  70
    32
  0
VERTEX
  8
0
  5
AD0
 10
20.5702
 20
6.53680
 30
0.000000
  70
    32
  0
VERTEX
  8
0
  5
AD1
 10
20.5702
 20
6.53680
 30
0.000000
  70
    32
  0
VERTEX
  8
0
  5
AD2
 10
20.5702
 20
6.53679
 30
0.000000
  70
    32
  0
VERTEX
  8
0
  5
AD3
 10
20.5702
 20
6.53679
 30
0.000000
  70
    32
  0
VERTEX
  8
0
  5
AD4
 10
20.5703
 20
6.53678
 30
0.000000
  70
    32
  0
VERTEX
  8
0
  5
AD5
 10
20.5703
 20
6.53678
 30
0.000000
  70
    32
  0
VERTEX
  8
0
  5
AD6
 10
20.5703
 20
6.53678
 30
0.000000
  70
    32
  0
VERTEX
  8
0
  5
AD7
 10
20.5703
 20
6.53677
 30
0.000000
  70
    32
  0
VERTEX
  8
0
  5
AD8
 10
20.5703
 20
6.53677
 30
0.000000
  70
    32
  0
VERTEX
  8
0
  5
AD9
 10
20.5704
 20
6.53676
 30
0.000000
  70
    32
  0
VERTEX
  8
0
  5
ADA
 10
20.5704
 20
6.53676
 30
0.000000
  70
    32
  0
VERTEX
  8
0
  5
ADB
 10
20.5704
 20
6.53676
 30
0.000000
  70
    32
  0
VERTEX
  8
0
  5
ADC
 10
20.5704
 20
6.53675
 30
0.000000
  70
    32
  0
VERTEX
  8
0
  5
ADD
 10
20.5705
 20
6.53675
 30
0.000000
  70
    32
  0
VERTEX
  8
0
  5
ADE
 10
20.5705
 20
6.53675
 30
0.000000
  70
    32
  0
VERTEX
  8
0
  5
ADF
 10
20.5705
 20
6.53674
 30
0.000000
  70
    32
  0
VERTEX
  8
0
  5
AE0
 10
20.5705
 20
6.53674
 30
0.000000
  70
    32
  0
VERTEX
  8
0
  5
AE1
 10
20.5706
 20
6.53673
 30
0.000000
  70
    32
  0
VERTEX
  8
0
  5
AE2
 10
20.5706
 20
6.53673
 30
0.000000
  70
    32
  0
VERTEX
  8
0
  5
AE3
 10
20.5706
 20
6.53673
 30
0.000000
  70
    32
  0
VERTEX
  8
0
  5
AE4
 10
20.5706
 20
6.53672
 30
0.000000
  70
    32
  0
VERTEX
  8
0
  5
AE5
 10
20.5706
 20
6.53672
 30
0.000000
  70
    32
  0
VERTEX
  8
0
  5
AE6
 10
20.5707
 20
6.53672
 30
0.000000
  70
    32
  0
VERTEX
  8
0
  5
AE7
 10
20.5707
 20
6.53671
 30
0.000000
  70
    32
  0
VERTEX
  8
0
  5
AE8
 10
20.5707
 20
6.53671
 30
0.000000
  70
    32
  0
VERTEX
  8
0
  5
AE9
 10
20.5707
 20
6.53671
 30
0.000000
  70
    32
  0
VERTEX
  8
0
  5
AEA
 10
20.5707
 20
6.53670
 30
0.000000
  70
    32
  0
VERTEX
  8
0
  5
AEB
 10
20.5708
 20
6.53670
 30
0.000000
  70
    32
  0
VERTEX
  8
0
  5
AEC
 10
20.5708
 20
6.53670
 30
0.000000
  70
    32
  0
VERTEX
  8
0
  5
AED
 10
20.5708
 20
6.53669
 30
0.000000
  70
    32
  0
VERTEX
  8
0
  5
AEE
 10
20.5708
 20
6.53669
 30
0.000000
  70
    32
  0
VERTEX
  8
0
  5
AEF
 10
20.5708
 20
6.53669
 30
0.000000
  70
    32
  0
VERTEX
  8
0
  5
AF0
 10
20.5709
 20
6.53668
 30
0.000000
  70
    32
  0
VERTEX
  8
0
  5
AF1
 10
20.5709
 20
6.53668
 30
0.000000
  70
    32
  0
VERTEX
  8
0
  5
AF2
 10
20.5709
 20
6.53668
 30
0.000000
  70
    32
  0
VERTEX
  8
0
  5
AF3
 10
20.5709
 20
6.53668
 30
0.000000
  70
    32
  0
VERTEX
  8
0
  5
AF4
 10
20.5709
 20
6.53667
 30
0.000000
  70
    32
  0
VERTEX
  8
0
  5
AF5
 10
20.5709
 20
6.53667
 30
0.000000
  70
    32
  0
VERTEX
  8
0
  5
AF6
 10
20.5709
 20
6.53667
 30
0.000000
  70
    32
  0
VERTEX
  8
0
  5
AF7
 10
20.5710
 20
6.53667
 30
0.000000
  70
    32
  0
VERTEX
  8
0
  5
AF8
 10
20.5710
 20
6.53666
 30
0.000000
  70
    32
  0
VERTEX
  8
0
  5
AF9
 10
20.5710
 20
6.53666
 30
0.000000
  70
    32
  0
VERTEX
  8
0
  5
AFA
 10
20.5710
 20
6.53666
 30
0.000000
  70
    32
  0
VERTEX
  8
0
  5
AFB
 10
20.5710
 20
6.53666
 30
0.000000
  70
    32
  0
VERTEX
  8
0
  5
AFC
 10
20.5710
 20
6.53666
 30
0.000000
  70
    32
  0
VERTEX
  8
0
  5
AFD
 10
20.5710
 20
6.53665
 30
0.000000
  70
    32
  0
VERTEX
  8
0
  5
AFE
 10
20.5710
 20
6.53665
 30
0.000000
  70
    32
  0
VERTEX
  8
0
  5
AFF
 10
20.5711
 20
6.53665
 30
0.000000
  70
    32
  0
VERTEX
  8
0
  5
B00
 10
20.5711
 20
6.53665
 30
0.000000
  70
    32
  0
VERTEX
  8
0
  5
B01
 10
20.5711
 20
6.53665
 30
0.000000
  70
    32
  0
VERTEX
  8
0
  5
B02
 10
20.5711
 20
6.53665
 30
0.000000
  70
    32
  0
VERTEX
  8
0
  5
B03
 10
20.5711
 20
6.53664
 30
0.000000
  70
    32
  0
VERTEX
  8
0
  5
B04
 10
20.5711
 20
6.53664
 30
0.000000
  70
    32
  0
VERTEX
  8
0
  5
B05
 10
20.5711
 20
6.53664
 30
0.000000
  70
    32
  0
VERTEX
  8
0
  5
B06
 10
20.5711
 20
6.53664
 30
0.000000
  70
    32
  0
VERTEX
  8
0
  5
B07
 10
20.5711
 20
6.53664
 30
0.000000
  70
    32
  0
VERTEX
  8
0
  5
B08
 10
20.5711
 20
6.53664
 30
0.000000
  70
    32
  0
VERTEX
  8
0
  5
B09
 10
20.5711
 20
6.53664
 30
0.000000
  70
    32
  0
VERTEX
  8
0
  5
B0A
 10
20.5711
 20
6.53664
 30
0.000000
  70
    32
  0
VERTEX
  8
0
  5
B0B
 10
20.5711
 20
6.53664
 30
0.000000
  70
    32
  0
VERTEX
  8
0
  5
B0C
 10
20.5711
 20
6.53664
 30
0.000000
  70
    32
  0
VERTEX
  8
0
  5
B0D
 10
20.5711
 20
6.53664
 30
0.000000
  70
    32
  0
SEQEND
  8
0
  5
B0E
  0
POLYLINE
  8
0
  5
B0F
  66
     1
 10
0.000000
 20
0.000000
 30
0.000000
  70
     8
  0
VERTEX
  8
0
  5
B10
 10
20.7145
 20
6.53664
 30
0.000000
  70
    32
  0
VERTEX
  8
0
  5
B11
 10
20.6504
 20
6.53650
 30
0.000000
  70
    32
  0
VERTEX
  8
0
  5
B12
 10
20.5866
 20
6.53608
 30
0.000000
  70
    32
  0
VERTEX
  8
0
  5
B13
 10
20.5229
 20
6.53538
 30
0.000000
  70
    32
  0
VERTEX
  8
0
  5
B14
 10
20.4595
 20
6.53441
 30
0.000000
  70
    32
  0
VERTEX
  8
0
  5
B15
 10
20.3962
 20
6.53317
 30
0.000000
  70
    32
  0
VERTEX
  8
0
  5
B16
 10
20.3332
 20
6.53167
 30
0.000000
  70
    32
  0
VERTEX
  8
0
  5
B17
 10
20.2704
 20
6.52990
 30
0.000000
  70
    32
  0
VERTEX
  8
0
  5
B18
 10
20.2078
 20
6.52788
 30
0.000000
  70
    32
  0
VERTEX
  8
0
  5
B19
 10
20.1454
 20
6.52560
 30
0.000000
  70
    32
  0
VERTEX
  8
0
  5
B1A
 10
20.0832
 20
6.52307
 30
0.000000
  70
    32
  0
VERTEX
  8
0
  5
B1B
 10
20.0212
 20
6.52030
 30
0.000000
  70
    32
  0
VERTEX
  8
0
  5
B1C
 10
19.9595
 20
6.51728
 30
0.000000
  70
    32
  0
VERTEX
  8
0
  5
B1D
 10
19.8979
 20
6.51402
 30
0.000000
  70
    32
  0
VERTEX
  8
0
  5
B1E
 10
19.8366
 20
6.51053
 30
0.000000
  70
    32
  0
VERTEX
  8
0
  5
B1F
 10
19.7755
 20
6.50680
 30
0.000000
  70
    32
  0
VERTEX
  8
0
  5
B20
 10
19.7147
 20
6.50284
 30
0.000000
  70
    32
  0
VERTEX
  8
0
  5
B21
 10
19.6540
 20
6.49866
 30
0.000000
  70
    32
  0
VERTEX
  8
0
  5
B22
 10
19.5936
 20
6.49425
 30
0.000000
  70
    32
  0
VERTEX
  8
0
  5
B23
 10
19.5334
 20
6.48963
 30
0.000000
  70
    32
  0
VERTEX
  8
0
  5
B24
 10
19.4734
 20
6.48479
 30
0.000000
  70
    32
  0
VERTEX
  8
0
  5
B25
 10
19.4137
 20
6.47975
 30
0.000000
  70
    32
  0
VERTEX
  8
0
  5
B26
 10
19.3541
 20
6.47449
 30
0.000000
  70
    32
  0
VERTEX
  8
0
  5
B27
 10
19.2949
 20
6.46903
 30
0.000000
  70
    32
  0
VERTEX
  8
0
  5
B28
 10
19.2358
 20
6.46337
 30
0.000000
  70
    32
  0
VERTEX
  8
0
  5
B29
 10
19.1770
 20
6.45752
 30
0.000000
  70
    32
  0
VERTEX
  8
0
  5
B2A
 10
19.1184
 20
6.45147
 30
0.000000
  70
    32
  0
VERTEX
  8
0
  5
B2B
 10
19.0600
 20
6.44523
 30
0.000000
  70
    32
  0
VERTEX
  8
0
  5
B2C
 10
19.0019
 20
6.43881
 30
0.000000
  70
    32
  0
VERTEX
  8
0
  5
B2D
 10
18.9440
 20
6.43220
 30
0.000000
  70
    32
  0
VERTEX
  8
0
  5
B2E
 10
18.8863
 20
6.42542
 30
0.000000
  70
    32
  0
VERTEX
  8
0
  5
B2F
 10
18.8289
 20
6.41846
 30
0.000000
  70
    32
  0
VERTEX
  8
0
  5
B30
 10
18.7717
 20
6.41133
 30
0.000000
  70
    32
  0
VERTEX
  8
0
  5
B31
 10
18.7148
 20
6.40404
 30
0.000000
  70
    32
  0
VERTEX
  8
0
  5
B32
 10
18.6581
 20
6.39658
 30
0.000000
  70
    32
  0
VERTEX
  8
0
  5
B33
 10
18.6016
 20
6.38896
 30
0.000000
  70
    32
  0
VERTEX
  8
0
  5
B34
 10
18.5454
 20
6.38118
 30
0.000000
  70
    32
  0
VERTEX
  8
0
  5
B35
 10
18.4895
 20
6.37325
 30
0.000000
  70
    32
  0
VERTEX
  8
0
  5
B36
 10
18.4337
 20
6.36517
 30
0.000000
  70
    32
  0
VERTEX
  8
0
  5
B37
 10
18.3783
 20
6.35694
 30
0.000000
  70
    32
  0
VERTEX
  8
0
  5
B38
 10
18.3231
 20
6.34857
 30
0.000000
  70
    32
  0
VERTEX
  8
0
  5
B39
 10
18.2681
 20
6.34007
 30
0.000000
  70
    32
  0
VERTEX
  8
0
  5
B3A
 10
18.2134
 20
6.33143
 30
0.000000
  70
    32
  0
VERTEX
  8
0
  5
B3B
 10
18.1589
 20
6.32265
 30
0.000000
  70
    32
  0
VERTEX
  8
0
  5
B3C
 10
18.1047
 20
6.31375
 30
0.000000
  70
    32
  0
VERTEX
  8
0
  5
B3D
 10
18.0507
 20
6.30473
 30
0.000000
  70
    32
  0
VERTEX
  8
0
  5
B3E
 10
17.9970
 20
6.29558
 30
0.000000
  70
    32
  0
VERTEX
  8
0
  5
B3F
 10
17.9436
 20
6.28632
 30
0.000000
  70
    32
  0
VERTEX
  8
0
  5
B40
 10
17.8904
 20
6.27695
 30
0.000000
  70
    32
  0
VERTEX
  8
0
  5
B41
 10
17.8374
 20
6.26746
 30
0.000000
  70
    32
  0
VERTEX
  8
0
  5
B42
 10
17.7848
 20
6.25787
 30
0.000000
  70
    32
  0
VERTEX
  8
0
  5
B43
 10
17.7324
 20
6.24818
 30
0.000000
  70
    32
  0
VERTEX
  8
0
  5
B44
 10
17.6802
 20
6.23839
 30
0.000000
  70
    32
  0
VERTEX
  8
0
  5
B45
 10
17.6283
 20
6.22850
 30
0.000000
  70
    32
  0
VERTEX
  8
0
  5
B46
 10
17.5767
 20
6.21853
 30
0.000000
  70
    32
  0
VERTEX
  8
0
  5
B47
 10
17.5254
 20
6.20846
 30
0.000000
  70
    32
  0
VERTEX
  8
0
  5
B48
 10
17.4743
 20
6.19831
 30
0.000000
  70
    32
  0
VERTEX
  8
0
  5
B49
 10
17.4235
 20
6.18808
 30
0.000000
  70
    32
  0
VERTEX
  8
0
  5
B4A
 10
17.3729
 20
6.17777
 30
0.000000
  70
    32
  0
VERTEX
  8
0
  5
B4B
 10
17.3226
 20
6.16739
 30
0.000000
  70
    32
  0
VERTEX
  8
0
  5
B4C
 10
17.2726
 20
6.15694
 30
0.000000
  70
    32
  0
VERTEX
  8
0
  5
B4D
 10
17.2229
 20
6.14642
 30
0.000000
  70
    32
  0
VERTEX
  8
0
  5
B4E
 10
17.1734
 20
6.13585
 30
0.000000
  70
    32
  0
VERTEX
  8
0
  5
B4F
 10
17.1243
 20
6.12521
 30
0.000000
  70
    32
  0
VERTEX
  8
0
  5
B50
 10
17.0753
 20
6.11451
 30
0.000000
  70
    32
  0
VERTEX
  8
0
  5
B51
 10
17.0267
 20
6.10377
 30
0.000000
  70
    32
  0
VERTEX
  8
0
  5
B52
 10
16.9784
 20
6.09298
 30
0.000000
  70
    32
  0
VERTEX
  8
0
  5
B53
 10
16.9303
 20
6.08214
 30
0.000000
  70
    32
  0
VERTEX
  8
0
  5
B54
 10
16.8825
 20
6.07126
 30
0.000000
  70
    32
  0
VERTEX
  8
0
  5
B55
 10
16.8350
 20
6.06035
 30
0.000000
  70
    32
  0
VERTEX
  8
0
  5
B56
 10
16.7878
 20
6.04940
 30
0.000000
  70
    32
  0
VERTEX
  8
0
  5
B57
 10
16.7408
 20
6.03842
 30
0.000000
  70
    32
  0
VERTEX
  8
0
  5
B58
 10
16.6942
 20
6.02741
 30
0.000000
  70
    32
  0
VERTEX
  8
0
  5
B59
 10
16.6478
 20
6.01639
 30
0.000000
  70
    32
  0
VERTEX
  8
0
  5
B5A
 10
16.6017
 20
6.00534
 30
0.000000
  70
    32
  0
VERTEX
  8
0
  5
B5B
 10
16.5559
 20
5.99428
 30
0.000000
  70
    32
  0
VERTEX
  8
0
  5
B5C
 10
16.5104
 20
5.98320
 30
0.000000
  70
    32
  0
VERTEX
  8
0
  5
B5D
 10
16.4652
 20
5.97212
 30
0.000000
  70
    32
  0
VERTEX
  8
0
  5
B5E
 10
16.4203
 20
5.96104
 30
0.000000
  70
    32
  0
VERTEX
  8
0
  5
B5F
 10
16.3757
 20
5.94995
 30
0.000000
  70
    32
  0
VERTEX
  8
0
  5
B60
 10
16.3313
 20
5.93886
 30
0.000000
  70
    32
  0
VERTEX
  8
0
  5
B61
 10
16.2873
 20
5.92779
 30
0.000000
  70
    32
  0
VERTEX
  8
0
  5
B62
 10
16.2436
 20
5.91672
 30
0.000000
  70
    32
  0
VERTEX
  8
0
  5
B63
 10
16.2001
 20
5.90566
 30
0.000000
  70
    32
  0
VERTEX
  8
0
  5
B64
 10
16.1570
 20
5.89462
 30
0.000000
  70
    32
  0
VERTEX
  8
0
  5
B65
 10
16.1142
 20
5.88361
 30
0.000000
  70
    32
  0
VERTEX
  8
0
  5
B66
 10
16.0716
 20
5.87261
 30
0.000000
  70
    32
  0
VERTEX
  8
0
  5
B67
 10
16.0294
 20
5.86165
 30
0.000000
  70
    32
  0
VERTEX
  8
0
  5
B68
 10
15.9875
 20
5.85072
 30
0.000000
  70
    32
  0
VERTEX
  8
0
  5
B69
 10
15.9458
 20
5.83982
 30
0.000000
  70
    32
  0
VERTEX
  8
0
  5
B6A
 10
15.9045
 20
5.82896
 30
0.000000
  70
    32
  0
VERTEX
  8
0
  5
B6B
 10
15.8635
 20
5.81814
 30
0.000000
  70
    32
  0
VERTEX
  8
0
  5
B6C
 10
15.8228
 20
5.80737
 30
0.000000
  70
    32
  0
VERTEX
  8
0
  5
B6D
 10
15.7824
 20
5.79665
 30
0.000000
  70
    32
  0
VERTEX
  8
0
  5
B6E
 10
15.7423
 20
5.78598
 30
0.000000
  70
    32
  0
VERTEX
  8
0
  5
B6F
 10
15.7025
 20
5.77537
 30
0.000000
  70
    32
  0
VERTEX
  8
0
  5
B70
 10
15.6631
 20
5.76483
 30
0.000000
  70
    32
  0
VERTEX
  8
0
  5
B71
 10
15.6239
 20
5.75434
 30
0.000000
  70
    32
  0
VERTEX
  8
0
  5
B72
 10
15.5851
 20
5.74392
 30
0.000000
  70
    32
  0
VERTEX
  8
0
  5
B73
 10
15.5466
 20
5.73358
 30
0.000000
  70
    32
  0
VERTEX
  8
0
  5
B74
 10
15.5084
 20
5.72331
 30
0.000000
  70
    32
  0
VERTEX
  8
0
  5
B75
 10
15.4705
 20
5.71311
 30
0.000000
  70
    32
  0
VERTEX
  8
0
  5
B76
 10
15.4330
 20
5.70300
 30
0.000000
  70
    32
  0
VERTEX
  8
0
  5
B77
 10
15.3958
 20
5.69298
 30
0.000000
  70
    32
  0
VERTEX
  8
0
  5
B78
 10
15.3588
 20
5.68305
 30
0.000000
  70
    32
  0
VERTEX
  8
0
  5
B79
 10
15.3223
 20
5.67320
 30
0.000000
  70
    32
  0
VERTEX
  8
0
  5
B7A
 10
15.2860
 20
5.66346
 30
0.000000
  70
    32
  0
VERTEX
  8
0
  5
B7B
 10
15.2501
 20
5.65382
 30
0.000000
  70
    32
  0
VERTEX
  8
0
  5
B7C
 10
15.2144
 20
5.64428
 30
0.000000
  70
    32
  0
VERTEX
  8
0
  5
B7D
 10
15.1792
 20
5.63484
 30
0.000000
  70
    32
  0
VERTEX
  8
0
  5
B7E
 10
15.1442
 20
5.62552
 30
0.000000
  70
    32
  0
VERTEX
  8
0
  5
B7F
 10
15.1096
 20
5.61632
 30
0.000000
  70
    32
  0
VERTEX
  8
0
  5
B80
 10
15.0753
 20
5.60723
 30
0.000000
  70
    32
  0
VERTEX
  8
0
  5
B81
 10
15.0413
 20
5.59826
 30
0.000000
  70
    32
  0
VERTEX
  8
0
  5
B82
 10
15.0077
 20
5.58943
 30
0.000000
  70
    32
  0
VERTEX
  8
0
  5
B83
 10
14.9744
 20
5.58072
 30
0.000000
  70
    32
  0
VERTEX
  8
0
  5
B84
 10
14.9415
 20
5.57214
 30
0.000000
  70
    32
  0
VERTEX
  8
0
  5
B85
 10
14.9089
 20
5.56370
 30
0.000000
  70
    32
  0
VERTEX
  8
0
  5
B86
 10
14.8766
 20
5.55540
 30
0.000000
  70
    32
  0
VERTEX
  8
0
  5
B87
 10
14.8446
 20
5.54724
 30
0.000000
  70
    32
  0
VERTEX
  8
0
  5
B88
 10
14.8131
 20
5.53923
 30
0.000000
  70
    32
  0
VERTEX
  8
0
  5
B89
 10
14.7818
 20
5.53138
 30
0.000000
  70
    32
  0
VERTEX
  8
0
  5
B8A
 10
14.7509
 20
5.52367
 30
0.000000
  70
    32
  0
VERTEX
  8
0
  5
B8B
 10
14.7203
 20
5.51613
 30
0.000000
  70
    32
  0
VERTEX
  8
0
  5
B8C
 10
14.6901
 20
5.50875
 30
0.000000
  70
    32
  0
VERTEX
  8
0
  5
B8D
 10
14.6602
 20
5.50153
 30
0.000000
  70
    32
  0
VERTEX
  8
0
  5
B8E
 10
14.6307
 20
5.49448
 30
0.000000
  70
    32
  0
VERTEX
  8
0
  5
B8F
 10
14.6015
 20
5.48761
 30
0.000000
  70
    32
  0
SEQEND
  8
0
  5
B90
  0
POLYLINE
  8
0
  5
B91
  66
     1
 10
0.000000
 20
0.000000
 30
0.000000
  70
     8
  0
VERTEX
  8
0
  5
B92
 10
14.6015
 20
5.48761
 30
0.000000
  70
    32
  0
VERTEX
  8
0
  5
B93
 10
14.5787
 20
5.48230
 30
0.000000
  70
    32
  0
VERTEX
  8
0
  5
B94
 10
14.5553
 20
5.47697
 30
0.000000
  70
    32
  0
VERTEX
  8
0
  5
B95
 10
14.5316
 20
5.47163
 30
0.000000
  70
    32
  0
VERTEX
  8
0
  5
B96
 10
14.5073
 20
5.46627
 30
0.000000
  70
    32
  0
VERTEX
  8
0
  5
B97
 10
14.4826
 20
5.46089
 30
0.000000
  70
    32
  0
VERTEX
  8
0
  5
B98
 10
14.4575
 20
5.45549
 30
0.000000
  70
    32
  0
VERTEX
  8
0
  5
B99
 10
14.4319
 20
5.45008
 30
0.000000
  70
    32
  0
VERTEX
  8
0
  5
B9A
 10
14.4059
 20
5.44466
 30
0.000000
  70
    32
  0
VERTEX
  8
0
  5
B9B
 10
14.3794
 20
5.43922
 30
0.000000
  70
    32
  0
VERTEX
  8
0
  5
B9C
 10
14.3525
 20
5.43376
 30
0.000000
  70
    32
  0
VERTEX
  8
0
  5
B9D
 10
14.3252
 20
5.42829
 30
0.000000
  70
    32
  0
VERTEX
  8
0
  5
B9E
 10
14.2974
 20
5.42281
 30
0.000000
  70
    32
  0
VERTEX
  8
0
  5
B9F
 10
14.2693
 20
5.41731
 30
0.000000
  70
    32
  0
VERTEX
  8
0
  5
BA0
 10
14.2407
 20
5.41181
 30
0.000000
  70
    32
  0
VERTEX
  8
0
  5
BA1
 10
14.2117
 20
5.40629
 30
0.000000
  70
    32
  0
VERTEX
  8
0
  5
BA2
 10
14.1822
 20
5.40076
 30
0.000000
  70
    32
  0
VERTEX
  8
0
  5
BA3
 10
14.1524
 20
5.39522
 30
0.000000
  70
    32
  0
VERTEX
  8
0
  5
BA4
 10
14.1222
 20
5.38967
 30
0.000000
  70
    32
  0
VERTEX
  8
0
  5
BA5
 10
14.0916
 20
5.38411
 30
0.000000
  70
    32
  0
VERTEX
  8
0
  5
BA6
 10
14.0605
 20
5.37854
 30
0.000000
  70
    32
  0
VERTEX
  8
0
  5
BA7
 10
14.0291
 20
5.37297
 30
0.000000
  70
    32
  0
VERTEX
  8
0
  5
BA8
 10
13.9973
 20
5.36738
 30
0.000000
  70
    32
  0
VERTEX
  8
0
  5
BA9
 10
13.9651
 20
5.36179
 30
0.000000
  70
    32
  0
VERTEX
  8
0
  5
BAA
 10
13.9325
 20
5.35620
 30
0.000000
  70
    32
  0
VERTEX
  8
0
  5
BAB
 10
13.8996
 20
5.35059
 30
0.000000
  70
    32
  0
VERTEX
  8
0
  5
BAC
 10
13.8663
 20
5.34499
 30
0.000000
  70
    32
  0
VERTEX
  8
0
  5
BAD
 10
13.8326
 20
5.33937
 30
0.000000
  70
    32
  0
VERTEX
  8
0
  5
BAE
 10
13.7985
 20
5.33376
 30
0.000000
  70
    32
  0
VERTEX
  8
0
  5
BAF
 10
13.7641
 20
5.32814
 30
0.000000
  70
    32
  0
VERTEX
  8
0
  5
BB0
 10
13.7293
 20
5.32252
 30
0.000000
  70
    32
  0
VERTEX
  8
0
  5
BB1
 10
13.6942
 20
5.31689
 30
0.000000
  70
    32
  0
VERTEX
  8
0
  5
BB2
 10
13.6587
 20
5.31126
 30
0.000000
  70
    32
  0
VERTEX
  8
0
  5
BB3
 10
13.6229
 20
5.30564
 30
0.000000
  70
    32
  0
VERTEX
  8
0
  5
BB4
 10
13.5867
 20
5.30001
 30
0.000000
  70
    32
  0
VERTEX
  8
0
  5
BB5
 10
13.5502
 20
5.29438
 30
0.000000
  70
    32
  0
VERTEX
  8
0
  5
BB6
 10
13.5133
 20
5.28875
 30
0.000000
  70
    32
  0
VERTEX
  8
0
  5
BB7
 10
13.4762
 20
5.28312
 30
0.000000
  70
    32
  0
VERTEX
  8
0
  5
BB8
 10
13.4387
 20
5.27750
 30
0.000000
  70
    32
  0
VERTEX
  8
0
  5
BB9
 10
13.4008
 20
5.27187
 30
0.000000
  70
    32
  0
VERTEX
  8
0
  5
BBA
 10
13.3627
 20
5.26625
 30
0.000000
  70
    32
  0
VERTEX
  8
0
  5
BBB
 10
13.3242
 20
5.26063
 30
0.000000
  70
    32
  0
VERTEX
  8
0
  5
BBC
 10
13.2854
 20
5.25502
 30
0.000000
  70
    32
  0
VERTEX
  8
0
  5
BBD
 10
13.2463
 20
5.24941
 30
0.000000
  70
    32
  0
VERTEX
  8
0
  5
BBE
 10
13.2070
 20
5.24381
 30
0.000000
  70
    32
  0
VERTEX
  8
0
  5
BBF
 10
13.1673
 20
5.23821
 30
0.000000
  70
    32
  0
VERTEX
  8
0
  5
BC0
 10
13.1273
 20
5.23261
 30
0.000000
  70
    32
  0
VERTEX
  8
0
  5
BC1
 10
13.0870
 20
5.22703
 30
0.000000
  70
    32
  0
VERTEX
  8
0
  5
BC2
 10
13.0464
 20
5.22145
 30
0.000000
  70
    32
  0
VERTEX
  8
0
  5
BC3
 10
13.0056
 20
5.21588
 30
0.000000
  70
    32
  0
VERTEX
  8
0
  5
BC4
 10
12.9644
 20
5.21031
 30
0.000000
  70
    32
  0
VERTEX
  8
0
  5
BC5
 10
12.9230
 20
5.20476
 30
0.000000
  70
    32
  0
VERTEX
  8
0
  5
BC6
 10
12.8813
 20
5.19922
 30
0.000000
  70
    32
  0
VERTEX
  8
0
  5
BC7
 10
12.8394
 20
5.19368
 30
0.000000
  70
    32
  0
VERTEX
  8
0
  5
BC8
 10
12.7972
 20
5.18816
 30
0.000000
  70
    32
  0
VERTEX
  8
0
  5
BC9
 10
12.7547
 20
5.18265
 30
0.000000
  70
    32
  0
VERTEX
  8
0
  5
BCA
 10
12.7119
 20
5.17714
 30
0.000000
  70
    32
  0
VERTEX
  8
0
  5
BCB
 10
12.6689
 20
5.17166
 30
0.000000
  70
    32
  0
VERTEX
  8
0
  5
BCC
 10
12.6257
 20
5.16618
 30
0.000000
  70
    32
  0
VERTEX
  8
0
  5
BCD
 10
12.5822
 20
5.16072
 30
0.000000
  70
    32
  0
VERTEX
  8
0
  5
BCE
 10
12.5384
 20
5.15527
 30
0.000000
  70
    32
  0
VERTEX
  8
0
  5
BCF
 10
12.4944
 20
5.14984
 30
0.000000
  70
    32
  0
VERTEX
  8
0
  5
BD0
 10
12.4502
 20
5.14442
 30
0.000000
  70
    32
  0
VERTEX
  8
0
  5
BD1
 10
12.4058
 20
5.13902
 30
0.000000
  70
    32
  0
VERTEX
  8
0
  5
BD2
 10
12.3611
 20
5.13363
 30
0.000000
  70
    32
  0
VERTEX
  8
0
  5
BD3
 10
12.3162
 20
5.12826
 30
0.000000
  70
    32
  0
VERTEX
  8
0
  5
BD4
 10
12.2710
 20
5.12291
 30
0.000000
  70
    32
  0
VERTEX
  8
0
  5
BD5
 10
12.2257
 20
5.11757
 30
0.000000
  70
    32
  0
VERTEX
  8
0
  5
BD6
 10
12.1801
 20
5.11226
 30
0.000000
  70
    32
  0
VERTEX
  8
0
  5
BD7
 10
12.1344
 20
5.10696
 30
0.000000
  70
    32
  0
VERTEX
  8
0
  5
BD8
 10
12.0884
 20
5.10168
 30
0.000000
  70
    32
  0
VERTEX
  8
0
  5
BD9
 10
12.0422
 20
5.09643
 30
0.000000
  70
    32
  0
VERTEX
  8
0
  5
BDA
 10
11.9959
 20
5.09119
 30
0.000000
  70
    32
  0
VERTEX
  8
0
  5
BDB
 10
11.9493
 20
5.08598
 30
0.000000
  70
    32
  0
VERTEX
  8
0
  5
BDC
 10
11.9025
 20
5.08079
 30
0.000000
  70
    32
  0
VERTEX
  8
0
  5
BDD
 10
11.8556
 20
5.07562
 30
0.000000
  70
    32
  0
VERTEX
  8
0
  5
BDE
 10
11.8085
 20
5.07047
 30
0.000000
  70
    32
  0
VERTEX
  8
0
  5
BDF
 10
11.7612
 20
5.06535
 30
0.000000
  70
    32
  0
VERTEX
  8
0
  5
BE0
 10
11.7137
 20
5.06025
 30
0.000000
  70
    32
  0
VERTEX
  8
0
  5
BE1
 10
11.6660
 20
5.05517
 30
0.000000
  70
    32
  0
VERTEX
  8
0
  5
BE2
 10
11.6182
 20
5.05012
 30
0.000000
  70
    32
  0
VERTEX
  8
0
  5
BE3
 10
11.5702
 20
5.04510
 30
0.000000
  70
    32
  0
VERTEX
  8
0
  5
BE4
 10
11.5221
 20
5.04010
 30
0.000000
  70
    32
  0
VERTEX
  8
0
  5
BE5
 10
11.4738
 20
5.03513
 30
0.000000
  70
    32
  0
VERTEX
  8
0
  5
BE6
 10
11.4253
 20
5.03019
 30
0.000000
  70
    32
  0
VERTEX
  8
0
  5
BE7
 10
11.3767
 20
5.02528
 30
0.000000
  70
    32
  0
VERTEX
  8
0
  5
BE8
 10
11.3280
 20
5.02039
 30
0.000000
  70
    32
  0
VERTEX
  8
0
  5
BE9
 10
11.2791
 20
5.01554
 30
0.000000
  70
    32
  0
VERTEX
  8
0
  5
BEA
 10
11.2301
 20
5.01071
 30
0.000000
  70
    32
  0
VERTEX
  8
0
  5
BEB
 10
11.1809
 20
5.00592
 30
0.000000
  70
    32
  0
VERTEX
  8
0
  5
BEC
 10
11.1316
 20
5.00115
 30
0.000000
  70
    32
  0
VERTEX
  8
0
  5
BED
 10
11.0822
 20
4.99642
 30
0.000000
  70
    32
  0
VERTEX
  8
0
  5
BEE
 10
11.0327
 20
4.99172
 30
0.000000
  70
    32
  0
VERTEX
  8
0
  5
BEF
 10
10.9831
 20
4.98705
 30
0.000000
  70
    32
  0
VERTEX
  8
0
  5
BF0
 10
10.9333
 20
4.98242
 30
0.000000
  70
    32
  0
VERTEX
  8
0
  5
BF1
 10
10.8834
 20
4.97782
 30
0.000000
  70
    32
  0
VERTEX
  8
0
  5
BF2
 10
10.8334
 20
4.97325
 30
0.000000
  70
    32
  0
VERTEX
  8
0
  5
BF3
 10
10.7833
 20
4.96872
 30
0.000000
  70
    32
  0
VERTEX
  8
0
  5
BF4
 10
10.7332
 20
4.96422
 30
0.000000
  70
    32
  0
VERTEX
  8
0
  5
BF5
 10
10.6829
 20
4.95977
 30
0.000000
  70
    32
  0
VERTEX
  8
0
  5
BF6
 10
10.6325
 20
4.95534
 30
0.000000
  70
    32
  0
VERTEX
  8
0
  5
BF7
 10
10.5821
 20
4.95096
 30
0.000000
  70
    32
  0
VERTEX
  8
0
  5
BF8
 10
10.5315
 20
4.94661
 30
0.000000
  70
    32
  0
VERTEX
  8
0
  5
BF9
 10
10.4809
 20
4.94230
 30
0.000000
  70
    32
  0
VERTEX
  8
0
  5
BFA
 10
10.4302
 20
4.93803
 30
0.000000
  70
    32
  0
VERTEX
  8
0
  5
BFB
 10
10.3794
 20
4.93380
 30
0.000000
  70
    32
  0
VERTEX
  8
0
  5
BFC
 10
10.3286
 20
4.92961
 30
0.000000
  70
    32
  0
VERTEX
  8
0
  5
BFD
 10
10.2777
 20
4.92546
 30
0.000000
  70
    32
  0
VERTEX
  8
0
  5
BFE
 10
10.2267
 20
4.92135
 30
0.000000
  70
    32
  0
VERTEX
  8
0
  5
BFF
 10
10.1757
 20
4.91728
 30
0.000000
  70
    32
  0
VERTEX
  8
0
  5
C00
 10
10.1246
 20
4.91325
 30
0.000000
  70
    32
  0
VERTEX
  8
0
  5
C01
 10
10.0735
 20
4.90927
 30
0.000000
  70
    32
  0
VERTEX
  8
0
  5
C02
 10
10.0223
 20
4.90533
 30
0.000000
  70
    32
  0
VERTEX
  8
0
  5
C03
 10
9.97112
 20
4.90144
 30
0.000000
  70
    32
  0
VERTEX
  8
0
  5
C04
 10
9.91987
 20
4.89759
 30
0.000000
  70
    32
  0
VERTEX
  8
0
  5
C05
 10
9.86859
 20
4.89378
 30
0.000000
  70
    32
  0
VERTEX
  8
0
  5
C06
 10
9.81727
 20
4.89002
 30
0.000000
  70
    32
  0
VERTEX
  8
0
  5
C07
 10
9.76593
 20
4.88631
 30
0.000000
  70
    32
  0
VERTEX
  8
0
  5
C08
 10
9.71457
 20
4.88265
 30
0.000000
  70
    32
  0
VERTEX
  8
0
  5
C09
 10
9.66319
 20
4.87903
 30
0.000000
  70
    32
  0
VERTEX
  8
0
  5
C0A
 10
9.61179
 20
4.87546
 30
0.000000
  70
    32
  0
VERTEX
  8
0
  5
C0B
 10
9.56038
 20
4.87193
 30
0.000000
  70
    32
  0
VERTEX
  8
0
  5
C0C
 10
9.50896
 20
4.86846
 30
0.000000
  70
    32
  0
VERTEX
  8
0
  5
C0D
 10
9.45754
 20
4.86504
 30
0.000000
  70
    32
  0
VERTEX
  8
0
  5
C0E
 10
9.40612
 20
4.86166
 30
0.000000
  70
    32
  0
VERTEX
  8
0
  5
C0F
 10
9.35470
 20
4.85834
 30
0.000000
  70
    32
  0
VERTEX
  8
0
  5
C10
 10
9.30329
 20
4.85507
 30
0.000000
  70
    32
  0
VERTEX
  8
0
  5
C11
 10
9.25189
 20
4.85185
 30
0.000000
  70
    32
  0
SEQEND
  8
0
  5
C12
  0
ENDSEC
  0
EOF
