  0
SECTION
  2
HEADER
  9
$ACADVER
  1
AC1009
  9
$INSBASE
 10
0.0
 20
0.0
 30
0.0
  9
$EXTMIN
 10
-0.004394195978989
 20
-0.0740999106664333
 30
-0.0015258207003583
  9
$EXTMAX
 10
29.38403340497058
 20
30.6828959435536
 30
0.0000000349246037
  9
$LIMMIN
 10
0.0
 20
0.0
  9
$LIMMAX
 10
144.0
 20
108.0
  9
$ORTHOMODE
 70
     1
  9
$REGENMODE
 70
     1
  9
$FILLMODE
 70
     1
  9
$QTEXTMODE
 70
     0
  9
$MIRRTEXT
 70
     1
  9
$DRAGMODE
 70
     2
  9
$LTSCALE
 40
4.0
  9
$OSMODE
 70
    37
  9
$ATTMODE
 70
     1
  9
$TEXTSIZE
 40
0.2
  9
$TRACEWID
 40
0.05
  9
$TEXTSTYLE
  7
STANDARD
  9
$CLAYER
  8
0
  9
$CELTYPE
  6
CONTINUOUS
  9
$CECOLOR
 62
   256
  9
$DIMSCALE
 40
1.0
  9
$DIMASZ
 40
0.18
  9
$DIMEXO
 40
0.0625
  9
$DIMDLI
 40
0.38
  9
$DIMRND
 40
0.0
  9
$DIMDLE
 40
0.0
  9
$DIMEXE
 40
0.18
  9
$DIMTP
 40
0.0
  9
$DIMTM
 40
0.0
  9
$DIMTXT
 40
0.18
  9
$DIMCEN
 40
0.09
  9
$DIMTSZ
 40
0.0
  9
$DIMTOL
 70
     0
  9
$DIMLIM
 70
     0
  9
$DIMTIH
 70
     1
  9
$DIMTOH
 70
     1
  9
$DIMSE1
 70
     0
  9
$DIMSE2
 70
     0
  9
$DIMTAD
 70
     0
  9
$DIMZIN
 70
     0
  9
$DIMBLK
  1

  9
$DIMASO
 70
     1
  9
$DIMSHO
 70
     1
  9
$DIMPOST
  1

  9
$DIMAPOST
  1

  9
$DIMALT
 70
     0
  9
$DIMALTD
 70
     2
  9
$DIMALTF
 40
25.399999999999999
  9
$DIMLFAC
 40
1.0
  9
$DIMTOFL
 70
     0
  9
$DIMTVP
 40
0.0
  9
$DIMTIX
 70
     0
  9
$DIMSOXD
 70
     0
  9
$DIMSAH
 70
     0
  9
$DIMBLK1
  1

  9
$DIMBLK2
  1

  9
$DIMSTYLE
  2
STANDARD
  9
$DIMCLRD
 70
     0
  9
$DIMCLRE
 70
     0
  9
$DIMCLRT
 70
     0
  9
$DIMTFAC
 40
1.0
  9
$DIMGAP
 40
0.09
  9
$LUNITS
 70
     2
  9
$LUPREC
 70
     8
  9
$SKETCHINC
 40
0.1
  9
$FILLETRAD
 40
0.0
  9
$AUNITS
 70
     0
  9
$AUPREC
 70
     8
  9
$MENU
  1
.
  9
$ELEVATION
 40
0.0
  9
$PELEVATION
 40
0.0
  9
$THICKNESS
 40
0.0
  9
$LIMCHECK
 70
     0
  9
$BLIPMODE
 70
     0
  9
$CHAMFERA
 40
0.0
  9
$CHAMFERB
 40
0.0
  9
$SKPOLY
 70
     0
  9
$TDCREATE
 40
2453353.4671258219
  9
$TDUPDATE
 40
2455212.4303096868
  9
$TDINDWG
 40
0.0474790625
  9
$TDUSRTIMER
 40
0.0587290046
  9
$USRTIMER
 70
     1
  9
$ANGBASE
 50
0.0
  9
$ANGDIR
 70
     0
  9
$PDMODE
 70
     3
  9
$PDSIZE
 40
-2.0
  9
$PLINEWID
 40
0.0
  9
$COORDS
 70
     1
  9
$SPLFRAME
 70
     0
  9
$SPLINETYPE
 70
     6
  9
$SPLINESEGS
 70
     8
  9
$ATTDIA
 70
     0
  9
$ATTREQ
 70
     1
  9
$HANDLING
 70
     1
  9
$HANDSEED
  5
FED
  9
$SURFTAB1
 70
     6
  9
$SURFTAB2
 70
     6
  9
$SURFTYPE
 70
     6
  9
$SURFU
 70
     6
  9
$SURFV
 70
     6
  9
$UCSNAME
  2

  9
$UCSORG
 10
0.0
 20
0.0
 30
0.0
  9
$UCSXDIR
 10
1.0
 20
0.0
 30
0.0
  9
$UCSYDIR
 10
0.0
 20
1.0
 30
0.0
  9
$PUCSNAME
  2

  9
$PUCSORG
 10
0.0
 20
0.0
 30
0.0
  9
$PUCSXDIR
 10
1.0
 20
0.0
 30
0.0
  9
$PUCSYDIR
 10
0.0
 20
1.0
 30
0.0
  9
$USERI1
 70
     0
  9
$USERI2
 70
     0
  9
$USERI3
 70
     0
  9
$USERI4
 70
     0
  9
$USERI5
 70
     0
  9
$USERR1
 40
0.0
  9
$USERR2
 40
0.0
  9
$USERR3
 40
0.0
  9
$USERR4
 40
0.0
  9
$USERR5
 40
0.0
  9
$WORLDVIEW
 70
     1
  9
$SHADEDGE
 70
     3
  9
$SHADEDIF
 70
    70
  9
$TILEMODE
 70
     1
  9
$MAXACTVP
 70
    64
  9
$PLIMCHECK
 70
     0
  9
$PEXTMIN
 10
0.0
 20
0.0
 30
0.0
  9
$PEXTMAX
 10
0.0
 20
0.0
 30
0.0
  9
$PLIMMIN
 10
0.0
 20
0.0
  9
$PLIMMAX
 10
12.0
 20
9.0
  9
$UNITMODE
 70
     0
  9
$VISRETAIN
 70
     0
  9
$PLINEGEN
 70
     1
  9
$PSLTSCALE
 70
     0
  0
ENDSEC
  0
SECTION
  2
TABLES
  0
TABLE
  2
VPORT
 70
     1
  0
VPORT
  2
*ACTIVE
 70
     0
 10
0.0
 20
0.0
 11
1.0
 21
1.0
 12
12.15019994537519
 22
15.53205493049029
 13
0.0
 23
0.0
 14
1.0
 24
1.0
 15
0.0
 25
0.0
 16
0.0
 26
0.0
 36
1.0
 17
0.0
 27
0.0
 37
0.0
 40
33.265332275145063
 41
1.720994475138121
 42
50.0
 43
0.0
 44
0.0
 50
0.0
 51
0.0
 71
    16
 72
   100
 73
     1
 74
     1
 75
     0
 76
     0
 77
     0
 78
     0
  0
ENDTAB
  0
TABLE
  2
LTYPE
 70
     1
  0
LTYPE
  2
CONTINUOUS
 70
     0
  3
CONTINUOUS
 72
    65
 73
     0
 40
0.0
  0
ENDTAB
  0
TABLE
  2
LAYER
 70
     2
  0
LAYER
  2
0
 70
     0
 62
     7
  6
CONTINUOUS
  0
LAYER
  2
DEFPOINTS
 70
     0
 62
     7
  6
CONTINUOUS
  0
ENDTAB
  0
TABLE
  2
STYLE
 70
     1
  0
STYLE
  2
STANDARD
 70
     0
 40
0.0
 41
1.0
 50
0.0
 71
     0
 42
0.2
  3
txt
  4

  0
ENDTAB
  0
TABLE
  2
VIEW
 70
     1
  0
ENDTAB
  0
TABLE
  2
UCS
 70
     0
  0
ENDTAB
  0
TABLE
  2
APPID
 70
     3
  0
APPID
  2
ACAD
 70
     0
  0
APPID
  2
ACAD_EXEMPT_FROM_CAD_STANDARDS
 70
     0
  0
APPID
  2
ACAD_MLEADERVER
 70
     0
  0
ENDTAB
  0
TABLE
  2
DIMSTYLE
 70
     1
  0
DIMSTYLE
  2
STANDARD
 70
     0
  3

  4

  5

  6

  7

 40
1.0
 41
0.18
 42
0.0625
 43
0.38
 44
0.18
 45
0.0
 46
0.0
 47
0.0
 48
0.0
140
0.18
141
0.09
142
0.0
143
25.399999999999999
144
1.0
145
0.0
146
1.0
147
0.09
 71
     0
 72
     0
 73
     1
 74
     1
 75
     0
 76
     0
 77
     0
 78
     0
170
     0
171
     2
172
     0
173
     0
174
     0
175
     0
176
     0
177
     0
178
     0
  0
ENDTAB
  0
ENDSEC
  0
SECTION
  2
BLOCKS
  0
BLOCK
  8
0
  2
$MODEL_SPACE
 70
     0
 10
0.0
 20
0.0
 30
0.0
  3
$MODEL_SPACE
  1

  0
ENDBLK
  5
21
  8
0
  0
BLOCK
 67
     1
  8
0
  2
$PAPER_SPACE
 70
     0
 10
0.0
 20
0.0
 30
0.0
  3
$PAPER_SPACE
  1

  0
ENDBLK
  5
76
 67
     1
  8
0
  0
BLOCK
  8
0
  2
*U6
 70
     1
 10
0.0
 20
0.0
 30
0.0
  3
*U6
  1

  0
TEXT
  5
1A8
  8
0
  6
CONTINUOUS
 62
     0
 10
14.162499999999991
 20
35.335723151588731
 30
0.0
 40
0.18
  1
29.3750
  0
ENDBLK
  5
1AA
  8
0
  0
BLOCK
  8
0
  2
*U7
 70
     1
 10
0.0
 20
0.0
 30
0.0
  3
*U7
  1

  0
TEXT
  5
1AC
  8
0
  6
CONTINUOUS
 62
     0
 10
7.7952023774161647
 20
15.248627639383241
 30
0.0
 40
0.18
  1
30.6788
  0
ENDBLK
  5
1AE
  8
0
  0
BLOCK
  8
0
  2
*U8
 70
     1
 10
0.0
 20
0.0
 30
0.0
  3
*U8
  1

  0
TEXT
  5
1B0
  8
0
  6
CONTINUOUS
 62
     0
 10
14.03515935335057
 20
15.25714567086543
 30
0.0
 40
0.18
  1
30.6618
  0
ENDBLK
  5
1B2
  8
0
  0
BLOCK
  8
0
  2
*U9
 70
     1
 10
0.0
 20
0.0
 30
0.0
  3
*U9
  1

  0
TEXT
  5
1B4
  8
0
  6
CONTINUOUS
 62
     0
 10
4.2019289024790947
 20
15.2130354778587
 30
0.0
 40
0.18
  1
30.7500
  0
ENDBLK
  5
1B6
  8
0
  0
BLOCK
  8
0
  2
*U10
 70
     1
 10
0.0
 20
0.0
 30
0.0
  3
*U10
  1

  0
TEXT
  5
1B8
  8
0
  6
CONTINUOUS
 62
     0
 10
14.180017634666029
 20
30.403725412969688
 30
0.0
 40
0.18
  1
29.3800
  0
ENDBLK
  5
1BA
  8
0
  0
ENDSEC
  0
SECTION
  2
ENTITIES
  0
LINE
  5
3B
  8
0
 10
5.7761187028512877
 20
17.383875673120631
 30
0.0
 11
5.7682017191037138
 21
17.05010312804426
 31
0.0
  0
LINE
  5
3C
  8
0
 10
1.3035444237348051
 20
17.378508629199871
 30
0.0
 11
1.3035444237348051
 21
17.05010312804426
 31
0.0
  0
LINE
  5
3D
  8
0
 10
2.6073744418680032
 20
2.820843475396893
 30
0.0
 11
2.5463932218923491
 21
1.029633909544919
 31
0.0
  0
POLYLINE
  8
0
  5
1BB
  66
     1
 10
0.000000
 20
0.000000
 30
0.000000
  70
     8
  0
VERTEX
  8
0
  5
1BC
 10
0.525441
 20
17.0014
 30
0.000000
  70
    32
  0
VERTEX
  8
0
  5
1BD
 10
0.525440
 20
17.0014
 30
0.000000
  70
    32
  0
VERTEX
  8
0
  5
1BE
 10
0.525438
 20
17.0014
 30
0.000000
  70
    32
  0
VERTEX
  8
0
  5
1BF
 10
0.525434
 20
17.0014
 30
0.000000
  70
    32
  0
VERTEX
  8
0
  5
1C0
 10
0.525429
 20
17.0014
 30
0.000000
  70
    32
  0
VERTEX
  8
0
  5
1C1
 10
0.525422
 20
17.0014
 30
0.000000
  70
    32
  0
VERTEX
  8
0
  5
1C2
 10
0.525414
 20
17.0014
 30
0.000000
  70
    32
  0
VERTEX
  8
0
  5
1C3
 10
0.525405
 20
17.0014
 30
0.000000
  70
    32
  0
VERTEX
  8
0
  5
1C4
 10
0.525394
 20
17.0015
 30
0.000000
  70
    32
  0
VERTEX
  8
0
  5
1C5
 10
0.525382
 20
17.0015
 30
0.000000
  70
    32
  0
VERTEX
  8
0
  5
1C6
 10
0.525369
 20
17.0015
 30
0.000000
  70
    32
  0
VERTEX
  8
0
  5
1C7
 10
0.525354
 20
17.0015
 30
0.000000
  70
    32
  0
VERTEX
  8
0
  5
1C8
 10
0.525338
 20
17.0015
 30
0.000000
  70
    32
  0
VERTEX
  8
0
  5
1C9
 10
0.525321
 20
17.0015
 30
0.000000
  70
    32
  0
VERTEX
  8
0
  5
1CA
 10
0.525303
 20
17.0015
 30
0.000000
  70
    32
  0
VERTEX
  8
0
  5
1CB
 10
0.525284
 20
17.0014
 30
0.000000
  70
    32
  0
VERTEX
  8
0
  5
1CC
 10
0.525263
 20
17.0014
 30
0.000000
  70
    32
  0
VERTEX
  8
0
  5
1CD
 10
0.525242
 20
17.0014
 30
0.000000
  70
    32
  0
VERTEX
  8
0
  5
1CE
 10
0.525219
 20
17.0014
 30
0.000000
  70
    32
  0
VERTEX
  8
0
  5
1CF
 10
0.525195
 20
17.0013
 30
0.000000
  70
    32
  0
VERTEX
  8
0
  5
1D0
 10
0.525171
 20
17.0013
 30
0.000000
  70
    32
  0
VERTEX
  8
0
  5
1D1
 10
0.525145
 20
17.0012
 30
0.000000
  70
    32
  0
VERTEX
  8
0
  5
1D2
 10
0.525118
 20
17.0012
 30
0.000000
  70
    32
  0
VERTEX
  8
0
  5
1D3
 10
0.525091
 20
17.0011
 30
0.000000
  70
    32
  0
VERTEX
  8
0
  5
1D4
 10
0.525063
 20
17.0010
 30
0.000000
  70
    32
  0
VERTEX
  8
0
  5
1D5
 10
0.525033
 20
17.0009
 30
0.000000
  70
    32
  0
VERTEX
  8
0
  5
1D6
 10
0.525003
 20
17.0008
 30
0.000000
  70
    32
  0
VERTEX
  8
0
  5
1D7
 10
0.524972
 20
17.0007
 30
0.000000
  70
    32
  0
VERTEX
  8
0
  5
1D8
 10
0.524940
 20
17.0006
 30
0.000000
  70
    32
  0
VERTEX
  8
0
  5
1D9
 10
0.524908
 20
17.0005
 30
0.000000
  70
    32
  0
VERTEX
  8
0
  5
1DA
 10
0.524875
 20
17.0003
 30
0.000000
  70
    32
  0
VERTEX
  8
0
  5
1DB
 10
0.524841
 20
17.0002
 30
0.000000
  70
    32
  0
VERTEX
  8
0
  5
1DC
 10
0.524806
 20
17.0000
 30
0.000000
  70
    32
  0
VERTEX
  8
0
  5
1DD
 10
0.524771
 20
16.9998
 30
0.000000
  70
    32
  0
VERTEX
  8
0
  5
1DE
 10
0.524735
 20
16.9996
 30
0.000000
  70
    32
  0
VERTEX
  8
0
  5
1DF
 10
0.524698
 20
16.9994
 30
0.000000
  70
    32
  0
VERTEX
  8
0
  5
1E0
 10
0.524661
 20
16.9992
 30
0.000000
  70
    32
  0
VERTEX
  8
0
  5
1E1
 10
0.524624
 20
16.9989
 30
0.000000
  70
    32
  0
VERTEX
  8
0
  5
1E2
 10
0.524585
 20
16.9986
 30
0.000000
  70
    32
  0
VERTEX
  8
0
  5
1E3
 10
0.524547
 20
16.9984
 30
0.000000
  70
    32
  0
VERTEX
  8
0
  5
1E4
 10
0.524508
 20
16.9981
 30
0.000000
  70
    32
  0
VERTEX
  8
0
  5
1E5
 10
0.524468
 20
16.9977
 30
0.000000
  70
    32
  0
VERTEX
  8
0
  5
1E6
 10
0.524428
 20
16.9974
 30
0.000000
  70
    32
  0
VERTEX
  8
0
  5
1E7
 10
0.524388
 20
16.9970
 30
0.000000
  70
    32
  0
VERTEX
  8
0
  5
1E8
 10
0.524347
 20
16.9967
 30
0.000000
  70
    32
  0
VERTEX
  8
0
  5
1E9
 10
0.524306
 20
16.9963
 30
0.000000
  70
    32
  0
VERTEX
  8
0
  5
1EA
 10
0.524265
 20
16.9958
 30
0.000000
  70
    32
  0
VERTEX
  8
0
  5
1EB
 10
0.524223
 20
16.9954
 30
0.000000
  70
    32
  0
VERTEX
  8
0
  5
1EC
 10
0.524182
 20
16.9949
 30
0.000000
  70
    32
  0
VERTEX
  8
0
  5
1ED
 10
0.524140
 20
16.9944
 30
0.000000
  70
    32
  0
VERTEX
  8
0
  5
1EE
 10
0.524097
 20
16.9939
 30
0.000000
  70
    32
  0
VERTEX
  8
0
  5
1EF
 10
0.524055
 20
16.9934
 30
0.000000
  70
    32
  0
VERTEX
  8
0
  5
1F0
 10
0.524013
 20
16.9928
 30
0.000000
  70
    32
  0
VERTEX
  8
0
  5
1F1
 10
0.523970
 20
16.9922
 30
0.000000
  70
    32
  0
VERTEX
  8
0
  5
1F2
 10
0.523927
 20
16.9916
 30
0.000000
  70
    32
  0
VERTEX
  8
0
  5
1F3
 10
0.523885
 20
16.9910
 30
0.000000
  70
    32
  0
VERTEX
  8
0
  5
1F4
 10
0.523842
 20
16.9903
 30
0.000000
  70
    32
  0
VERTEX
  8
0
  5
1F5
 10
0.523799
 20
16.9896
 30
0.000000
  70
    32
  0
VERTEX
  8
0
  5
1F6
 10
0.523757
 20
16.9889
 30
0.000000
  70
    32
  0
VERTEX
  8
0
  5
1F7
 10
0.523714
 20
16.9881
 30
0.000000
  70
    32
  0
VERTEX
  8
0
  5
1F8
 10
0.523671
 20
16.9873
 30
0.000000
  70
    32
  0
VERTEX
  8
0
  5
1F9
 10
0.523629
 20
16.9865
 30
0.000000
  70
    32
  0
VERTEX
  8
0
  5
1FA
 10
0.523587
 20
16.9857
 30
0.000000
  70
    32
  0
VERTEX
  8
0
  5
1FB
 10
0.523545
 20
16.9848
 30
0.000000
  70
    32
  0
VERTEX
  8
0
  5
1FC
 10
0.523503
 20
16.9839
 30
0.000000
  70
    32
  0
VERTEX
  8
0
  5
1FD
 10
0.523461
 20
16.9830
 30
0.000000
  70
    32
  0
VERTEX
  8
0
  5
1FE
 10
0.523420
 20
16.9820
 30
0.000000
  70
    32
  0
VERTEX
  8
0
  5
1FF
 10
0.523379
 20
16.9810
 30
0.000000
  70
    32
  0
VERTEX
  8
0
  5
200
 10
0.523338
 20
16.9800
 30
0.000000
  70
    32
  0
VERTEX
  8
0
  5
201
 10
0.523297
 20
16.9789
 30
0.000000
  70
    32
  0
VERTEX
  8
0
  5
202
 10
0.523257
 20
16.9778
 30
0.000000
  70
    32
  0
VERTEX
  8
0
  5
203
 10
0.523217
 20
16.9767
 30
0.000000
  70
    32
  0
VERTEX
  8
0
  5
204
 10
0.523178
 20
16.9755
 30
0.000000
  70
    32
  0
VERTEX
  8
0
  5
205
 10
0.523139
 20
16.9743
 30
0.000000
  70
    32
  0
VERTEX
  8
0
  5
206
 10
0.523101
 20
16.9731
 30
0.000000
  70
    32
  0
VERTEX
  8
0
  5
207
 10
0.523063
 20
16.9718
 30
0.000000
  70
    32
  0
VERTEX
  8
0
  5
208
 10
0.523026
 20
16.9705
 30
0.000000
  70
    32
  0
VERTEX
  8
0
  5
209
 10
0.522989
 20
16.9691
 30
0.000000
  70
    32
  0
VERTEX
  8
0
  5
20A
 10
0.522952
 20
16.9677
 30
0.000000
  70
    32
  0
VERTEX
  8
0
  5
20B
 10
0.522917
 20
16.9663
 30
0.000000
  70
    32
  0
VERTEX
  8
0
  5
20C
 10
0.522882
 20
16.9648
 30
0.000000
  70
    32
  0
VERTEX
  8
0
  5
20D
 10
0.522848
 20
16.9633
 30
0.000000
  70
    32
  0
VERTEX
  8
0
  5
20E
 10
0.522814
 20
16.9617
 30
0.000000
  70
    32
  0
VERTEX
  8
0
  5
20F
 10
0.522781
 20
16.9601
 30
0.000000
  70
    32
  0
VERTEX
  8
0
  5
210
 10
0.522749
 20
16.9585
 30
0.000000
  70
    32
  0
VERTEX
  8
0
  5
211
 10
0.522718
 20
16.9568
 30
0.000000
  70
    32
  0
VERTEX
  8
0
  5
212
 10
0.522687
 20
16.9551
 30
0.000000
  70
    32
  0
VERTEX
  8
0
  5
213
 10
0.522657
 20
16.9533
 30
0.000000
  70
    32
  0
VERTEX
  8
0
  5
214
 10
0.522628
 20
16.9515
 30
0.000000
  70
    32
  0
VERTEX
  8
0
  5
215
 10
0.522600
 20
16.9497
 30
0.000000
  70
    32
  0
VERTEX
  8
0
  5
216
 10
0.522573
 20
16.9478
 30
0.000000
  70
    32
  0
VERTEX
  8
0
  5
217
 10
0.522547
 20
16.9458
 30
0.000000
  70
    32
  0
VERTEX
  8
0
  5
218
 10
0.522522
 20
16.9438
 30
0.000000
  70
    32
  0
VERTEX
  8
0
  5
219
 10
0.522498
 20
16.9418
 30
0.000000
  70
    32
  0
VERTEX
  8
0
  5
21A
 10
0.522475
 20
16.9397
 30
0.000000
  70
    32
  0
VERTEX
  8
0
  5
21B
 10
0.522453
 20
16.9375
 30
0.000000
  70
    32
  0
VERTEX
  8
0
  5
21C
 10
0.522432
 20
16.9354
 30
0.000000
  70
    32
  0
VERTEX
  8
0
  5
21D
 10
0.522412
 20
16.9331
 30
0.000000
  70
    32
  0
VERTEX
  8
0
  5
21E
 10
0.522393
 20
16.9308
 30
0.000000
  70
    32
  0
VERTEX
  8
0
  5
21F
 10
0.522375
 20
16.9285
 30
0.000000
  70
    32
  0
VERTEX
  8
0
  5
220
 10
0.522359
 20
16.9261
 30
0.000000
  70
    32
  0
VERTEX
  8
0
  5
221
 10
0.522344
 20
16.9237
 30
0.000000
  70
    32
  0
VERTEX
  8
0
  5
222
 10
0.522330
 20
16.9212
 30
0.000000
  70
    32
  0
VERTEX
  8
0
  5
223
 10
0.522317
 20
16.9186
 30
0.000000
  70
    32
  0
VERTEX
  8
0
  5
224
 10
0.522306
 20
16.9160
 30
0.000000
  70
    32
  0
VERTEX
  8
0
  5
225
 10
0.522296
 20
16.9134
 30
0.000000
  70
    32
  0
VERTEX
  8
0
  5
226
 10
0.522287
 20
16.9107
 30
0.000000
  70
    32
  0
VERTEX
  8
0
  5
227
 10
0.522280
 20
16.9079
 30
0.000000
  70
    32
  0
VERTEX
  8
0
  5
228
 10
0.522274
 20
16.9051
 30
0.000000
  70
    32
  0
VERTEX
  8
0
  5
229
 10
0.522269
 20
16.9023
 30
0.000000
  70
    32
  0
VERTEX
  8
0
  5
22A
 10
0.522266
 20
16.8993
 30
0.000000
  70
    32
  0
VERTEX
  8
0
  5
22B
 10
0.522265
 20
16.8963
 30
0.000000
  70
    32
  0
VERTEX
  8
0
  5
22C
 10
0.522275
 20
16.8933
 30
0.000000
  70
    32
  0
VERTEX
  8
0
  5
22D
 10
0.522363
 20
16.8903
 30
0.000000
  70
    32
  0
VERTEX
  8
0
  5
22E
 10
0.522539
 20
16.8872
 30
0.000000
  70
    32
  0
VERTEX
  8
0
  5
22F
 10
0.522808
 20
16.8841
 30
0.000000
  70
    32
  0
VERTEX
  8
0
  5
230
 10
0.523170
 20
16.8810
 30
0.000000
  70
    32
  0
VERTEX
  8
0
  5
231
 10
0.523629
 20
16.8778
 30
0.000000
  70
    32
  0
VERTEX
  8
0
  5
232
 10
0.524188
 20
16.8746
 30
0.000000
  70
    32
  0
VERTEX
  8
0
  5
233
 10
0.524847
 20
16.8714
 30
0.000000
  70
    32
  0
VERTEX
  8
0
  5
234
 10
0.525611
 20
16.8682
 30
0.000000
  70
    32
  0
VERTEX
  8
0
  5
235
 10
0.526480
 20
16.8649
 30
0.000000
  70
    32
  0
VERTEX
  8
0
  5
236
 10
0.527458
 20
16.8616
 30
0.000000
  70
    32
  0
VERTEX
  8
0
  5
237
 10
0.528548
 20
16.8583
 30
0.000000
  70
    32
  0
VERTEX
  8
0
  5
238
 10
0.529750
 20
16.8550
 30
0.000000
  70
    32
  0
VERTEX
  8
0
  5
239
 10
0.531068
 20
16.8517
 30
0.000000
  70
    32
  0
VERTEX
  8
0
  5
23A
 10
0.532505
 20
16.8483
 30
0.000000
  70
    32
  0
VERTEX
  8
0
  5
23B
 10
0.534062
 20
16.8449
 30
0.000000
  70
    32
  0
VERTEX
  8
0
  5
23C
 10
0.535742
 20
16.8414
 30
0.000000
  70
    32
  0
VERTEX
  8
0
  5
23D
 10
0.537547
 20
16.8380
 30
0.000000
  70
    32
  0
VERTEX
  8
0
  5
23E
 10
0.539480
 20
16.8345
 30
0.000000
  70
    32
  0
VERTEX
  8
0
  5
23F
 10
0.541544
 20
16.8310
 30
0.000000
  70
    32
  0
VERTEX
  8
0
  5
240
 10
0.543739
 20
16.8275
 30
0.000000
  70
    32
  0
VERTEX
  8
0
  5
241
 10
0.546070
 20
16.8240
 30
0.000000
  70
    32
  0
VERTEX
  8
0
  5
242
 10
0.548538
 20
16.8204
 30
0.000000
  70
    32
  0
VERTEX
  8
0
  5
243
 10
0.551146
 20
16.8169
 30
0.000000
  70
    32
  0
VERTEX
  8
0
  5
244
 10
0.553896
 20
16.8133
 30
0.000000
  70
    32
  0
VERTEX
  8
0
  5
245
 10
0.556790
 20
16.8097
 30
0.000000
  70
    32
  0
VERTEX
  8
0
  5
246
 10
0.559832
 20
16.8060
 30
0.000000
  70
    32
  0
VERTEX
  8
0
  5
247
 10
0.563022
 20
16.8024
 30
0.000000
  70
    32
  0
VERTEX
  8
0
  5
248
 10
0.566364
 20
16.7987
 30
0.000000
  70
    32
  0
VERTEX
  8
0
  5
249
 10
0.569861
 20
16.7950
 30
0.000000
  70
    32
  0
VERTEX
  8
0
  5
24A
 10
0.573514
 20
16.7913
 30
0.000000
  70
    32
  0
VERTEX
  8
0
  5
24B
 10
0.577325
 20
16.7876
 30
0.000000
  70
    32
  0
VERTEX
  8
0
  5
24C
 10
0.581298
 20
16.7839
 30
0.000000
  70
    32
  0
VERTEX
  8
0
  5
24D
 10
0.585435
 20
16.7801
 30
0.000000
  70
    32
  0
VERTEX
  8
0
  5
24E
 10
0.589738
 20
16.7764
 30
0.000000
  70
    32
  0
VERTEX
  8
0
  5
24F
 10
0.594209
 20
16.7726
 30
0.000000
  70
    32
  0
VERTEX
  8
0
  5
250
 10
0.598851
 20
16.7688
 30
0.000000
  70
    32
  0
VERTEX
  8
0
  5
251
 10
0.603667
 20
16.7650
 30
0.000000
  70
    32
  0
VERTEX
  8
0
  5
252
 10
0.608658
 20
16.7612
 30
0.000000
  70
    32
  0
VERTEX
  8
0
  5
253
 10
0.613827
 20
16.7573
 30
0.000000
  70
    32
  0
VERTEX
  8
0
  5
254
 10
0.619176
 20
16.7535
 30
0.000000
  70
    32
  0
VERTEX
  8
0
  5
255
 10
0.624708
 20
16.7496
 30
0.000000
  70
    32
  0
VERTEX
  8
0
  5
256
 10
0.630426
 20
16.7457
 30
0.000000
  70
    32
  0
VERTEX
  8
0
  5
257
 10
0.636331
 20
16.7418
 30
0.000000
  70
    32
  0
VERTEX
  8
0
  5
258
 10
0.642426
 20
16.7379
 30
0.000000
  70
    32
  0
VERTEX
  8
0
  5
259
 10
0.648714
 20
16.7340
 30
0.000000
  70
    32
  0
VERTEX
  8
0
  5
25A
 10
0.655196
 20
16.7301
 30
0.000000
  70
    32
  0
VERTEX
  8
0
  5
25B
 10
0.661876
 20
16.7261
 30
0.000000
  70
    32
  0
VERTEX
  8
0
  5
25C
 10
0.668755
 20
16.7222
 30
0.000000
  70
    32
  0
VERTEX
  8
0
  5
25D
 10
0.675836
 20
16.7182
 30
0.000000
  70
    32
  0
VERTEX
  8
0
  5
25E
 10
0.683121
 20
16.7142
 30
0.000000
  70
    32
  0
VERTEX
  8
0
  5
25F
 10
0.690614
 20
16.7103
 30
0.000000
  70
    32
  0
VERTEX
  8
0
  5
260
 10
0.698315
 20
16.7063
 30
0.000000
  70
    32
  0
VERTEX
  8
0
  5
261
 10
0.706228
 20
16.7023
 30
0.000000
  70
    32
  0
VERTEX
  8
0
  5
262
 10
0.714355
 20
16.6983
 30
0.000000
  70
    32
  0
VERTEX
  8
0
  5
263
 10
0.722699
 20
16.6943
 30
0.000000
  70
    32
  0
VERTEX
  8
0
  5
264
 10
0.731261
 20
16.6902
 30
0.000000
  70
    32
  0
VERTEX
  8
0
  5
265
 10
0.740044
 20
16.6862
 30
0.000000
  70
    32
  0
VERTEX
  8
0
  5
266
 10
0.749051
 20
16.6822
 30
0.000000
  70
    32
  0
VERTEX
  8
0
  5
267
 10
0.758284
 20
16.6781
 30
0.000000
  70
    32
  0
VERTEX
  8
0
  5
268
 10
0.767745
 20
16.6741
 30
0.000000
  70
    32
  0
VERTEX
  8
0
  5
269
 10
0.777437
 20
16.6700
 30
0.000000
  70
    32
  0
VERTEX
  8
0
  5
26A
 10
0.787362
 20
16.6660
 30
0.000000
  70
    32
  0
VERTEX
  8
0
  5
26B
 10
0.797522
 20
16.6619
 30
0.000000
  70
    32
  0
VERTEX
  8
0
  5
26C
 10
0.807921
 20
16.6578
 30
0.000000
  70
    32
  0
VERTEX
  8
0
  5
26D
 10
0.818559
 20
16.6537
 30
0.000000
  70
    32
  0
VERTEX
  8
0
  5
26E
 10
0.829441
 20
16.6497
 30
0.000000
  70
    32
  0
VERTEX
  8
0
  5
26F
 10
0.840567
 20
16.6456
 30
0.000000
  70
    32
  0
VERTEX
  8
0
  5
270
 10
0.851941
 20
16.6415
 30
0.000000
  70
    32
  0
VERTEX
  8
0
  5
271
 10
0.863565
 20
16.6374
 30
0.000000
  70
    32
  0
VERTEX
  8
0
  5
272
 10
0.875442
 20
16.6333
 30
0.000000
  70
    32
  0
VERTEX
  8
0
  5
273
 10
0.887572
 20
16.6292
 30
0.000000
  70
    32
  0
VERTEX
  8
0
  5
274
 10
0.899960
 20
16.6251
 30
0.000000
  70
    32
  0
VERTEX
  8
0
  5
275
 10
0.912608
 20
16.6210
 30
0.000000
  70
    32
  0
VERTEX
  8
0
  5
276
 10
0.925517
 20
16.6169
 30
0.000000
  70
    32
  0
VERTEX
  8
0
  5
277
 10
0.938691
 20
16.6128
 30
0.000000
  70
    32
  0
VERTEX
  8
0
  5
278
 10
0.952131
 20
16.6087
 30
0.000000
  70
    32
  0
VERTEX
  8
0
  5
279
 10
0.965840
 20
16.6046
 30
0.000000
  70
    32
  0
VERTEX
  8
0
  5
27A
 10
0.979821
 20
16.6005
 30
0.000000
  70
    32
  0
VERTEX
  8
0
  5
27B
 10
0.994075
 20
16.5964
 30
0.000000
  70
    32
  0
VERTEX
  8
0
  5
27C
 10
1.00861
 20
16.5923
 30
0.000000
  70
    32
  0
VERTEX
  8
0
  5
27D
 10
1.02342
 20
16.5882
 30
0.000000
  70
    32
  0
VERTEX
  8
0
  5
27E
 10
1.03851
 20
16.5841
 30
0.000000
  70
    32
  0
VERTEX
  8
0
  5
27F
 10
1.05388
 20
16.5800
 30
0.000000
  70
    32
  0
VERTEX
  8
0
  5
280
 10
1.06954
 20
16.5759
 30
0.000000
  70
    32
  0
VERTEX
  8
0
  5
281
 10
1.08549
 20
16.5719
 30
0.000000
  70
    32
  0
VERTEX
  8
0
  5
282
 10
1.10173
 20
16.5678
 30
0.000000
  70
    32
  0
VERTEX
  8
0
  5
283
 10
1.11826
 20
16.5637
 30
0.000000
  70
    32
  0
VERTEX
  8
0
  5
284
 10
1.13508
 20
16.5596
 30
0.000000
  70
    32
  0
VERTEX
  8
0
  5
285
 10
1.15221
 20
16.5555
 30
0.000000
  70
    32
  0
VERTEX
  8
0
  5
286
 10
1.16963
 20
16.5515
 30
0.000000
  70
    32
  0
VERTEX
  8
0
  5
287
 10
1.18736
 20
16.5474
 30
0.000000
  70
    32
  0
VERTEX
  8
0
  5
288
 10
1.20539
 20
16.5434
 30
0.000000
  70
    32
  0
VERTEX
  8
0
  5
289
 10
1.22373
 20
16.5393
 30
0.000000
  70
    32
  0
VERTEX
  8
0
  5
28A
 10
1.24238
 20
16.5353
 30
0.000000
  70
    32
  0
VERTEX
  8
0
  5
28B
 10
1.26134
 20
16.5312
 30
0.000000
  70
    32
  0
VERTEX
  8
0
  5
28C
 10
1.28062
 20
16.5272
 30
0.000000
  70
    32
  0
VERTEX
  8
0
  5
28D
 10
1.30021
 20
16.5232
 30
0.000000
  70
    32
  0
VERTEX
  8
0
  5
28E
 10
1.32013
 20
16.5192
 30
0.000000
  70
    32
  0
VERTEX
  8
0
  5
28F
 10
1.34036
 20
16.5152
 30
0.000000
  70
    32
  0
VERTEX
  8
0
  5
290
 10
1.36092
 20
16.5112
 30
0.000000
  70
    32
  0
VERTEX
  8
0
  5
291
 10
1.38180
 20
16.5072
 30
0.000000
  70
    32
  0
VERTEX
  8
0
  5
292
 10
1.40302
 20
16.5032
 30
0.000000
  70
    32
  0
VERTEX
  8
0
  5
293
 10
1.42456
 20
16.4992
 30
0.000000
  70
    32
  0
VERTEX
  8
0
  5
294
 10
1.44644
 20
16.4953
 30
0.000000
  70
    32
  0
VERTEX
  8
0
  5
295
 10
1.46866
 20
16.4913
 30
0.000000
  70
    32
  0
VERTEX
  8
0
  5
296
 10
1.49121
 20
16.4874
 30
0.000000
  70
    32
  0
VERTEX
  8
0
  5
297
 10
1.51411
 20
16.4834
 30
0.000000
  70
    32
  0
VERTEX
  8
0
  5
298
 10
1.53734
 20
16.4795
 30
0.000000
  70
    32
  0
VERTEX
  8
0
  5
299
 10
1.56093
 20
16.4756
 30
0.000000
  70
    32
  0
VERTEX
  8
0
  5
29A
 10
1.58486
 20
16.4717
 30
0.000000
  70
    32
  0
VERTEX
  8
0
  5
29B
 10
1.60914
 20
16.4678
 30
0.000000
  70
    32
  0
SEQEND
  8
0
  5
29C
  0
ATTDEF
  5
44
  8
0
  6
CONTINUOUS
 62
     6
 10
0.0
 20
0.0
 30
0.0
 40
0.003
  1
K-3589
  3

  2
MODELNUMBER
 70
     2
  0
ATTDEF
  5
45
  8
0
  6
CONTINUOUS
 62
     6
 10
0.0
 20
-0.005
 30
0.0
 40
0.003
  1
CIMARRON
  3

  2
TRADENAME
 70
     2
  0
ATTDEF
  5
46
  8
0
  6
CONTINUOUS
 62
     6
 10
0.0
 20
-0.01
 30
0.0
 40
0.003
  1
TOILETS
  3

  2
PRODUCT
 70
     2
  0
ATTDEF
  5
47
  8
0
  6
CONTINUOUS
 62
     6
 10
0.0
 20
-0.015
 30
0.0
 40
0.003
  1
VITREOUS CHINA
  3

  2
MATERIAL
 70
     2
  0
LINE
  5
48
  8
0
  6
CONTINUOUS
 10
8.2160902649282335
 20
17.383875673120631
 30
0.0
 11
0.3014325104411416
 21
17.383875673120631
 31
0.0
  0
LINE
  5
49
  8
0
  6
CONTINUOUS
 10
0.1703259540232383
 20
28.734586611210428
 30
0.0
 11
0.1703259540232383
 21
17.53637389575043
 31
0.0
  0
LINE
  5
4A
  8
0
  6
CONTINUOUS
 10
8.2160902649282335
 20
17.383875673120631
 30
0.0
 11
8.3666449687440192
 21
17.53637389575043
 31
0.0
  0
LINE
  5
4B
  8
0
  6
CONTINUOUS
 10
0.3014325104411416
 20
17.383875673120631
 30
0.0
 11
0.1703259540232383
 21
17.53637389575043
 31
0.0
  0
POLYLINE
  8
0
  5
29D
  66
     1
 10
0.000000
 20
0.000000
 30
0.000000
  70
     8
  0
VERTEX
  8
0
  5
29E
 10
9.38418
 20
28.9616
 30
0.000000
  70
    32
  0
VERTEX
  8
0
  5
29F
 10
9.38414
 20
28.9563
 30
0.000000
  70
    32
  0
VERTEX
  8
0
  5
2A0
 10
9.38403
 20
28.9510
 30
0.000000
  70
    32
  0
VERTEX
  8
0
  5
2A1
 10
9.38383
 20
28.9457
 30
0.000000
  70
    32
  0
VERTEX
  8
0
  5
2A2
 10
9.38357
 20
28.9406
 30
0.000000
  70
    32
  0
VERTEX
  8
0
  5
2A3
 10
9.38323
 20
28.9355
 30
0.000000
  70
    32
  0
VERTEX
  8
0
  5
2A4
 10
9.38281
 20
28.9305
 30
0.000000
  70
    32
  0
VERTEX
  8
0
  5
2A5
 10
9.38232
 20
28.9256
 30
0.000000
  70
    32
  0
VERTEX
  8
0
  5
2A6
 10
9.38176
 20
28.9207
 30
0.000000
  70
    32
  0
VERTEX
  8
0
  5
2A7
 10
9.38112
 20
28.9159
 30
0.000000
  70
    32
  0
VERTEX
  8
0
  5
2A8
 10
9.38041
 20
28.9112
 30
0.000000
  70
    32
  0
VERTEX
  8
0
  5
2A9
 10
9.37963
 20
28.9066
 30
0.000000
  70
    32
  0
VERTEX
  8
0
  5
2AA
 10
9.37877
 20
28.9020
 30
0.000000
  70
    32
  0
VERTEX
  8
0
  5
2AB
 10
9.37785
 20
28.8975
 30
0.000000
  70
    32
  0
VERTEX
  8
0
  5
2AC
 10
9.37685
 20
28.8930
 30
0.000000
  70
    32
  0
VERTEX
  8
0
  5
2AD
 10
9.37579
 20
28.8887
 30
0.000000
  70
    32
  0
VERTEX
  8
0
  5
2AE
 10
9.37465
 20
28.8843
 30
0.000000
  70
    32
  0
VERTEX
  8
0
  5
2AF
 10
9.37344
 20
28.8801
 30
0.000000
  70
    32
  0
VERTEX
  8
0
  5
2B0
 10
9.37217
 20
28.8759
 30
0.000000
  70
    32
  0
VERTEX
  8
0
  5
2B1
 10
9.37082
 20
28.8718
 30
0.000000
  70
    32
  0
VERTEX
  8
0
  5
2B2
 10
9.36941
 20
28.8678
 30
0.000000
  70
    32
  0
VERTEX
  8
0
  5
2B3
 10
9.36793
 20
28.8638
 30
0.000000
  70
    32
  0
VERTEX
  8
0
  5
2B4
 10
9.36639
 20
28.8599
 30
0.000000
  70
    32
  0
VERTEX
  8
0
  5
2B5
 10
9.36477
 20
28.8560
 30
0.000000
  70
    32
  0
VERTEX
  8
0
  5
2B6
 10
9.36309
 20
28.8522
 30
0.000000
  70
    32
  0
VERTEX
  8
0
  5
2B7
 10
9.36135
 20
28.8485
 30
0.000000
  70
    32
  0
VERTEX
  8
0
  5
2B8
 10
9.35954
 20
28.8448
 30
0.000000
  70
    32
  0
VERTEX
  8
0
  5
2B9
 10
9.35766
 20
28.8412
 30
0.000000
  70
    32
  0
VERTEX
  8
0
  5
2BA
 10
9.35572
 20
28.8377
 30
0.000000
  70
    32
  0
VERTEX
  8
0
  5
2BB
 10
9.35372
 20
28.8342
 30
0.000000
  70
    32
  0
VERTEX
  8
0
  5
2BC
 10
9.35165
 20
28.8308
 30
0.000000
  70
    32
  0
VERTEX
  8
0
  5
2BD
 10
9.34952
 20
28.8274
 30
0.000000
  70
    32
  0
VERTEX
  8
0
  5
2BE
 10
9.34733
 20
28.8241
 30
0.000000
  70
    32
  0
VERTEX
  8
0
  5
2BF
 10
9.34507
 20
28.8209
 30
0.000000
  70
    32
  0
VERTEX
  8
0
  5
2C0
 10
9.34276
 20
28.8177
 30
0.000000
  70
    32
  0
VERTEX
  8
0
  5
2C1
 10
9.34038
 20
28.8146
 30
0.000000
  70
    32
  0
VERTEX
  8
0
  5
2C2
 10
9.33794
 20
28.8115
 30
0.000000
  70
    32
  0
VERTEX
  8
0
  5
2C3
 10
9.33544
 20
28.8085
 30
0.000000
  70
    32
  0
VERTEX
  8
0
  5
2C4
 10
9.33288
 20
28.8055
 30
0.000000
  70
    32
  0
VERTEX
  8
0
  5
2C5
 10
9.33027
 20
28.8026
 30
0.000000
  70
    32
  0
VERTEX
  8
0
  5
2C6
 10
9.32759
 20
28.7997
 30
0.000000
  70
    32
  0
VERTEX
  8
0
  5
2C7
 10
9.32485
 20
28.7970
 30
0.000000
  70
    32
  0
VERTEX
  8
0
  5
2C8
 10
9.32206
 20
28.7942
 30
0.000000
  70
    32
  0
VERTEX
  8
0
  5
2C9
 10
9.31921
 20
28.7915
 30
0.000000
  70
    32
  0
VERTEX
  8
0
  5
2CA
 10
9.31630
 20
28.7889
 30
0.000000
  70
    32
  0
VERTEX
  8
0
  5
2CB
 10
9.31334
 20
28.7863
 30
0.000000
  70
    32
  0
VERTEX
  8
0
  5
2CC
 10
9.31032
 20
28.7838
 30
0.000000
  70
    32
  0
VERTEX
  8
0
  5
2CD
 10
9.30725
 20
28.7813
 30
0.000000
  70
    32
  0
VERTEX
  8
0
  5
2CE
 10
9.30412
 20
28.7789
 30
0.000000
  70
    32
  0
VERTEX
  8
0
  5
2CF
 10
9.30093
 20
28.7765
 30
0.000000
  70
    32
  0
VERTEX
  8
0
  5
2D0
 10
9.29769
 20
28.7742
 30
0.000000
  70
    32
  0
VERTEX
  8
0
  5
2D1
 10
9.29440
 20
28.7719
 30
0.000000
  70
    32
  0
VERTEX
  8
0
  5
2D2
 10
9.29105
 20
28.7696
 30
0.000000
  70
    32
  0
VERTEX
  8
0
  5
2D3
 10
9.28765
 20
28.7675
 30
0.000000
  70
    32
  0
VERTEX
  8
0
  5
2D4
 10
9.28420
 20
28.7653
 30
0.000000
  70
    32
  0
VERTEX
  8
0
  5
2D5
 10
9.28070
 20
28.7632
 30
0.000000
  70
    32
  0
VERTEX
  8
0
  5
2D6
 10
9.27714
 20
28.7612
 30
0.000000
  70
    32
  0
VERTEX
  8
0
  5
2D7
 10
9.27354
 20
28.7592
 30
0.000000
  70
    32
  0
VERTEX
  8
0
  5
2D8
 10
9.26988
 20
28.7573
 30
0.000000
  70
    32
  0
VERTEX
  8
0
  5
2D9
 10
9.26618
 20
28.7554
 30
0.000000
  70
    32
  0
VERTEX
  8
0
  5
2DA
 10
9.26242
 20
28.7535
 30
0.000000
  70
    32
  0
VERTEX
  8
0
  5
2DB
 10
9.25862
 20
28.7517
 30
0.000000
  70
    32
  0
VERTEX
  8
0
  5
2DC
 10
9.25476
 20
28.7499
 30
0.000000
  70
    32
  0
VERTEX
  8
0
  5
2DD
 10
9.25086
 20
28.7482
 30
0.000000
  70
    32
  0
VERTEX
  8
0
  5
2DE
 10
9.24691
 20
28.7465
 30
0.000000
  70
    32
  0
VERTEX
  8
0
  5
2DF
 10
9.24292
 20
28.7449
 30
0.000000
  70
    32
  0
VERTEX
  8
0
  5
2E0
 10
9.23887
 20
28.7433
 30
0.000000
  70
    32
  0
VERTEX
  8
0
  5
2E1
 10
9.23478
 20
28.7417
 30
0.000000
  70
    32
  0
VERTEX
  8
0
  5
2E2
 10
9.23065
 20
28.7402
 30
0.000000
  70
    32
  0
VERTEX
  8
0
  5
2E3
 10
9.22647
 20
28.7387
 30
0.000000
  70
    32
  0
VERTEX
  8
0
  5
2E4
 10
9.22224
 20
28.7373
 30
0.000000
  70
    32
  0
VERTEX
  8
0
  5
2E5
 10
9.21797
 20
28.7359
 30
0.000000
  70
    32
  0
VERTEX
  8
0
  5
2E6
 10
9.21366
 20
28.7345
 30
0.000000
  70
    32
  0
VERTEX
  8
0
  5
2E7
 10
9.20930
 20
28.7332
 30
0.000000
  70
    32
  0
VERTEX
  8
0
  5
2E8
 10
9.20490
 20
28.7319
 30
0.000000
  70
    32
  0
VERTEX
  8
0
  5
2E9
 10
9.20046
 20
28.7307
 30
0.000000
  70
    32
  0
VERTEX
  8
0
  5
2EA
 10
9.19597
 20
28.7295
 30
0.000000
  70
    32
  0
VERTEX
  8
0
  5
2EB
 10
9.19145
 20
28.7283
 30
0.000000
  70
    32
  0
VERTEX
  8
0
  5
2EC
 10
9.18688
 20
28.7272
 30
0.000000
  70
    32
  0
VERTEX
  8
0
  5
2ED
 10
9.18227
 20
28.7261
 30
0.000000
  70
    32
  0
VERTEX
  8
0
  5
2EE
 10
9.17762
 20
28.7250
 30
0.000000
  70
    32
  0
VERTEX
  8
0
  5
2EF
 10
9.17293
 20
28.7240
 30
0.000000
  70
    32
  0
VERTEX
  8
0
  5
2F0
 10
9.16820
 20
28.7230
 30
0.000000
  70
    32
  0
VERTEX
  8
0
  5
2F1
 10
9.16344
 20
28.7220
 30
0.000000
  70
    32
  0
VERTEX
  8
0
  5
2F2
 10
9.15863
 20
28.7211
 30
0.000000
  70
    32
  0
VERTEX
  8
0
  5
2F3
 10
9.15379
 20
28.7202
 30
0.000000
  70
    32
  0
VERTEX
  8
0
  5
2F4
 10
9.14891
 20
28.7193
 30
0.000000
  70
    32
  0
VERTEX
  8
0
  5
2F5
 10
9.14399
 20
28.7185
 30
0.000000
  70
    32
  0
VERTEX
  8
0
  5
2F6
 10
9.13904
 20
28.7177
 30
0.000000
  70
    32
  0
VERTEX
  8
0
  5
2F7
 10
9.13405
 20
28.7169
 30
0.000000
  70
    32
  0
VERTEX
  8
0
  5
2F8
 10
9.12902
 20
28.7161
 30
0.000000
  70
    32
  0
VERTEX
  8
0
  5
2F9
 10
9.12396
 20
28.7154
 30
0.000000
  70
    32
  0
VERTEX
  8
0
  5
2FA
 10
9.11886
 20
28.7147
 30
0.000000
  70
    32
  0
VERTEX
  8
0
  5
2FB
 10
9.11373
 20
28.7141
 30
0.000000
  70
    32
  0
VERTEX
  8
0
  5
2FC
 10
9.10857
 20
28.7134
 30
0.000000
  70
    32
  0
VERTEX
  8
0
  5
2FD
 10
9.10337
 20
28.7128
 30
0.000000
  70
    32
  0
VERTEX
  8
0
  5
2FE
 10
9.09814
 20
28.7122
 30
0.000000
  70
    32
  0
VERTEX
  8
0
  5
2FF
 10
9.09288
 20
28.7117
 30
0.000000
  70
    32
  0
VERTEX
  8
0
  5
300
 10
9.08758
 20
28.7112
 30
0.000000
  70
    32
  0
VERTEX
  8
0
  5
301
 10
9.08226
 20
28.7107
 30
0.000000
  70
    32
  0
VERTEX
  8
0
  5
302
 10
9.07690
 20
28.7102
 30
0.000000
  70
    32
  0
VERTEX
  8
0
  5
303
 10
9.07151
 20
28.7097
 30
0.000000
  70
    32
  0
VERTEX
  8
0
  5
304
 10
9.06610
 20
28.7093
 30
0.000000
  70
    32
  0
VERTEX
  8
0
  5
305
 10
9.06065
 20
28.7089
 30
0.000000
  70
    32
  0
VERTEX
  8
0
  5
306
 10
9.05517
 20
28.7085
 30
0.000000
  70
    32
  0
VERTEX
  8
0
  5
307
 10
9.04967
 20
28.7081
 30
0.000000
  70
    32
  0
VERTEX
  8
0
  5
308
 10
9.04414
 20
28.7078
 30
0.000000
  70
    32
  0
VERTEX
  8
0
  5
309
 10
9.03858
 20
28.7075
 30
0.000000
  70
    32
  0
VERTEX
  8
0
  5
30A
 10
9.03299
 20
28.7072
 30
0.000000
  70
    32
  0
VERTEX
  8
0
  5
30B
 10
9.02737
 20
28.7069
 30
0.000000
  70
    32
  0
VERTEX
  8
0
  5
30C
 10
9.02173
 20
28.7066
 30
0.000000
  70
    32
  0
VERTEX
  8
0
  5
30D
 10
9.01607
 20
28.7064
 30
0.000000
  70
    32
  0
VERTEX
  8
0
  5
30E
 10
9.01037
 20
28.7062
 30
0.000000
  70
    32
  0
VERTEX
  8
0
  5
30F
 10
9.00466
 20
28.7060
 30
0.000000
  70
    32
  0
VERTEX
  8
0
  5
310
 10
8.99892
 20
28.7058
 30
0.000000
  70
    32
  0
VERTEX
  8
0
  5
311
 10
8.99315
 20
28.7056
 30
0.000000
  70
    32
  0
VERTEX
  8
0
  5
312
 10
8.98736
 20
28.7055
 30
0.000000
  70
    32
  0
VERTEX
  8
0
  5
313
 10
8.98155
 20
28.7053
 30
0.000000
  70
    32
  0
VERTEX
  8
0
  5
314
 10
8.97571
 20
28.7052
 30
0.000000
  70
    32
  0
VERTEX
  8
0
  5
315
 10
8.96986
 20
28.7051
 30
0.000000
  70
    32
  0
VERTEX
  8
0
  5
316
 10
8.96398
 20
28.7050
 30
0.000000
  70
    32
  0
VERTEX
  8
0
  5
317
 10
8.95808
 20
28.7049
 30
0.000000
  70
    32
  0
VERTEX
  8
0
  5
318
 10
8.95216
 20
28.7049
 30
0.000000
  70
    32
  0
VERTEX
  8
0
  5
319
 10
8.94622
 20
28.7048
 30
0.000000
  70
    32
  0
VERTEX
  8
0
  5
31A
 10
8.94025
 20
28.7048
 30
0.000000
  70
    32
  0
VERTEX
  8
0
  5
31B
 10
8.93427
 20
28.7047
 30
0.000000
  70
    32
  0
VERTEX
  8
0
  5
31C
 10
8.92827
 20
28.7047
 30
0.000000
  70
    32
  0
VERTEX
  8
0
  5
31D
 10
8.92226
 20
28.7047
 30
0.000000
  70
    32
  0
SEQEND
  8
0
  5
31E
  0
POLYLINE
  8
0
  5
31F
  66
     1
 10
0.000000
 20
0.000000
 30
0.000000
  70
     8
  0
VERTEX
  8
0
  5
320
 10
8.92226
 20
28.7047
 30
0.000000
  70
    32
  0
VERTEX
  8
0
  5
321
 10
8.92069
 20
28.7047
 30
0.000000
  70
    32
  0
VERTEX
  8
0
  5
322
 10
8.91603
 20
28.7047
 30
0.000000
  70
    32
  0
VERTEX
  8
0
  5
323
 10
8.90832
 20
28.7047
 30
0.000000
  70
    32
  0
VERTEX
  8
0
  5
324
 10
8.89761
 20
28.7047
 30
0.000000
  70
    32
  0
VERTEX
  8
0
  5
325
 10
8.88395
 20
28.7047
 30
0.000000
  70
    32
  0
VERTEX
  8
0
  5
326
 10
8.86739
 20
28.7047
 30
0.000000
  70
    32
  0
VERTEX
  8
0
  5
327
 10
8.84798
 20
28.7047
 30
0.000000
  70
    32
  0
VERTEX
  8
0
  5
328
 10
8.82577
 20
28.7047
 30
0.000000
  70
    32
  0
VERTEX
  8
0
  5
329
 10
8.80081
 20
28.7047
 30
0.000000
  70
    32
  0
VERTEX
  8
0
  5
32A
 10
8.77315
 20
28.7047
 30
0.000000
  70
    32
  0
VERTEX
  8
0
  5
32B
 10
8.74284
 20
28.7047
 30
0.000000
  70
    32
  0
VERTEX
  8
0
  5
32C
 10
8.70992
 20
28.7047
 30
0.000000
  70
    32
  0
VERTEX
  8
0
  5
32D
 10
8.67446
 20
28.7047
 30
0.000000
  70
    32
  0
VERTEX
  8
0
  5
32E
 10
8.63649
 20
28.7047
 30
0.000000
  70
    32
  0
VERTEX
  8
0
  5
32F
 10
8.59606
 20
28.7047
 30
0.000000
  70
    32
  0
VERTEX
  8
0
  5
330
 10
8.55324
 20
28.7047
 30
0.000000
  70
    32
  0
VERTEX
  8
0
  5
331
 10
8.50805
 20
28.7047
 30
0.000000
  70
    32
  0
VERTEX
  8
0
  5
332
 10
8.46057
 20
28.7047
 30
0.000000
  70
    32
  0
VERTEX
  8
0
  5
333
 10
8.41083
 20
28.7047
 30
0.000000
  70
    32
  0
VERTEX
  8
0
  5
334
 10
8.35888
 20
28.7047
 30
0.000000
  70
    32
  0
VERTEX
  8
0
  5
335
 10
8.30478
 20
28.7047
 30
0.000000
  70
    32
  0
VERTEX
  8
0
  5
336
 10
8.24857
 20
28.7047
 30
0.000000
  70
    32
  0
VERTEX
  8
0
  5
337
 10
8.19030
 20
28.7047
 30
0.000000
  70
    32
  0
VERTEX
  8
0
  5
338
 10
8.13003
 20
28.7047
 30
0.000000
  70
    32
  0
VERTEX
  8
0
  5
339
 10
8.06779
 20
28.7047
 30
0.000000
  70
    32
  0
VERTEX
  8
0
  5
33A
 10
8.00365
 20
28.7047
 30
0.000000
  70
    32
  0
VERTEX
  8
0
  5
33B
 10
7.93765
 20
28.7047
 30
0.000000
  70
    32
  0
VERTEX
  8
0
  5
33C
 10
7.86985
 20
28.7047
 30
0.000000
  70
    32
  0
VERTEX
  8
0
  5
33D
 10
7.80028
 20
28.7047
 30
0.000000
  70
    32
  0
VERTEX
  8
0
  5
33E
 10
7.72900
 20
28.7047
 30
0.000000
  70
    32
  0
VERTEX
  8
0
  5
33F
 10
7.65607
 20
28.7047
 30
0.000000
  70
    32
  0
VERTEX
  8
0
  5
340
 10
7.58152
 20
28.7047
 30
0.000000
  70
    32
  0
VERTEX
  8
0
  5
341
 10
7.50541
 20
28.7047
 30
0.000000
  70
    32
  0
VERTEX
  8
0
  5
342
 10
7.42779
 20
28.7047
 30
0.000000
  70
    32
  0
VERTEX
  8
0
  5
343
 10
7.34870
 20
28.7047
 30
0.000000
  70
    32
  0
VERTEX
  8
0
  5
344
 10
7.26821
 20
28.7047
 30
0.000000
  70
    32
  0
VERTEX
  8
0
  5
345
 10
7.18635
 20
28.7047
 30
0.000000
  70
    32
  0
VERTEX
  8
0
  5
346
 10
7.10317
 20
28.7047
 30
0.000000
  70
    32
  0
VERTEX
  8
0
  5
347
 10
7.01874
 20
28.7047
 30
0.000000
  70
    32
  0
VERTEX
  8
0
  5
348
 10
6.93309
 20
28.7047
 30
0.000000
  70
    32
  0
VERTEX
  8
0
  5
349
 10
6.84627
 20
28.7047
 30
0.000000
  70
    32
  0
VERTEX
  8
0
  5
34A
 10
6.75834
 20
28.7047
 30
0.000000
  70
    32
  0
VERTEX
  8
0
  5
34B
 10
6.66934
 20
28.7047
 30
0.000000
  70
    32
  0
VERTEX
  8
0
  5
34C
 10
6.57933
 20
28.7047
 30
0.000000
  70
    32
  0
VERTEX
  8
0
  5
34D
 10
6.48835
 20
28.7047
 30
0.000000
  70
    32
  0
VERTEX
  8
0
  5
34E
 10
6.39646
 20
28.7047
 30
0.000000
  70
    32
  0
VERTEX
  8
0
  5
34F
 10
6.30369
 20
28.7047
 30
0.000000
  70
    32
  0
VERTEX
  8
0
  5
350
 10
6.21011
 20
28.7047
 30
0.000000
  70
    32
  0
VERTEX
  8
0
  5
351
 10
6.11576
 20
28.7047
 30
0.000000
  70
    32
  0
VERTEX
  8
0
  5
352
 10
6.02070
 20
28.7047
 30
0.000000
  70
    32
  0
VERTEX
  8
0
  5
353
 10
5.92496
 20
28.7047
 30
0.000000
  70
    32
  0
VERTEX
  8
0
  5
354
 10
5.82860
 20
28.7047
 30
0.000000
  70
    32
  0
VERTEX
  8
0
  5
355
 10
5.73168
 20
28.7047
 30
0.000000
  70
    32
  0
VERTEX
  8
0
  5
356
 10
5.63423
 20
28.7047
 30
0.000000
  70
    32
  0
VERTEX
  8
0
  5
357
 10
5.53631
 20
28.7047
 30
0.000000
  70
    32
  0
VERTEX
  8
0
  5
358
 10
5.43797
 20
28.7047
 30
0.000000
  70
    32
  0
VERTEX
  8
0
  5
359
 10
5.33926
 20
28.7047
 30
0.000000
  70
    32
  0
VERTEX
  8
0
  5
35A
 10
5.24023
 20
28.7047
 30
0.000000
  70
    32
  0
VERTEX
  8
0
  5
35B
 10
5.14092
 20
28.7047
 30
0.000000
  70
    32
  0
VERTEX
  8
0
  5
35C
 10
5.04139
 20
28.7047
 30
0.000000
  70
    32
  0
VERTEX
  8
0
  5
35D
 10
4.94169
 20
28.7047
 30
0.000000
  70
    32
  0
VERTEX
  8
0
  5
35E
 10
4.84186
 20
28.7047
 30
0.000000
  70
    32
  0
VERTEX
  8
0
  5
35F
 10
4.74196
 20
28.7047
 30
0.000000
  70
    32
  0
VERTEX
  8
0
  5
360
 10
4.64204
 20
28.7047
 30
0.000000
  70
    32
  0
VERTEX
  8
0
  5
361
 10
4.54214
 20
28.7047
 30
0.000000
  70
    32
  0
VERTEX
  8
0
  5
362
 10
4.44231
 20
28.7047
 30
0.000000
  70
    32
  0
VERTEX
  8
0
  5
363
 10
4.34261
 20
28.7047
 30
0.000000
  70
    32
  0
VERTEX
  8
0
  5
364
 10
4.24308
 20
28.7047
 30
0.000000
  70
    32
  0
VERTEX
  8
0
  5
365
 10
4.14378
 20
28.7047
 30
0.000000
  70
    32
  0
VERTEX
  8
0
  5
366
 10
4.04474
 20
28.7047
 30
0.000000
  70
    32
  0
VERTEX
  8
0
  5
367
 10
3.94603
 20
28.7047
 30
0.000000
  70
    32
  0
VERTEX
  8
0
  5
368
 10
3.84769
 20
28.7047
 30
0.000000
  70
    32
  0
VERTEX
  8
0
  5
369
 10
3.74977
 20
28.7047
 30
0.000000
  70
    32
  0
VERTEX
  8
0
  5
36A
 10
3.65233
 20
28.7047
 30
0.000000
  70
    32
  0
VERTEX
  8
0
  5
36B
 10
3.55540
 20
28.7047
 30
0.000000
  70
    32
  0
VERTEX
  8
0
  5
36C
 10
3.45904
 20
28.7047
 30
0.000000
  70
    32
  0
VERTEX
  8
0
  5
36D
 10
3.36331
 20
28.7047
 30
0.000000
  70
    32
  0
VERTEX
  8
0
  5
36E
 10
3.26824
 20
28.7047
 30
0.000000
  70
    32
  0
VERTEX
  8
0
  5
36F
 10
3.17389
 20
28.7047
 30
0.000000
  70
    32
  0
VERTEX
  8
0
  5
370
 10
3.08031
 20
28.7047
 30
0.000000
  70
    32
  0
VERTEX
  8
0
  5
371
 10
2.98755
 20
28.7047
 30
0.000000
  70
    32
  0
VERTEX
  8
0
  5
372
 10
2.89565
 20
28.7047
 30
0.000000
  70
    32
  0
VERTEX
  8
0
  5
373
 10
2.80467
 20
28.7047
 30
0.000000
  70
    32
  0
VERTEX
  8
0
  5
374
 10
2.71466
 20
28.7047
 30
0.000000
  70
    32
  0
VERTEX
  8
0
  5
375
 10
2.62566
 20
28.7047
 30
0.000000
  70
    32
  0
VERTEX
  8
0
  5
376
 10
2.53773
 20
28.7047
 30
0.000000
  70
    32
  0
VERTEX
  8
0
  5
377
 10
2.45092
 20
28.7047
 30
0.000000
  70
    32
  0
VERTEX
  8
0
  5
378
 10
2.36526
 20
28.7047
 30
0.000000
  70
    32
  0
VERTEX
  8
0
  5
379
 10
2.28083
 20
28.7047
 30
0.000000
  70
    32
  0
VERTEX
  8
0
  5
37A
 10
2.19766
 20
28.7047
 30
0.000000
  70
    32
  0
VERTEX
  8
0
  5
37B
 10
2.11580
 20
28.7047
 30
0.000000
  70
    32
  0
VERTEX
  8
0
  5
37C
 10
2.03530
 20
28.7047
 30
0.000000
  70
    32
  0
VERTEX
  8
0
  5
37D
 10
1.95622
 20
28.7047
 30
0.000000
  70
    32
  0
VERTEX
  8
0
  5
37E
 10
1.87860
 20
28.7047
 30
0.000000
  70
    32
  0
VERTEX
  8
0
  5
37F
 10
1.80249
 20
28.7047
 30
0.000000
  70
    32
  0
VERTEX
  8
0
  5
380
 10
1.72794
 20
28.7047
 30
0.000000
  70
    32
  0
VERTEX
  8
0
  5
381
 10
1.65500
 20
28.7047
 30
0.000000
  70
    32
  0
VERTEX
  8
0
  5
382
 10
1.58372
 20
28.7047
 30
0.000000
  70
    32
  0
VERTEX
  8
0
  5
383
 10
1.51416
 20
28.7047
 30
0.000000
  70
    32
  0
VERTEX
  8
0
  5
384
 10
1.44635
 20
28.7047
 30
0.000000
  70
    32
  0
VERTEX
  8
0
  5
385
 10
1.38035
 20
28.7047
 30
0.000000
  70
    32
  0
VERTEX
  8
0
  5
386
 10
1.31621
 20
28.7047
 30
0.000000
  70
    32
  0
VERTEX
  8
0
  5
387
 10
1.25398
 20
28.7047
 30
0.000000
  70
    32
  0
VERTEX
  8
0
  5
388
 10
1.19370
 20
28.7047
 30
0.000000
  70
    32
  0
VERTEX
  8
0
  5
389
 10
1.13544
 20
28.7047
 30
0.000000
  70
    32
  0
VERTEX
  8
0
  5
38A
 10
1.07923
 20
28.7047
 30
0.000000
  70
    32
  0
VERTEX
  8
0
  5
38B
 10
1.02512
 20
28.7047
 30
0.000000
  70
    32
  0
VERTEX
  8
0
  5
38C
 10
0.973176
 20
28.7047
 30
0.000000
  70
    32
  0
VERTEX
  8
0
  5
38D
 10
0.923435
 20
28.7047
 30
0.000000
  70
    32
  0
VERTEX
  8
0
  5
38E
 10
0.875948
 20
28.7047
 30
0.000000
  70
    32
  0
VERTEX
  8
0
  5
38F
 10
0.830766
 20
28.7047
 30
0.000000
  70
    32
  0
VERTEX
  8
0
  5
390
 10
0.787939
 20
28.7047
 30
0.000000
  70
    32
  0
VERTEX
  8
0
  5
391
 10
0.747515
 20
28.7047
 30
0.000000
  70
    32
  0
VERTEX
  8
0
  5
392
 10
0.709545
 20
28.7047
 30
0.000000
  70
    32
  0
VERTEX
  8
0
  5
393
 10
0.674078
 20
28.7047
 30
0.000000
  70
    32
  0
VERTEX
  8
0
  5
394
 10
0.641163
 20
28.7047
 30
0.000000
  70
    32
  0
VERTEX
  8
0
  5
395
 10
0.610851
 20
28.7047
 30
0.000000
  70
    32
  0
VERTEX
  8
0
  5
396
 10
0.583190
 20
28.7047
 30
0.000000
  70
    32
  0
VERTEX
  8
0
  5
397
 10
0.558230
 20
28.7047
 30
0.000000
  70
    32
  0
VERTEX
  8
0
  5
398
 10
0.536021
 20
28.7047
 30
0.000000
  70
    32
  0
VERTEX
  8
0
  5
399
 10
0.516613
 20
28.7047
 30
0.000000
  70
    32
  0
VERTEX
  8
0
  5
39A
 10
0.500054
 20
28.7047
 30
0.000000
  70
    32
  0
VERTEX
  8
0
  5
39B
 10
0.486395
 20
28.7047
 30
0.000000
  70
    32
  0
VERTEX
  8
0
  5
39C
 10
0.475685
 20
28.7047
 30
0.000000
  70
    32
  0
VERTEX
  8
0
  5
39D
 10
0.467974
 20
28.7047
 30
0.000000
  70
    32
  0
VERTEX
  8
0
  5
39E
 10
0.463311
 20
28.7047
 30
0.000000
  70
    32
  0
VERTEX
  8
0
  5
39F
 10
0.461746
 20
28.7047
 30
0.000000
  70
    32
  0
SEQEND
  8
0
  5
3A0
  0
POLYLINE
  8
0
  5
3A1
  66
     1
 10
0.000000
 20
0.000000
 30
0.000000
  70
     8
  0
VERTEX
  8
0
  5
3A2
 10
0.461746
 20
28.7047
 30
0.000000
  70
    32
  0
VERTEX
  8
0
  5
3A3
 10
0.455732
 20
28.7047
 30
0.000000
  70
    32
  0
VERTEX
  8
0
  5
3A4
 10
0.449737
 20
28.7047
 30
0.000000
  70
    32
  0
VERTEX
  8
0
  5
3A5
 10
0.443760
 20
28.7048
 30
0.000000
  70
    32
  0
VERTEX
  8
0
  5
3A6
 10
0.437803
 20
28.7048
 30
0.000000
  70
    32
  0
VERTEX
  8
0
  5
3A7
 10
0.431866
 20
28.7049
 30
0.000000
  70
    32
  0
VERTEX
  8
0
  5
3A8
 10
0.425949
 20
28.7049
 30
0.000000
  70
    32
  0
VERTEX
  8
0
  5
3A9
 10
0.420053
 20
28.7050
 30
0.000000
  70
    32
  0
VERTEX
  8
0
  5
3AA
 10
0.414178
 20
28.7051
 30
0.000000
  70
    32
  0
VERTEX
  8
0
  5
3AB
 10
0.408324
 20
28.7052
 30
0.000000
  70
    32
  0
VERTEX
  8
0
  5
3AC
 10
0.402493
 20
28.7053
 30
0.000000
  70
    32
  0
VERTEX
  8
0
  5
3AD
 10
0.396684
 20
28.7055
 30
0.000000
  70
    32
  0
VERTEX
  8
0
  5
3AE
 10
0.390898
 20
28.7056
 30
0.000000
  70
    32
  0
VERTEX
  8
0
  5
3AF
 10
0.385136
 20
28.7058
 30
0.000000
  70
    32
  0
VERTEX
  8
0
  5
3B0
 10
0.379398
 20
28.7060
 30
0.000000
  70
    32
  0
VERTEX
  8
0
  5
3B1
 10
0.373684
 20
28.7062
 30
0.000000
  70
    32
  0
VERTEX
  8
0
  5
3B2
 10
0.367995
 20
28.7064
 30
0.000000
  70
    32
  0
VERTEX
  8
0
  5
3B3
 10
0.362331
 20
28.7066
 30
0.000000
  70
    32
  0
VERTEX
  8
0
  5
3B4
 10
0.356693
 20
28.7069
 30
0.000000
  70
    32
  0
VERTEX
  8
0
  5
3B5
 10
0.351081
 20
28.7072
 30
0.000000
  70
    32
  0
VERTEX
  8
0
  5
3B6
 10
0.345497
 20
28.7075
 30
0.000000
  70
    32
  0
VERTEX
  8
0
  5
3B7
 10
0.339939
 20
28.7078
 30
0.000000
  70
    32
  0
VERTEX
  8
0
  5
3B8
 10
0.334409
 20
28.7081
 30
0.000000
  70
    32
  0
VERTEX
  8
0
  5
3B9
 10
0.328907
 20
28.7085
 30
0.000000
  70
    32
  0
VERTEX
  8
0
  5
3BA
 10
0.323434
 20
28.7089
 30
0.000000
  70
    32
  0
VERTEX
  8
0
  5
3BB
 10
0.317990
 20
28.7093
 30
0.000000
  70
    32
  0
VERTEX
  8
0
  5
3BC
 10
0.312575
 20
28.7097
 30
0.000000
  70
    32
  0
VERTEX
  8
0
  5
3BD
 10
0.307191
 20
28.7102
 30
0.000000
  70
    32
  0
VERTEX
  8
0
  5
3BE
 10
0.301837
 20
28.7107
 30
0.000000
  70
    32
  0
VERTEX
  8
0
  5
3BF
 10
0.296513
 20
28.7112
 30
0.000000
  70
    32
  0
VERTEX
  8
0
  5
3C0
 10
0.291222
 20
28.7117
 30
0.000000
  70
    32
  0
VERTEX
  8
0
  5
3C1
 10
0.285962
 20
28.7122
 30
0.000000
  70
    32
  0
VERTEX
  8
0
  5
3C2
 10
0.280734
 20
28.7128
 30
0.000000
  70
    32
  0
VERTEX
  8
0
  5
3C3
 10
0.275539
 20
28.7134
 30
0.000000
  70
    32
  0
VERTEX
  8
0
  5
3C4
 10
0.270378
 20
28.7141
 30
0.000000
  70
    32
  0
VERTEX
  8
0
  5
3C5
 10
0.265250
 20
28.7147
 30
0.000000
  70
    32
  0
VERTEX
  8
0
  5
3C6
 10
0.260156
 20
28.7154
 30
0.000000
  70
    32
  0
VERTEX
  8
0
  5
3C7
 10
0.255097
 20
28.7161
 30
0.000000
  70
    32
  0
VERTEX
  8
0
  5
3C8
 10
0.250073
 20
28.7169
 30
0.000000
  70
    32
  0
VERTEX
  8
0
  5
3C9
 10
0.245085
 20
28.7177
 30
0.000000
  70
    32
  0
VERTEX
  8
0
  5
3CA
 10
0.240132
 20
28.7185
 30
0.000000
  70
    32
  0
VERTEX
  8
0
  5
3CB
 10
0.235216
 20
28.7193
 30
0.000000
  70
    32
  0
VERTEX
  8
0
  5
3CC
 10
0.230338
 20
28.7202
 30
0.000000
  70
    32
  0
VERTEX
  8
0
  5
3CD
 10
0.225496
 20
28.7211
 30
0.000000
  70
    32
  0
VERTEX
  8
0
  5
3CE
 10
0.220693
 20
28.7220
 30
0.000000
  70
    32
  0
VERTEX
  8
0
  5
3CF
 10
0.215927
 20
28.7230
 30
0.000000
  70
    32
  0
VERTEX
  8
0
  5
3D0
 10
0.211201
 20
28.7240
 30
0.000000
  70
    32
  0
VERTEX
  8
0
  5
3D1
 10
0.206514
 20
28.7250
 30
0.000000
  70
    32
  0
VERTEX
  8
0
  5
3D2
 10
0.201867
 20
28.7261
 30
0.000000
  70
    32
  0
VERTEX
  8
0
  5
3D3
 10
0.197260
 20
28.7272
 30
0.000000
  70
    32
  0
VERTEX
  8
0
  5
3D4
 10
0.192693
 20
28.7283
 30
0.000000
  70
    32
  0
VERTEX
  8
0
  5
3D5
 10
0.188168
 20
28.7295
 30
0.000000
  70
    32
  0
VERTEX
  8
0
  5
3D6
 10
0.183684
 20
28.7307
 30
0.000000
  70
    32
  0
VERTEX
  8
0
  5
3D7
 10
0.179243
 20
28.7319
 30
0.000000
  70
    32
  0
VERTEX
  8
0
  5
3D8
 10
0.174844
 20
28.7332
 30
0.000000
  70
    32
  0
VERTEX
  8
0
  5
3D9
 10
0.170488
 20
28.7345
 30
0.000000
  70
    32
  0
VERTEX
  8
0
  5
3DA
 10
0.166175
 20
28.7359
 30
0.000000
  70
    32
  0
VERTEX
  8
0
  5
3DB
 10
0.161907
 20
28.7373
 30
0.000000
  70
    32
  0
VERTEX
  8
0
  5
3DC
 10
0.157682
 20
28.7387
 30
0.000000
  70
    32
  0
VERTEX
  8
0
  5
3DD
 10
0.153503
 20
28.7402
 30
0.000000
  70
    32
  0
VERTEX
  8
0
  5
3DE
 10
0.149369
 20
28.7417
 30
0.000000
  70
    32
  0
VERTEX
  8
0
  5
3DF
 10
0.145281
 20
28.7433
 30
0.000000
  70
    32
  0
VERTEX
  8
0
  5
3E0
 10
0.141239
 20
28.7449
 30
0.000000
  70
    32
  0
VERTEX
  8
0
  5
3E1
 10
0.137244
 20
28.7465
 30
0.000000
  70
    32
  0
VERTEX
  8
0
  5
3E2
 10
0.133296
 20
28.7482
 30
0.000000
  70
    32
  0
VERTEX
  8
0
  5
3E3
 10
0.129395
 20
28.7499
 30
0.000000
  70
    32
  0
VERTEX
  8
0
  5
3E4
 10
0.125543
 20
28.7517
 30
0.000000
  70
    32
  0
VERTEX
  8
0
  5
3E5
 10
0.121740
 20
28.7535
 30
0.000000
  70
    32
  0
VERTEX
  8
0
  5
3E6
 10
0.117985
 20
28.7554
 30
0.000000
  70
    32
  0
VERTEX
  8
0
  5
3E7
 10
0.114280
 20
28.7573
 30
0.000000
  70
    32
  0
VERTEX
  8
0
  5
3E8
 10
0.110625
 20
28.7592
 30
0.000000
  70
    32
  0
VERTEX
  8
0
  5
3E9
 10
0.107020
 20
28.7612
 30
0.000000
  70
    32
  0
VERTEX
  8
0
  5
3EA
 10
0.103466
 20
28.7632
 30
0.000000
  70
    32
  0
VERTEX
  8
0
  5
3EB
 10
0.0999639
 20
28.7653
 30
0.000000
  70
    32
  0
VERTEX
  8
0
  5
3EC
 10
0.0965133
 20
28.7675
 30
0.000000
  70
    32
  0
VERTEX
  8
0
  5
3ED
 10
0.0931151
 20
28.7696
 30
0.000000
  70
    32
  0
VERTEX
  8
0
  5
3EE
 10
0.0897696
 20
28.7719
 30
0.000000
  70
    32
  0
VERTEX
  8
0
  5
3EF
 10
0.0864773
 20
28.7742
 30
0.000000
  70
    32
  0
VERTEX
  8
0
  5
3F0
 10
0.0832387
 20
28.7765
 30
0.000000
  70
    32
  0
VERTEX
  8
0
  5
3F1
 10
0.0800543
 20
28.7789
 30
0.000000
  70
    32
  0
VERTEX
  8
0
  5
3F2
 10
0.0769245
 20
28.7813
 30
0.000000
  70
    32
  0
VERTEX
  8
0
  5
3F3
 10
0.0738498
 20
28.7838
 30
0.000000
  70
    32
  0
VERTEX
  8
0
  5
3F4
 10
0.0708306
 20
28.7863
 30
0.000000
  70
    32
  0
VERTEX
  8
0
  5
3F5
 10
0.0678675
 20
28.7889
 30
0.000000
  70
    32
  0
VERTEX
  8
0
  5
3F6
 10
0.0649609
 20
28.7915
 30
0.000000
  70
    32
  0
VERTEX
  8
0
  5
3F7
 10
0.0621112
 20
28.7942
 30
0.000000
  70
    32
  0
VERTEX
  8
0
  5
3F8
 10
0.0593189
 20
28.7970
 30
0.000000
  70
    32
  0
VERTEX
  8
0
  5
3F9
 10
0.0565844
 20
28.7997
 30
0.000000
  70
    32
  0
VERTEX
  8
0
  5
3FA
 10
0.0539084
 20
28.8026
 30
0.000000
  70
    32
  0
VERTEX
  8
0
  5
3FB
 10
0.0512911
 20
28.8055
 30
0.000000
  70
    32
  0
VERTEX
  8
0
  5
3FC
 10
0.0487331
 20
28.8085
 30
0.000000
  70
    32
  0
VERTEX
  8
0
  5
3FD
 10
0.0462348
 20
28.8115
 30
0.000000
  70
    32
  0
VERTEX
  8
0
  5
3FE
 10
0.0437968
 20
28.8146
 30
0.000000
  70
    32
  0
VERTEX
  8
0
  5
3FF
 10
0.0414194
 20
28.8177
 30
0.000000
  70
    32
  0
VERTEX
  8
0
  5
400
 10
0.0391031
 20
28.8209
 30
0.000000
  70
    32
  0
VERTEX
  8
0
  5
401
 10
0.0368484
 20
28.8241
 30
0.000000
  70
    32
  0
VERTEX
  8
0
  5
402
 10
0.0346558
 20
28.8274
 30
0.000000
  70
    32
  0
VERTEX
  8
0
  5
403
 10
0.0325257
 20
28.8308
 30
0.000000
  70
    32
  0
VERTEX
  8
0
  5
404
 10
0.0304586
 20
28.8342
 30
0.000000
  70
    32
  0
VERTEX
  8
0
  5
405
 10
0.0284549
 20
28.8377
 30
0.000000
  70
    32
  0
VERTEX
  8
0
  5
406
 10
0.0265152
 20
28.8412
 30
0.000000
  70
    32
  0
VERTEX
  8
0
  5
407
 10
0.0246398
 20
28.8448
 30
0.000000
  70
    32
  0
VERTEX
  8
0
  5
408
 10
0.0228293
 20
28.8485
 30
0.000000
  70
    32
  0
VERTEX
  8
0
  5
409
 10
0.0210841
 20
28.8522
 30
0.000000
  70
    32
  0
VERTEX
  8
0
  5
40A
 10
0.0194046
 20
28.8560
 30
0.000000
  70
    32
  0
VERTEX
  8
0
  5
40B
 10
0.0177914
 20
28.8599
 30
0.000000
  70
    32
  0
VERTEX
  8
0
  5
40C
 10
0.0162449
 20
28.8638
 30
0.000000
  70
    32
  0
VERTEX
  8
0
  5
40D
 10
0.0147656
 20
28.8678
 30
0.000000
  70
    32
  0
VERTEX
  8
0
  5
40E
 10
0.0133539
 20
28.8718
 30
0.000000
  70
    32
  0
VERTEX
  8
0
  5
40F
 10
0.0120103
 20
28.8759
 30
0.000000
  70
    32
  0
VERTEX
  8
0
  5
410
 10
0.0107353
 20
28.8801
 30
0.000000
  70
    32
  0
VERTEX
  8
0
  5
411
 10
0.00952928
 20
28.8843
 30
0.000000
  70
    32
  0
VERTEX
  8
0
  5
412
 10
0.00839277
 20
28.8887
 30
0.000000
  70
    32
  0
VERTEX
  8
0
  5
413
 10
0.00732621
 20
28.8930
 30
0.000000
  70
    32
  0
VERTEX
  8
0
  5
414
 10
0.00633008
 20
28.8975
 30
0.000000
  70
    32
  0
VERTEX
  8
0
  5
415
 10
0.00540483
 20
28.9020
 30
0.000000
  70
    32
  0
VERTEX
  8
0
  5
416
 10
0.00455092
 20
28.9066
 30
0.000000
  70
    32
  0
VERTEX
  8
0
  5
417
 10
0.00376884
 20
28.9112
 30
0.000000
  70
    32
  0
VERTEX
  8
0
  5
418
 10
0.00305903
 20
28.9159
 30
0.000000
  70
    32
  0
VERTEX
  8
0
  5
419
 10
0.00242197
 20
28.9207
 30
0.000000
  70
    32
  0
VERTEX
  8
0
  5
41A
 10
0.00185811
 20
28.9256
 30
0.000000
  70
    32
  0
VERTEX
  8
0
  5
41B
 10
0.00136793
 20
28.9305
 30
0.000000
  70
    32
  0
VERTEX
  8
0
  5
41C
 10
0.000951889
 20
28.9355
 30
0.000000
  70
    32
  0
VERTEX
  8
0
  5
41D
 10
0.000610448
 20
28.9406
 30
0.000000
  70
    32
  0
VERTEX
  8
0
  5
41E
 10
0.000344074
 20
28.9457
 30
0.000000
  70
    32
  0
VERTEX
  8
0
  5
41F
 10
0.000153232
 20
28.9510
 30
0.000000
  70
    32
  0
VERTEX
  8
0
  5
420
 10
3.83853e-005
 20
28.9563
 30
0.000000
  70
    32
  0
VERTEX
  8
0
  5
421
 10
-3.60000e-015
 20
28.9616
 30
0.000000
  70
    32
  0
SEQEND
  8
0
  5
422
  0
POLYLINE
  8
0
  5
423
  66
     1
 10
0.000000
 20
0.000000
 30
0.000000
  70
     8
  0
VERTEX
  8
0
  5
424
 10
-3.60000e-015
 20
28.9616
 30
0.000000
  70
    32
  0
VERTEX
  8
0
  5
425
 10
-3.60000e-015
 20
28.9619
 30
0.000000
  70
    32
  0
VERTEX
  8
0
  5
426
 10
-3.60000e-015
 20
28.9627
 30
0.000000
  70
    32
  0
VERTEX
  8
0
  5
427
 10
-3.60000e-015
 20
28.9641
 30
0.000000
  70
    32
  0
VERTEX
  8
0
  5
428
 10
-3.60000e-015
 20
28.9660
 30
0.000000
  70
    32
  0
VERTEX
  8
0
  5
429
 10
-3.60000e-015
 20
28.9684
 30
0.000000
  70
    32
  0
VERTEX
  8
0
  5
42A
 10
-3.60000e-015
 20
28.9713
 30
0.000000
  70
    32
  0
VERTEX
  8
0
  5
42B
 10
-3.60000e-015
 20
28.9747
 30
0.000000
  70
    32
  0
VERTEX
  8
0
  5
42C
 10
-3.60000e-015
 20
28.9787
 30
0.000000
  70
    32
  0
VERTEX
  8
0
  5
42D
 10
-3.60000e-015
 20
28.9831
 30
0.000000
  70
    32
  0
VERTEX
  8
0
  5
42E
 10
-3.60000e-015
 20
28.9880
 30
0.000000
  70
    32
  0
VERTEX
  8
0
  5
42F
 10
-3.60000e-015
 20
28.9933
 30
0.000000
  70
    32
  0
VERTEX
  8
0
  5
430
 10
-3.60000e-015
 20
28.9991
 30
0.000000
  70
    32
  0
VERTEX
  8
0
  5
431
 10
-3.60000e-015
 20
29.0054
 30
0.000000
  70
    32
  0
VERTEX
  8
0
  5
432
 10
-3.60000e-015
 20
29.0121
 30
0.000000
  70
    32
  0
VERTEX
  8
0
  5
433
 10
-3.60000e-015
 20
29.0192
 30
0.000000
  70
    32
  0
VERTEX
  8
0
  5
434
 10
-3.60000e-015
 20
29.0268
 30
0.000000
  70
    32
  0
VERTEX
  8
0
  5
435
 10
-3.60000e-015
 20
29.0348
 30
0.000000
  70
    32
  0
VERTEX
  8
0
  5
436
 10
-3.60000e-015
 20
29.0432
 30
0.000000
  70
    32
  0
VERTEX
  8
0
  5
437
 10
-3.60000e-015
 20
29.0519
 30
0.000000
  70
    32
  0
VERTEX
  8
0
  5
438
 10
-3.60000e-015
 20
29.0611
 30
0.000000
  70
    32
  0
VERTEX
  8
0
  5
439
 10
-3.60000e-015
 20
29.0707
 30
0.000000
  70
    32
  0
VERTEX
  8
0
  5
43A
 10
-3.60000e-015
 20
29.0806
 30
0.000000
  70
    32
  0
VERTEX
  8
0
  5
43B
 10
-3.60000e-015
 20
29.0909
 30
0.000000
  70
    32
  0
VERTEX
  8
0
  5
43C
 10
-3.60000e-015
 20
29.1015
 30
0.000000
  70
    32
  0
VERTEX
  8
0
  5
43D
 10
-3.60000e-015
 20
29.1125
 30
0.000000
  70
    32
  0
VERTEX
  8
0
  5
43E
 10
-3.60000e-015
 20
29.1238
 30
0.000000
  70
    32
  0
VERTEX
  8
0
  5
43F
 10
-3.60000e-015
 20
29.1355
 30
0.000000
  70
    32
  0
VERTEX
  8
0
  5
440
 10
-3.60000e-015
 20
29.1475
 30
0.000000
  70
    32
  0
VERTEX
  8
0
  5
441
 10
-3.60000e-015
 20
29.1598
 30
0.000000
  70
    32
  0
VERTEX
  8
0
  5
442
 10
-3.60000e-015
 20
29.1723
 30
0.000000
  70
    32
  0
VERTEX
  8
0
  5
443
 10
-3.60000e-015
 20
29.1852
 30
0.000000
  70
    32
  0
VERTEX
  8
0
  5
444
 10
-3.60000e-015
 20
29.1984
 30
0.000000
  70
    32
  0
VERTEX
  8
0
  5
445
 10
-3.60000e-015
 20
29.2118
 30
0.000000
  70
    32
  0
VERTEX
  8
0
  5
446
 10
-3.60000e-015
 20
29.2255
 30
0.000000
  70
    32
  0
VERTEX
  8
0
  5
447
 10
-3.60000e-015
 20
29.2395
 30
0.000000
  70
    32
  0
VERTEX
  8
0
  5
448
 10
-3.60000e-015
 20
29.2537
 30
0.000000
  70
    32
  0
VERTEX
  8
0
  5
449
 10
-3.60000e-015
 20
29.2682
 30
0.000000
  70
    32
  0
VERTEX
  8
0
  5
44A
 10
-3.60000e-015
 20
29.2829
 30
0.000000
  70
    32
  0
VERTEX
  8
0
  5
44B
 10
-3.60000e-015
 20
29.2978
 30
0.000000
  70
    32
  0
VERTEX
  8
0
  5
44C
 10
-3.60000e-015
 20
29.3129
 30
0.000000
  70
    32
  0
VERTEX
  8
0
  5
44D
 10
-3.60000e-015
 20
29.3282
 30
0.000000
  70
    32
  0
VERTEX
  8
0
  5
44E
 10
-3.60000e-015
 20
29.3438
 30
0.000000
  70
    32
  0
VERTEX
  8
0
  5
44F
 10
-3.60000e-015
 20
29.3595
 30
0.000000
  70
    32
  0
VERTEX
  8
0
  5
450
 10
-3.60000e-015
 20
29.3754
 30
0.000000
  70
    32
  0
VERTEX
  8
0
  5
451
 10
-3.60000e-015
 20
29.3914
 30
0.000000
  70
    32
  0
VERTEX
  8
0
  5
452
 10
-3.60000e-015
 20
29.4077
 30
0.000000
  70
    32
  0
VERTEX
  8
0
  5
453
 10
-3.60000e-015
 20
29.4240
 30
0.000000
  70
    32
  0
VERTEX
  8
0
  5
454
 10
-3.60000e-015
 20
29.4406
 30
0.000000
  70
    32
  0
VERTEX
  8
0
  5
455
 10
-3.60000e-015
 20
29.4572
 30
0.000000
  70
    32
  0
VERTEX
  8
0
  5
456
 10
-3.60000e-015
 20
29.4740
 30
0.000000
  70
    32
  0
VERTEX
  8
0
  5
457
 10
-3.60000e-015
 20
29.4909
 30
0.000000
  70
    32
  0
VERTEX
  8
0
  5
458
 10
-3.60000e-015
 20
29.5079
 30
0.000000
  70
    32
  0
VERTEX
  8
0
  5
459
 10
-3.60000e-015
 20
29.5251
 30
0.000000
  70
    32
  0
VERTEX
  8
0
  5
45A
 10
-3.60000e-015
 20
29.5423
 30
0.000000
  70
    32
  0
VERTEX
  8
0
  5
45B
 10
-3.60000e-015
 20
29.5596
 30
0.000000
  70
    32
  0
VERTEX
  8
0
  5
45C
 10
-3.60000e-015
 20
29.5769
 30
0.000000
  70
    32
  0
VERTEX
  8
0
  5
45D
 10
-3.60000e-015
 20
29.5944
 30
0.000000
  70
    32
  0
VERTEX
  8
0
  5
45E
 10
-3.60000e-015
 20
29.6119
 30
0.000000
  70
    32
  0
VERTEX
  8
0
  5
45F
 10
-3.60000e-015
 20
29.6294
 30
0.000000
  70
    32
  0
VERTEX
  8
0
  5
460
 10
-3.60000e-015
 20
29.6470
 30
0.000000
  70
    32
  0
VERTEX
  8
0
  5
461
 10
-3.60000e-015
 20
29.6646
 30
0.000000
  70
    32
  0
VERTEX
  8
0
  5
462
 10
-3.60000e-015
 20
29.6822
 30
0.000000
  70
    32
  0
VERTEX
  8
0
  5
463
 10
-3.60000e-015
 20
29.6998
 30
0.000000
  70
    32
  0
VERTEX
  8
0
  5
464
 10
-3.60000e-015
 20
29.7175
 30
0.000000
  70
    32
  0
VERTEX
  8
0
  5
465
 10
-3.60000e-015
 20
29.7351
 30
0.000000
  70
    32
  0
VERTEX
  8
0
  5
466
 10
-3.60000e-015
 20
29.7528
 30
0.000000
  70
    32
  0
VERTEX
  8
0
  5
467
 10
-3.60000e-015
 20
29.7704
 30
0.000000
  70
    32
  0
VERTEX
  8
0
  5
468
 10
-3.60000e-015
 20
29.7879
 30
0.000000
  70
    32
  0
VERTEX
  8
0
  5
469
 10
-3.60000e-015
 20
29.8055
 30
0.000000
  70
    32
  0
VERTEX
  8
0
  5
46A
 10
-3.60000e-015
 20
29.8230
 30
0.000000
  70
    32
  0
VERTEX
  8
0
  5
46B
 10
-3.60000e-015
 20
29.8404
 30
0.000000
  70
    32
  0
VERTEX
  8
0
  5
46C
 10
-3.60000e-015
 20
29.8578
 30
0.000000
  70
    32
  0
VERTEX
  8
0
  5
46D
 10
-3.60000e-015
 20
29.8751
 30
0.000000
  70
    32
  0
VERTEX
  8
0
  5
46E
 10
-3.60000e-015
 20
29.8923
 30
0.000000
  70
    32
  0
VERTEX
  8
0
  5
46F
 10
-3.60000e-015
 20
29.9094
 30
0.000000
  70
    32
  0
VERTEX
  8
0
  5
470
 10
-3.60000e-015
 20
29.9264
 30
0.000000
  70
    32
  0
VERTEX
  8
0
  5
471
 10
-3.60000e-015
 20
29.9433
 30
0.000000
  70
    32
  0
VERTEX
  8
0
  5
472
 10
-3.60000e-015
 20
29.9601
 30
0.000000
  70
    32
  0
VERTEX
  8
0
  5
473
 10
-3.60000e-015
 20
29.9768
 30
0.000000
  70
    32
  0
VERTEX
  8
0
  5
474
 10
-3.60000e-015
 20
29.9933
 30
0.000000
  70
    32
  0
VERTEX
  8
0
  5
475
 10
-3.60000e-015
 20
30.0097
 30
0.000000
  70
    32
  0
VERTEX
  8
0
  5
476
 10
-3.60000e-015
 20
30.0259
 30
0.000000
  70
    32
  0
VERTEX
  8
0
  5
477
 10
-3.60000e-015
 20
30.0420
 30
0.000000
  70
    32
  0
VERTEX
  8
0
  5
478
 10
-3.60000e-015
 20
30.0579
 30
0.000000
  70
    32
  0
VERTEX
  8
0
  5
479
 10
-3.60000e-015
 20
30.0736
 30
0.000000
  70
    32
  0
VERTEX
  8
0
  5
47A
 10
-3.60000e-015
 20
30.0891
 30
0.000000
  70
    32
  0
VERTEX
  8
0
  5
47B
 10
-3.60000e-015
 20
30.1044
 30
0.000000
  70
    32
  0
VERTEX
  8
0
  5
47C
 10
-3.60000e-015
 20
30.1196
 30
0.000000
  70
    32
  0
VERTEX
  8
0
  5
47D
 10
-3.60000e-015
 20
30.1345
 30
0.000000
  70
    32
  0
VERTEX
  8
0
  5
47E
 10
-3.60000e-015
 20
30.1492
 30
0.000000
  70
    32
  0
VERTEX
  8
0
  5
47F
 10
-3.60000e-015
 20
30.1636
 30
0.000000
  70
    32
  0
VERTEX
  8
0
  5
480
 10
-3.60000e-015
 20
30.1778
 30
0.000000
  70
    32
  0
VERTEX
  8
0
  5
481
 10
-3.60000e-015
 20
30.1918
 30
0.000000
  70
    32
  0
VERTEX
  8
0
  5
482
 10
-3.60000e-015
 20
30.2055
 30
0.000000
  70
    32
  0
VERTEX
  8
0
  5
483
 10
-3.60000e-015
 20
30.2189
 30
0.000000
  70
    32
  0
VERTEX
  8
0
  5
484
 10
-3.60000e-015
 20
30.2321
 30
0.000000
  70
    32
  0
VERTEX
  8
0
  5
485
 10
-3.60000e-015
 20
30.2450
 30
0.000000
  70
    32
  0
VERTEX
  8
0
  5
486
 10
-3.60000e-015
 20
30.2576
 30
0.000000
  70
    32
  0
VERTEX
  8
0
  5
487
 10
-3.60000e-015
 20
30.2699
 30
0.000000
  70
    32
  0
VERTEX
  8
0
  5
488
 10
-3.60000e-015
 20
30.2818
 30
0.000000
  70
    32
  0
VERTEX
  8
0
  5
489
 10
-3.60000e-015
 20
30.2935
 30
0.000000
  70
    32
  0
VERTEX
  8
0
  5
48A
 10
-3.60000e-015
 20
30.3048
 30
0.000000
  70
    32
  0
VERTEX
  8
0
  5
48B
 10
-3.60000e-015
 20
30.3158
 30
0.000000
  70
    32
  0
VERTEX
  8
0
  5
48C
 10
-3.60000e-015
 20
30.3265
 30
0.000000
  70
    32
  0
VERTEX
  8
0
  5
48D
 10
-3.60000e-015
 20
30.3367
 30
0.000000
  70
    32
  0
VERTEX
  8
0
  5
48E
 10
-3.60000e-015
 20
30.3467
 30
0.000000
  70
    32
  0
VERTEX
  8
0
  5
48F
 10
-3.60000e-015
 20
30.3562
 30
0.000000
  70
    32
  0
VERTEX
  8
0
  5
490
 10
-3.60000e-015
 20
30.3654
 30
0.000000
  70
    32
  0
VERTEX
  8
0
  5
491
 10
-3.60000e-015
 20
30.3742
 30
0.000000
  70
    32
  0
VERTEX
  8
0
  5
492
 10
-3.60000e-015
 20
30.3826
 30
0.000000
  70
    32
  0
VERTEX
  8
0
  5
493
 10
-3.60000e-015
 20
30.3906
 30
0.000000
  70
    32
  0
VERTEX
  8
0
  5
494
 10
-3.60000e-015
 20
30.3981
 30
0.000000
  70
    32
  0
VERTEX
  8
0
  5
495
 10
-3.60000e-015
 20
30.4053
 30
0.000000
  70
    32
  0
VERTEX
  8
0
  5
496
 10
-3.60000e-015
 20
30.4120
 30
0.000000
  70
    32
  0
VERTEX
  8
0
  5
497
 10
-3.60000e-015
 20
30.4182
 30
0.000000
  70
    32
  0
VERTEX
  8
0
  5
498
 10
-3.60000e-015
 20
30.4240
 30
0.000000
  70
    32
  0
VERTEX
  8
0
  5
499
 10
-3.60000e-015
 20
30.4294
 30
0.000000
  70
    32
  0
VERTEX
  8
0
  5
49A
 10
-3.60000e-015
 20
30.4343
 30
0.000000
  70
    32
  0
VERTEX
  8
0
  5
49B
 10
-3.60000e-015
 20
30.4387
 30
0.000000
  70
    32
  0
VERTEX
  8
0
  5
49C
 10
-3.60000e-015
 20
30.4426
 30
0.000000
  70
    32
  0
VERTEX
  8
0
  5
49D
 10
-3.60000e-015
 20
30.4460
 30
0.000000
  70
    32
  0
VERTEX
  8
0
  5
49E
 10
-3.60000e-015
 20
30.4490
 30
0.000000
  70
    32
  0
VERTEX
  8
0
  5
49F
 10
-3.60000e-015
 20
30.4514
 30
0.000000
  70
    32
  0
VERTEX
  8
0
  5
4A0
 10
-3.60000e-015
 20
30.4533
 30
0.000000
  70
    32
  0
VERTEX
  8
0
  5
4A1
 10
-3.60000e-015
 20
30.4546
 30
0.000000
  70
    32
  0
VERTEX
  8
0
  5
4A2
 10
-3.60000e-015
 20
30.4554
 30
0.000000
  70
    32
  0
VERTEX
  8
0
  5
4A3
 10
-3.60000e-015
 20
30.4557
 30
0.000000
  70
    32
  0
SEQEND
  8
0
  5
4A4
  0
POLYLINE
  8
0
  5
4A5
  66
     1
 10
0.000000
 20
0.000000
 30
0.000000
  70
     8
  0
VERTEX
  8
0
  5
4A6
 10
-3.60000e-015
 20
30.4557
 30
0.000000
  70
    32
  0
VERTEX
  8
0
  5
4A7
 10
3.83853e-005
 20
30.4611
 30
0.000000
  70
    32
  0
VERTEX
  8
0
  5
4A8
 10
0.000153232
 20
30.4663
 30
0.000000
  70
    32
  0
VERTEX
  8
0
  5
4A9
 10
0.000344074
 20
30.4715
 30
0.000000
  70
    32
  0
VERTEX
  8
0
  5
4AA
 10
0.000610448
 20
30.4766
 30
0.000000
  70
    32
  0
VERTEX
  8
0
  5
4AB
 10
0.000951889
 20
30.4816
 30
0.000000
  70
    32
  0
VERTEX
  8
0
  5
4AC
 10
0.00136793
 20
30.4866
 30
0.000000
  70
    32
  0
VERTEX
  8
0
  5
4AD
 10
0.00185811
 20
30.4914
 30
0.000000
  70
    32
  0
VERTEX
  8
0
  5
4AE
 10
0.00242197
 20
30.4962
 30
0.000000
  70
    32
  0
VERTEX
  8
0
  5
4AF
 10
0.00305903
 20
30.5009
 30
0.000000
  70
    32
  0
VERTEX
  8
0
  5
4B0
 10
0.00376884
 20
30.5055
 30
0.000000
  70
    32
  0
VERTEX
  8
0
  5
4B1
 10
0.00455092
 20
30.5100
 30
0.000000
  70
    32
  0
VERTEX
  8
0
  5
4B2
 10
0.00540483
 20
30.5144
 30
0.000000
  70
    32
  0
VERTEX
  8
0
  5
4B3
 10
0.00633008
 20
30.5188
 30
0.000000
  70
    32
  0
VERTEX
  8
0
  5
4B4
 10
0.00732621
 20
30.5231
 30
0.000000
  70
    32
  0
VERTEX
  8
0
  5
4B5
 10
0.00839277
 20
30.5273
 30
0.000000
  70
    32
  0
VERTEX
  8
0
  5
4B6
 10
0.00952928
 20
30.5314
 30
0.000000
  70
    32
  0
VERTEX
  8
0
  5
4B7
 10
0.0107353
 20
30.5355
 30
0.000000
  70
    32
  0
VERTEX
  8
0
  5
4B8
 10
0.0120103
 20
30.5395
 30
0.000000
  70
    32
  0
VERTEX
  8
0
  5
4B9
 10
0.0133539
 20
30.5434
 30
0.000000
  70
    32
  0
VERTEX
  8
0
  5
4BA
 10
0.0147656
 20
30.5472
 30
0.000000
  70
    32
  0
VERTEX
  8
0
  5
4BB
 10
0.0162449
 20
30.5510
 30
0.000000
  70
    32
  0
VERTEX
  8
0
  5
4BC
 10
0.0177914
 20
30.5547
 30
0.000000
  70
    32
  0
VERTEX
  8
0
  5
4BD
 10
0.0194046
 20
30.5583
 30
0.000000
  70
    32
  0
VERTEX
  8
0
  5
4BE
 10
0.0210841
 20
30.5618
 30
0.000000
  70
    32
  0
VERTEX
  8
0
  5
4BF
 10
0.0228293
 20
30.5653
 30
0.000000
  70
    32
  0
VERTEX
  8
0
  5
4C0
 10
0.0246398
 20
30.5687
 30
0.000000
  70
    32
  0
VERTEX
  8
0
  5
4C1
 10
0.0265152
 20
30.5720
 30
0.000000
  70
    32
  0
VERTEX
  8
0
  5
4C2
 10
0.0284549
 20
30.5753
 30
0.000000
  70
    32
  0
VERTEX
  8
0
  5
4C3
 10
0.0304586
 20
30.5785
 30
0.000000
  70
    32
  0
VERTEX
  8
0
  5
4C4
 10
0.0325257
 20
30.5816
 30
0.000000
  70
    32
  0
VERTEX
  8
0
  5
4C5
 10
0.0346558
 20
30.5847
 30
0.000000
  70
    32
  0
VERTEX
  8
0
  5
4C6
 10
0.0368484
 20
30.5877
 30
0.000000
  70
    32
  0
VERTEX
  8
0
  5
4C7
 10
0.0391031
 20
30.5906
 30
0.000000
  70
    32
  0
VERTEX
  8
0
  5
4C8
 10
0.0414194
 20
30.5935
 30
0.000000
  70
    32
  0
VERTEX
  8
0
  5
4C9
 10
0.0437968
 20
30.5963
 30
0.000000
  70
    32
  0
VERTEX
  8
0
  5
4CA
 10
0.0462348
 20
30.5990
 30
0.000000
  70
    32
  0
VERTEX
  8
0
  5
4CB
 10
0.0487331
 20
30.6017
 30
0.000000
  70
    32
  0
VERTEX
  8
0
  5
4CC
 10
0.0512911
 20
30.6043
 30
0.000000
  70
    32
  0
VERTEX
  8
0
  5
4CD
 10
0.0539084
 20
30.6069
 30
0.000000
  70
    32
  0
VERTEX
  8
0
  5
4CE
 10
0.0565844
 20
30.6094
 30
0.000000
  70
    32
  0
VERTEX
  8
0
  5
4CF
 10
0.0593189
 20
30.6118
 30
0.000000
  70
    32
  0
VERTEX
  8
0
  5
4D0
 10
0.0621112
 20
30.6142
 30
0.000000
  70
    32
  0
VERTEX
  8
0
  5
4D1
 10
0.0649609
 20
30.6165
 30
0.000000
  70
    32
  0
VERTEX
  8
0
  5
4D2
 10
0.0678675
 20
30.6188
 30
0.000000
  70
    32
  0
VERTEX
  8
0
  5
4D3
 10
0.0708306
 20
30.6210
 30
0.000000
  70
    32
  0
VERTEX
  8
0
  5
4D4
 10
0.0738498
 20
30.6232
 30
0.000000
  70
    32
  0
VERTEX
  8
0
  5
4D5
 10
0.0769245
 20
30.6253
 30
0.000000
  70
    32
  0
VERTEX
  8
0
  5
4D6
 10
0.0800543
 20
30.6273
 30
0.000000
  70
    32
  0
VERTEX
  8
0
  5
4D7
 10
0.0832387
 20
30.6293
 30
0.000000
  70
    32
  0
VERTEX
  8
0
  5
4D8
 10
0.0864773
 20
30.6312
 30
0.000000
  70
    32
  0
VERTEX
  8
0
  5
4D9
 10
0.0897696
 20
30.6331
 30
0.000000
  70
    32
  0
VERTEX
  8
0
  5
4DA
 10
0.0931151
 20
30.6350
 30
0.000000
  70
    32
  0
VERTEX
  8
0
  5
4DB
 10
0.0965133
 20
30.6368
 30
0.000000
  70
    32
  0
VERTEX
  8
0
  5
4DC
 10
0.0999639
 20
30.6385
 30
0.000000
  70
    32
  0
VERTEX
  8
0
  5
4DD
 10
0.103466
 20
30.6402
 30
0.000000
  70
    32
  0
VERTEX
  8
0
  5
4DE
 10
0.107020
 20
30.6418
 30
0.000000
  70
    32
  0
VERTEX
  8
0
  5
4DF
 10
0.110625
 20
30.6434
 30
0.000000
  70
    32
  0
VERTEX
  8
0
  5
4E0
 10
0.114280
 20
30.6450
 30
0.000000
  70
    32
  0
VERTEX
  8
0
  5
4E1
 10
0.117985
 20
30.6464
 30
0.000000
  70
    32
  0
VERTEX
  8
0
  5
4E2
 10
0.121740
 20
30.6479
 30
0.000000
  70
    32
  0
VERTEX
  8
0
  5
4E3
 10
0.125543
 20
30.6493
 30
0.000000
  70
    32
  0
VERTEX
  8
0
  5
4E4
 10
0.129395
 20
30.6507
 30
0.000000
  70
    32
  0
VERTEX
  8
0
  5
4E5
 10
0.133296
 20
30.6520
 30
0.000000
  70
    32
  0
VERTEX
  8
0
  5
4E6
 10
0.137244
 20
30.6533
 30
0.000000
  70
    32
  0
VERTEX
  8
0
  5
4E7
 10
0.141239
 20
30.6545
 30
0.000000
  70
    32
  0
VERTEX
  8
0
  5
4E8
 10
0.145281
 20
30.6557
 30
0.000000
  70
    32
  0
VERTEX
  8
0
  5
4E9
 10
0.149369
 20
30.6568
 30
0.000000
  70
    32
  0
VERTEX
  8
0
  5
4EA
 10
0.153503
 20
30.6579
 30
0.000000
  70
    32
  0
VERTEX
  8
0
  5
4EB
 10
0.157682
 20
30.6590
 30
0.000000
  70
    32
  0
VERTEX
  8
0
  5
4EC
 10
0.161907
 20
30.6601
 30
0.000000
  70
    32
  0
VERTEX
  8
0
  5
4ED
 10
0.166175
 20
30.6610
 30
0.000000
  70
    32
  0
VERTEX
  8
0
  5
4EE
 10
0.170488
 20
30.6620
 30
0.000000
  70
    32
  0
VERTEX
  8
0
  5
4EF
 10
0.174844
 20
30.6629
 30
0.000000
  70
    32
  0
VERTEX
  8
0
  5
4F0
 10
0.179243
 20
30.6638
 30
0.000000
  70
    32
  0
VERTEX
  8
0
  5
4F1
 10
0.183684
 20
30.6647
 30
0.000000
  70
    32
  0
VERTEX
  8
0
  5
4F2
 10
0.188168
 20
30.6655
 30
0.000000
  70
    32
  0
VERTEX
  8
0
  5
4F3
 10
0.192693
 20
30.6663
 30
0.000000
  70
    32
  0
VERTEX
  8
0
  5
4F4
 10
0.197260
 20
30.6670
 30
0.000000
  70
    32
  0
VERTEX
  8
0
  5
4F5
 10
0.201867
 20
30.6677
 30
0.000000
  70
    32
  0
VERTEX
  8
0
  5
4F6
 10
0.206514
 20
30.6684
 30
0.000000
  70
    32
  0
VERTEX
  8
0
  5
4F7
 10
0.211201
 20
30.6691
 30
0.000000
  70
    32
  0
VERTEX
  8
0
  5
4F8
 10
0.215927
 20
30.6697
 30
0.000000
  70
    32
  0
VERTEX
  8
0
  5
4F9
 10
0.220693
 20
30.6703
 30
0.000000
  70
    32
  0
VERTEX
  8
0
  5
4FA
 10
0.225496
 20
30.6709
 30
0.000000
  70
    32
  0
VERTEX
  8
0
  5
4FB
 10
0.230338
 20
30.6714
 30
0.000000
  70
    32
  0
VERTEX
  8
0
  5
4FC
 10
0.235216
 20
30.6719
 30
0.000000
  70
    32
  0
VERTEX
  8
0
  5
4FD
 10
0.240132
 20
30.6724
 30
0.000000
  70
    32
  0
VERTEX
  8
0
  5
4FE
 10
0.245085
 20
30.6728
 30
0.000000
  70
    32
  0
VERTEX
  8
0
  5
4FF
 10
0.250073
 20
30.6733
 30
0.000000
  70
    32
  0
VERTEX
  8
0
  5
500
 10
0.255097
 20
30.6737
 30
0.000000
  70
    32
  0
VERTEX
  8
0
  5
501
 10
0.260156
 20
30.6741
 30
0.000000
  70
    32
  0
VERTEX
  8
0
  5
502
 10
0.265250
 20
30.6744
 30
0.000000
  70
    32
  0
VERTEX
  8
0
  5
503
 10
0.270378
 20
30.6748
 30
0.000000
  70
    32
  0
VERTEX
  8
0
  5
504
 10
0.275539
 20
30.6751
 30
0.000000
  70
    32
  0
VERTEX
  8
0
  5
505
 10
0.280734
 20
30.6754
 30
0.000000
  70
    32
  0
VERTEX
  8
0
  5
506
 10
0.285962
 20
30.6757
 30
0.000000
  70
    32
  0
VERTEX
  8
0
  5
507
 10
0.291222
 20
30.6759
 30
0.000000
  70
    32
  0
VERTEX
  8
0
  5
508
 10
0.296513
 20
30.6762
 30
0.000000
  70
    32
  0
VERTEX
  8
0
  5
509
 10
0.301837
 20
30.6764
 30
0.000000
  70
    32
  0
VERTEX
  8
0
  5
50A
 10
0.307191
 20
30.6766
 30
0.000000
  70
    32
  0
VERTEX
  8
0
  5
50B
 10
0.312575
 20
30.6768
 30
0.000000
  70
    32
  0
VERTEX
  8
0
  5
50C
 10
0.317990
 20
30.6769
 30
0.000000
  70
    32
  0
VERTEX
  8
0
  5
50D
 10
0.323434
 20
30.6771
 30
0.000000
  70
    32
  0
VERTEX
  8
0
  5
50E
 10
0.328907
 20
30.6772
 30
0.000000
  70
    32
  0
VERTEX
  8
0
  5
50F
 10
0.334409
 20
30.6774
 30
0.000000
  70
    32
  0
VERTEX
  8
0
  5
510
 10
0.339939
 20
30.6775
 30
0.000000
  70
    32
  0
VERTEX
  8
0
  5
511
 10
0.345497
 20
30.6776
 30
0.000000
  70
    32
  0
VERTEX
  8
0
  5
512
 10
0.351081
 20
30.6777
 30
0.000000
  70
    32
  0
VERTEX
  8
0
  5
513
 10
0.356693
 20
30.6777
 30
0.000000
  70
    32
  0
VERTEX
  8
0
  5
514
 10
0.362331
 20
30.6778
 30
0.000000
  70
    32
  0
VERTEX
  8
0
  5
515
 10
0.367995
 20
30.6779
 30
0.000000
  70
    32
  0
VERTEX
  8
0
  5
516
 10
0.373684
 20
30.6779
 30
0.000000
  70
    32
  0
VERTEX
  8
0
  5
517
 10
0.379398
 20
30.6779
 30
0.000000
  70
    32
  0
VERTEX
  8
0
  5
518
 10
0.385136
 20
30.6780
 30
0.000000
  70
    32
  0
VERTEX
  8
0
  5
519
 10
0.390898
 20
30.6780
 30
0.000000
  70
    32
  0
VERTEX
  8
0
  5
51A
 10
0.396684
 20
30.6780
 30
0.000000
  70
    32
  0
VERTEX
  8
0
  5
51B
 10
0.402493
 20
30.6780
 30
0.000000
  70
    32
  0
VERTEX
  8
0
  5
51C
 10
0.408324
 20
30.6780
 30
0.000000
  70
    32
  0
VERTEX
  8
0
  5
51D
 10
0.414178
 20
30.6781
 30
0.000000
  70
    32
  0
VERTEX
  8
0
  5
51E
 10
0.420053
 20
30.6781
 30
0.000000
  70
    32
  0
VERTEX
  8
0
  5
51F
 10
0.425949
 20
30.6781
 30
0.000000
  70
    32
  0
VERTEX
  8
0
  5
520
 10
0.431866
 20
30.6781
 30
0.000000
  70
    32
  0
VERTEX
  8
0
  5
521
 10
0.437803
 20
30.6780
 30
0.000000
  70
    32
  0
VERTEX
  8
0
  5
522
 10
0.443760
 20
30.6780
 30
0.000000
  70
    32
  0
VERTEX
  8
0
  5
523
 10
0.449737
 20
30.6780
 30
0.000000
  70
    32
  0
VERTEX
  8
0
  5
524
 10
0.455732
 20
30.6780
 30
0.000000
  70
    32
  0
VERTEX
  8
0
  5
525
 10
0.461746
 20
30.6780
 30
0.000000
  70
    32
  0
SEQEND
  8
0
  5
526
  0
POLYLINE
  8
0
  5
527
  66
     1
 10
0.000000
 20
0.000000
 30
0.000000
  70
     8
  0
VERTEX
  8
0
  5
528
 10
0.461746
 20
30.6780
 30
0.000000
  70
    32
  0
VERTEX
  8
0
  5
529
 10
0.463311
 20
30.6780
 30
0.000000
  70
    32
  0
VERTEX
  8
0
  5
52A
 10
0.467974
 20
30.6780
 30
0.000000
  70
    32
  0
VERTEX
  8
0
  5
52B
 10
0.475685
 20
30.6780
 30
0.000000
  70
    32
  0
VERTEX
  8
0
  5
52C
 10
0.486395
 20
30.6780
 30
0.000000
  70
    32
  0
VERTEX
  8
0
  5
52D
 10
0.500054
 20
30.6780
 30
0.000000
  70
    32
  0
VERTEX
  8
0
  5
52E
 10
0.516613
 20
30.6780
 30
0.000000
  70
    32
  0
VERTEX
  8
0
  5
52F
 10
0.536021
 20
30.6780
 30
0.000000
  70
    32
  0
VERTEX
  8
0
  5
530
 10
0.558230
 20
30.6780
 30
0.000000
  70
    32
  0
VERTEX
  8
0
  5
531
 10
0.583190
 20
30.6780
 30
0.000000
  70
    32
  0
VERTEX
  8
0
  5
532
 10
0.610851
 20
30.6780
 30
0.000000
  70
    32
  0
VERTEX
  8
0
  5
533
 10
0.641163
 20
30.6780
 30
0.000000
  70
    32
  0
VERTEX
  8
0
  5
534
 10
0.674078
 20
30.6780
 30
0.000000
  70
    32
  0
VERTEX
  8
0
  5
535
 10
0.709545
 20
30.6780
 30
0.000000
  70
    32
  0
VERTEX
  8
0
  5
536
 10
0.747515
 20
30.6780
 30
0.000000
  70
    32
  0
VERTEX
  8
0
  5
537
 10
0.787939
 20
30.6780
 30
0.000000
  70
    32
  0
VERTEX
  8
0
  5
538
 10
0.830766
 20
30.6780
 30
0.000000
  70
    32
  0
VERTEX
  8
0
  5
539
 10
0.875948
 20
30.6780
 30
0.000000
  70
    32
  0
VERTEX
  8
0
  5
53A
 10
0.923435
 20
30.6780
 30
0.000000
  70
    32
  0
VERTEX
  8
0
  5
53B
 10
0.973176
 20
30.6780
 30
0.000000
  70
    32
  0
VERTEX
  8
0
  5
53C
 10
1.02512
 20
30.6780
 30
0.000000
  70
    32
  0
VERTEX
  8
0
  5
53D
 10
1.07923
 20
30.6780
 30
0.000000
  70
    32
  0
VERTEX
  8
0
  5
53E
 10
1.13544
 20
30.6780
 30
0.000000
  70
    32
  0
VERTEX
  8
0
  5
53F
 10
1.19370
 20
30.6780
 30
0.000000
  70
    32
  0
VERTEX
  8
0
  5
540
 10
1.25398
 20
30.6780
 30
0.000000
  70
    32
  0
VERTEX
  8
0
  5
541
 10
1.31621
 20
30.6780
 30
0.000000
  70
    32
  0
VERTEX
  8
0
  5
542
 10
1.38035
 20
30.6780
 30
0.000000
  70
    32
  0
VERTEX
  8
0
  5
543
 10
1.44635
 20
30.6780
 30
0.000000
  70
    32
  0
VERTEX
  8
0
  5
544
 10
1.51416
 20
30.6780
 30
0.000000
  70
    32
  0
VERTEX
  8
0
  5
545
 10
1.58372
 20
30.6780
 30
0.000000
  70
    32
  0
VERTEX
  8
0
  5
546
 10
1.65500
 20
30.6780
 30
0.000000
  70
    32
  0
VERTEX
  8
0
  5
547
 10
1.72794
 20
30.6780
 30
0.000000
  70
    32
  0
VERTEX
  8
0
  5
548
 10
1.80249
 20
30.6780
 30
0.000000
  70
    32
  0
VERTEX
  8
0
  5
549
 10
1.87860
 20
30.6780
 30
0.000000
  70
    32
  0
VERTEX
  8
0
  5
54A
 10
1.95622
 20
30.6780
 30
0.000000
  70
    32
  0
VERTEX
  8
0
  5
54B
 10
2.03530
 20
30.6780
 30
0.000000
  70
    32
  0
VERTEX
  8
0
  5
54C
 10
2.11580
 20
30.6780
 30
0.000000
  70
    32
  0
VERTEX
  8
0
  5
54D
 10
2.19766
 20
30.6780
 30
0.000000
  70
    32
  0
VERTEX
  8
0
  5
54E
 10
2.28083
 20
30.6780
 30
0.000000
  70
    32
  0
VERTEX
  8
0
  5
54F
 10
2.36526
 20
30.6780
 30
0.000000
  70
    32
  0
VERTEX
  8
0
  5
550
 10
2.45092
 20
30.6780
 30
0.000000
  70
    32
  0
VERTEX
  8
0
  5
551
 10
2.53773
 20
30.6780
 30
0.000000
  70
    32
  0
VERTEX
  8
0
  5
552
 10
2.62566
 20
30.6780
 30
0.000000
  70
    32
  0
VERTEX
  8
0
  5
553
 10
2.71466
 20
30.6780
 30
0.000000
  70
    32
  0
VERTEX
  8
0
  5
554
 10
2.80467
 20
30.6780
 30
0.000000
  70
    32
  0
VERTEX
  8
0
  5
555
 10
2.89565
 20
30.6780
 30
0.000000
  70
    32
  0
VERTEX
  8
0
  5
556
 10
2.98755
 20
30.6780
 30
0.000000
  70
    32
  0
VERTEX
  8
0
  5
557
 10
3.08031
 20
30.6780
 30
0.000000
  70
    32
  0
VERTEX
  8
0
  5
558
 10
3.17389
 20
30.6780
 30
0.000000
  70
    32
  0
VERTEX
  8
0
  5
559
 10
3.26824
 20
30.6780
 30
0.000000
  70
    32
  0
VERTEX
  8
0
  5
55A
 10
3.36331
 20
30.6780
 30
0.000000
  70
    32
  0
VERTEX
  8
0
  5
55B
 10
3.45904
 20
30.6780
 30
0.000000
  70
    32
  0
VERTEX
  8
0
  5
55C
 10
3.55540
 20
30.6780
 30
0.000000
  70
    32
  0
VERTEX
  8
0
  5
55D
 10
3.65233
 20
30.6780
 30
0.000000
  70
    32
  0
VERTEX
  8
0
  5
55E
 10
3.74977
 20
30.6780
 30
0.000000
  70
    32
  0
VERTEX
  8
0
  5
55F
 10
3.84769
 20
30.6780
 30
0.000000
  70
    32
  0
VERTEX
  8
0
  5
560
 10
3.94603
 20
30.6780
 30
0.000000
  70
    32
  0
VERTEX
  8
0
  5
561
 10
4.04474
 20
30.6780
 30
0.000000
  70
    32
  0
VERTEX
  8
0
  5
562
 10
4.14378
 20
30.6780
 30
0.000000
  70
    32
  0
VERTEX
  8
0
  5
563
 10
4.24308
 20
30.6780
 30
0.000000
  70
    32
  0
VERTEX
  8
0
  5
564
 10
4.34261
 20
30.6780
 30
0.000000
  70
    32
  0
VERTEX
  8
0
  5
565
 10
4.44231
 20
30.6780
 30
0.000000
  70
    32
  0
VERTEX
  8
0
  5
566
 10
4.54214
 20
30.6780
 30
0.000000
  70
    32
  0
VERTEX
  8
0
  5
567
 10
4.64204
 20
30.6780
 30
0.000000
  70
    32
  0
VERTEX
  8
0
  5
568
 10
4.74196
 20
30.6780
 30
0.000000
  70
    32
  0
VERTEX
  8
0
  5
569
 10
4.84186
 20
30.6780
 30
0.000000
  70
    32
  0
VERTEX
  8
0
  5
56A
 10
4.94169
 20
30.6780
 30
0.000000
  70
    32
  0
VERTEX
  8
0
  5
56B
 10
5.04139
 20
30.6780
 30
0.000000
  70
    32
  0
VERTEX
  8
0
  5
56C
 10
5.14092
 20
30.6780
 30
0.000000
  70
    32
  0
VERTEX
  8
0
  5
56D
 10
5.24023
 20
30.6780
 30
0.000000
  70
    32
  0
VERTEX
  8
0
  5
56E
 10
5.33926
 20
30.6780
 30
0.000000
  70
    32
  0
VERTEX
  8
0
  5
56F
 10
5.43797
 20
30.6780
 30
0.000000
  70
    32
  0
VERTEX
  8
0
  5
570
 10
5.53631
 20
30.6780
 30
0.000000
  70
    32
  0
VERTEX
  8
0
  5
571
 10
5.63423
 20
30.6780
 30
0.000000
  70
    32
  0
VERTEX
  8
0
  5
572
 10
5.73168
 20
30.6780
 30
0.000000
  70
    32
  0
VERTEX
  8
0
  5
573
 10
5.82860
 20
30.6780
 30
0.000000
  70
    32
  0
VERTEX
  8
0
  5
574
 10
5.92496
 20
30.6780
 30
0.000000
  70
    32
  0
VERTEX
  8
0
  5
575
 10
6.02070
 20
30.6780
 30
0.000000
  70
    32
  0
VERTEX
  8
0
  5
576
 10
6.11576
 20
30.6780
 30
0.000000
  70
    32
  0
VERTEX
  8
0
  5
577
 10
6.21011
 20
30.6780
 30
0.000000
  70
    32
  0
VERTEX
  8
0
  5
578
 10
6.30369
 20
30.6780
 30
0.000000
  70
    32
  0
VERTEX
  8
0
  5
579
 10
6.39646
 20
30.6780
 30
0.000000
  70
    32
  0
VERTEX
  8
0
  5
57A
 10
6.48835
 20
30.6780
 30
0.000000
  70
    32
  0
VERTEX
  8
0
  5
57B
 10
6.57933
 20
30.6780
 30
0.000000
  70
    32
  0
VERTEX
  8
0
  5
57C
 10
6.66934
 20
30.6780
 30
0.000000
  70
    32
  0
VERTEX
  8
0
  5
57D
 10
6.75834
 20
30.6780
 30
0.000000
  70
    32
  0
VERTEX
  8
0
  5
57E
 10
6.84627
 20
30.6780
 30
0.000000
  70
    32
  0
VERTEX
  8
0
  5
57F
 10
6.93309
 20
30.6780
 30
0.000000
  70
    32
  0
VERTEX
  8
0
  5
580
 10
7.01874
 20
30.6780
 30
0.000000
  70
    32
  0
VERTEX
  8
0
  5
581
 10
7.10317
 20
30.6780
 30
0.000000
  70
    32
  0
VERTEX
  8
0
  5
582
 10
7.18635
 20
30.6780
 30
0.000000
  70
    32
  0
VERTEX
  8
0
  5
583
 10
7.26821
 20
30.6780
 30
0.000000
  70
    32
  0
VERTEX
  8
0
  5
584
 10
7.34870
 20
30.6780
 30
0.000000
  70
    32
  0
VERTEX
  8
0
  5
585
 10
7.42779
 20
30.6780
 30
0.000000
  70
    32
  0
VERTEX
  8
0
  5
586
 10
7.50541
 20
30.6780
 30
0.000000
  70
    32
  0
VERTEX
  8
0
  5
587
 10
7.58152
 20
30.6780
 30
0.000000
  70
    32
  0
VERTEX
  8
0
  5
588
 10
7.65607
 20
30.6780
 30
0.000000
  70
    32
  0
VERTEX
  8
0
  5
589
 10
7.72900
 20
30.6780
 30
0.000000
  70
    32
  0
VERTEX
  8
0
  5
58A
 10
7.80028
 20
30.6780
 30
0.000000
  70
    32
  0
VERTEX
  8
0
  5
58B
 10
7.86985
 20
30.6780
 30
0.000000
  70
    32
  0
VERTEX
  8
0
  5
58C
 10
7.93765
 20
30.6780
 30
0.000000
  70
    32
  0
VERTEX
  8
0
  5
58D
 10
8.00365
 20
30.6780
 30
0.000000
  70
    32
  0
VERTEX
  8
0
  5
58E
 10
8.06779
 20
30.6780
 30
0.000000
  70
    32
  0
VERTEX
  8
0
  5
58F
 10
8.13003
 20
30.6780
 30
0.000000
  70
    32
  0
VERTEX
  8
0
  5
590
 10
8.19030
 20
30.6780
 30
0.000000
  70
    32
  0
VERTEX
  8
0
  5
591
 10
8.24857
 20
30.6780
 30
0.000000
  70
    32
  0
VERTEX
  8
0
  5
592
 10
8.30478
 20
30.6780
 30
0.000000
  70
    32
  0
VERTEX
  8
0
  5
593
 10
8.35888
 20
30.6780
 30
0.000000
  70
    32
  0
VERTEX
  8
0
  5
594
 10
8.41083
 20
30.6780
 30
0.000000
  70
    32
  0
VERTEX
  8
0
  5
595
 10
8.46057
 20
30.6780
 30
0.000000
  70
    32
  0
VERTEX
  8
0
  5
596
 10
8.50805
 20
30.6780
 30
0.000000
  70
    32
  0
VERTEX
  8
0
  5
597
 10
8.55324
 20
30.6780
 30
0.000000
  70
    32
  0
VERTEX
  8
0
  5
598
 10
8.59606
 20
30.6780
 30
0.000000
  70
    32
  0
VERTEX
  8
0
  5
599
 10
8.63649
 20
30.6780
 30
0.000000
  70
    32
  0
VERTEX
  8
0
  5
59A
 10
8.67446
 20
30.6780
 30
0.000000
  70
    32
  0
VERTEX
  8
0
  5
59B
 10
8.70992
 20
30.6780
 30
0.000000
  70
    32
  0
VERTEX
  8
0
  5
59C
 10
8.74284
 20
30.6780
 30
0.000000
  70
    32
  0
VERTEX
  8
0
  5
59D
 10
8.77315
 20
30.6780
 30
0.000000
  70
    32
  0
VERTEX
  8
0
  5
59E
 10
8.80081
 20
30.6780
 30
0.000000
  70
    32
  0
VERTEX
  8
0
  5
59F
 10
8.82577
 20
30.6780
 30
0.000000
  70
    32
  0
VERTEX
  8
0
  5
5A0
 10
8.84798
 20
30.6780
 30
0.000000
  70
    32
  0
VERTEX
  8
0
  5
5A1
 10
8.86739
 20
30.6780
 30
0.000000
  70
    32
  0
VERTEX
  8
0
  5
5A2
 10
8.88395
 20
30.6780
 30
0.000000
  70
    32
  0
VERTEX
  8
0
  5
5A3
 10
8.89761
 20
30.6780
 30
0.000000
  70
    32
  0
VERTEX
  8
0
  5
5A4
 10
8.90832
 20
30.6780
 30
0.000000
  70
    32
  0
VERTEX
  8
0
  5
5A5
 10
8.91603
 20
30.6780
 30
0.000000
  70
    32
  0
VERTEX
  8
0
  5
5A6
 10
8.92069
 20
30.6780
 30
0.000000
  70
    32
  0
VERTEX
  8
0
  5
5A7
 10
8.92226
 20
30.6780
 30
0.000000
  70
    32
  0
SEQEND
  8
0
  5
5A8
  0
POLYLINE
  8
0
  5
5A9
  66
     1
 10
0.000000
 20
0.000000
 30
0.000000
  70
     8
  0
VERTEX
  8
0
  5
5AA
 10
8.92226
 20
30.6780
 30
0.000000
  70
    32
  0
VERTEX
  8
0
  5
5AB
 10
8.92827
 20
30.6780
 30
0.000000
  70
    32
  0
VERTEX
  8
0
  5
5AC
 10
8.93427
 20
30.6780
 30
0.000000
  70
    32
  0
VERTEX
  8
0
  5
5AD
 10
8.94025
 20
30.6780
 30
0.000000
  70
    32
  0
VERTEX
  8
0
  5
5AE
 10
8.94622
 20
30.6780
 30
0.000000
  70
    32
  0
VERTEX
  8
0
  5
5AF
 10
8.95216
 20
30.6781
 30
0.000000
  70
    32
  0
VERTEX
  8
0
  5
5B0
 10
8.95808
 20
30.6781
 30
0.000000
  70
    32
  0
VERTEX
  8
0
  5
5B1
 10
8.96398
 20
30.6781
 30
0.000000
  70
    32
  0
VERTEX
  8
0
  5
5B2
 10
8.96986
 20
30.6781
 30
0.000000
  70
    32
  0
VERTEX
  8
0
  5
5B3
 10
8.97571
 20
30.6780
 30
0.000000
  70
    32
  0
VERTEX
  8
0
  5
5B4
 10
8.98155
 20
30.6780
 30
0.000000
  70
    32
  0
VERTEX
  8
0
  5
5B5
 10
8.98736
 20
30.6780
 30
0.000000
  70
    32
  0
VERTEX
  8
0
  5
5B6
 10
8.99315
 20
30.6780
 30
0.000000
  70
    32
  0
VERTEX
  8
0
  5
5B7
 10
8.99892
 20
30.6780
 30
0.000000
  70
    32
  0
VERTEX
  8
0
  5
5B8
 10
9.00466
 20
30.6779
 30
0.000000
  70
    32
  0
VERTEX
  8
0
  5
5B9
 10
9.01037
 20
30.6779
 30
0.000000
  70
    32
  0
VERTEX
  8
0
  5
5BA
 10
9.01607
 20
30.6779
 30
0.000000
  70
    32
  0
VERTEX
  8
0
  5
5BB
 10
9.02173
 20
30.6778
 30
0.000000
  70
    32
  0
VERTEX
  8
0
  5
5BC
 10
9.02737
 20
30.6777
 30
0.000000
  70
    32
  0
VERTEX
  8
0
  5
5BD
 10
9.03299
 20
30.6777
 30
0.000000
  70
    32
  0
VERTEX
  8
0
  5
5BE
 10
9.03858
 20
30.6776
 30
0.000000
  70
    32
  0
VERTEX
  8
0
  5
5BF
 10
9.04414
 20
30.6775
 30
0.000000
  70
    32
  0
VERTEX
  8
0
  5
5C0
 10
9.04967
 20
30.6774
 30
0.000000
  70
    32
  0
VERTEX
  8
0
  5
5C1
 10
9.05517
 20
30.6772
 30
0.000000
  70
    32
  0
VERTEX
  8
0
  5
5C2
 10
9.06065
 20
30.6771
 30
0.000000
  70
    32
  0
VERTEX
  8
0
  5
5C3
 10
9.06610
 20
30.6769
 30
0.000000
  70
    32
  0
VERTEX
  8
0
  5
5C4
 10
9.07151
 20
30.6768
 30
0.000000
  70
    32
  0
VERTEX
  8
0
  5
5C5
 10
9.07690
 20
30.6766
 30
0.000000
  70
    32
  0
VERTEX
  8
0
  5
5C6
 10
9.08226
 20
30.6764
 30
0.000000
  70
    32
  0
VERTEX
  8
0
  5
5C7
 10
9.08758
 20
30.6762
 30
0.000000
  70
    32
  0
VERTEX
  8
0
  5
5C8
 10
9.09288
 20
30.6759
 30
0.000000
  70
    32
  0
VERTEX
  8
0
  5
5C9
 10
9.09814
 20
30.6757
 30
0.000000
  70
    32
  0
VERTEX
  8
0
  5
5CA
 10
9.10337
 20
30.6754
 30
0.000000
  70
    32
  0
VERTEX
  8
0
  5
5CB
 10
9.10857
 20
30.6751
 30
0.000000
  70
    32
  0
VERTEX
  8
0
  5
5CC
 10
9.11373
 20
30.6748
 30
0.000000
  70
    32
  0
VERTEX
  8
0
  5
5CD
 10
9.11886
 20
30.6744
 30
0.000000
  70
    32
  0
VERTEX
  8
0
  5
5CE
 10
9.12396
 20
30.6741
 30
0.000000
  70
    32
  0
VERTEX
  8
0
  5
5CF
 10
9.12902
 20
30.6737
 30
0.000000
  70
    32
  0
VERTEX
  8
0
  5
5D0
 10
9.13405
 20
30.6733
 30
0.000000
  70
    32
  0
VERTEX
  8
0
  5
5D1
 10
9.13904
 20
30.6728
 30
0.000000
  70
    32
  0
VERTEX
  8
0
  5
5D2
 10
9.14399
 20
30.6724
 30
0.000000
  70
    32
  0
VERTEX
  8
0
  5
5D3
 10
9.14891
 20
30.6719
 30
0.000000
  70
    32
  0
VERTEX
  8
0
  5
5D4
 10
9.15379
 20
30.6714
 30
0.000000
  70
    32
  0
VERTEX
  8
0
  5
5D5
 10
9.15863
 20
30.6709
 30
0.000000
  70
    32
  0
VERTEX
  8
0
  5
5D6
 10
9.16344
 20
30.6703
 30
0.000000
  70
    32
  0
VERTEX
  8
0
  5
5D7
 10
9.16820
 20
30.6697
 30
0.000000
  70
    32
  0
VERTEX
  8
0
  5
5D8
 10
9.17293
 20
30.6691
 30
0.000000
  70
    32
  0
VERTEX
  8
0
  5
5D9
 10
9.17762
 20
30.6684
 30
0.000000
  70
    32
  0
VERTEX
  8
0
  5
5DA
 10
9.18227
 20
30.6677
 30
0.000000
  70
    32
  0
VERTEX
  8
0
  5
5DB
 10
9.18688
 20
30.6670
 30
0.000000
  70
    32
  0
VERTEX
  8
0
  5
5DC
 10
9.19145
 20
30.6663
 30
0.000000
  70
    32
  0
VERTEX
  8
0
  5
5DD
 10
9.19597
 20
30.6655
 30
0.000000
  70
    32
  0
VERTEX
  8
0
  5
5DE
 10
9.20046
 20
30.6647
 30
0.000000
  70
    32
  0
VERTEX
  8
0
  5
5DF
 10
9.20490
 20
30.6638
 30
0.000000
  70
    32
  0
VERTEX
  8
0
  5
5E0
 10
9.20930
 20
30.6629
 30
0.000000
  70
    32
  0
VERTEX
  8
0
  5
5E1
 10
9.21366
 20
30.6620
 30
0.000000
  70
    32
  0
VERTEX
  8
0
  5
5E2
 10
9.21797
 20
30.6610
 30
0.000000
  70
    32
  0
VERTEX
  8
0
  5
5E3
 10
9.22224
 20
30.6601
 30
0.000000
  70
    32
  0
VERTEX
  8
0
  5
5E4
 10
9.22647
 20
30.6590
 30
0.000000
  70
    32
  0
VERTEX
  8
0
  5
5E5
 10
9.23065
 20
30.6579
 30
0.000000
  70
    32
  0
VERTEX
  8
0
  5
5E6
 10
9.23478
 20
30.6568
 30
0.000000
  70
    32
  0
VERTEX
  8
0
  5
5E7
 10
9.23887
 20
30.6557
 30
0.000000
  70
    32
  0
VERTEX
  8
0
  5
5E8
 10
9.24292
 20
30.6545
 30
0.000000
  70
    32
  0
VERTEX
  8
0
  5
5E9
 10
9.24691
 20
30.6533
 30
0.000000
  70
    32
  0
VERTEX
  8
0
  5
5EA
 10
9.25086
 20
30.6520
 30
0.000000
  70
    32
  0
VERTEX
  8
0
  5
5EB
 10
9.25476
 20
30.6507
 30
0.000000
  70
    32
  0
VERTEX
  8
0
  5
5EC
 10
9.25862
 20
30.6493
 30
0.000000
  70
    32
  0
VERTEX
  8
0
  5
5ED
 10
9.26242
 20
30.6479
 30
0.000000
  70
    32
  0
VERTEX
  8
0
  5
5EE
 10
9.26618
 20
30.6464
 30
0.000000
  70
    32
  0
VERTEX
  8
0
  5
5EF
 10
9.26988
 20
30.6450
 30
0.000000
  70
    32
  0
VERTEX
  8
0
  5
5F0
 10
9.27354
 20
30.6434
 30
0.000000
  70
    32
  0
VERTEX
  8
0
  5
5F1
 10
9.27714
 20
30.6418
 30
0.000000
  70
    32
  0
VERTEX
  8
0
  5
5F2
 10
9.28070
 20
30.6402
 30
0.000000
  70
    32
  0
VERTEX
  8
0
  5
5F3
 10
9.28420
 20
30.6385
 30
0.000000
  70
    32
  0
VERTEX
  8
0
  5
5F4
 10
9.28765
 20
30.6368
 30
0.000000
  70
    32
  0
VERTEX
  8
0
  5
5F5
 10
9.29105
 20
30.6350
 30
0.000000
  70
    32
  0
VERTEX
  8
0
  5
5F6
 10
9.29440
 20
30.6331
 30
0.000000
  70
    32
  0
VERTEX
  8
0
  5
5F7
 10
9.29769
 20
30.6312
 30
0.000000
  70
    32
  0
VERTEX
  8
0
  5
5F8
 10
9.30093
 20
30.6293
 30
0.000000
  70
    32
  0
VERTEX
  8
0
  5
5F9
 10
9.30412
 20
30.6273
 30
0.000000
  70
    32
  0
VERTEX
  8
0
  5
5FA
 10
9.30725
 20
30.6253
 30
0.000000
  70
    32
  0
VERTEX
  8
0
  5
5FB
 10
9.31032
 20
30.6232
 30
0.000000
  70
    32
  0
VERTEX
  8
0
  5
5FC
 10
9.31334
 20
30.6210
 30
0.000000
  70
    32
  0
VERTEX
  8
0
  5
5FD
 10
9.31630
 20
30.6188
 30
0.000000
  70
    32
  0
VERTEX
  8
0
  5
5FE
 10
9.31921
 20
30.6165
 30
0.000000
  70
    32
  0
VERTEX
  8
0
  5
5FF
 10
9.32206
 20
30.6142
 30
0.000000
  70
    32
  0
VERTEX
  8
0
  5
600
 10
9.32485
 20
30.6118
 30
0.000000
  70
    32
  0
VERTEX
  8
0
  5
601
 10
9.32759
 20
30.6094
 30
0.000000
  70
    32
  0
VERTEX
  8
0
  5
602
 10
9.33027
 20
30.6069
 30
0.000000
  70
    32
  0
VERTEX
  8
0
  5
603
 10
9.33288
 20
30.6043
 30
0.000000
  70
    32
  0
VERTEX
  8
0
  5
604
 10
9.33544
 20
30.6017
 30
0.000000
  70
    32
  0
VERTEX
  8
0
  5
605
 10
9.33794
 20
30.5990
 30
0.000000
  70
    32
  0
VERTEX
  8
0
  5
606
 10
9.34038
 20
30.5963
 30
0.000000
  70
    32
  0
VERTEX
  8
0
  5
607
 10
9.34276
 20
30.5935
 30
0.000000
  70
    32
  0
VERTEX
  8
0
  5
608
 10
9.34507
 20
30.5906
 30
0.000000
  70
    32
  0
VERTEX
  8
0
  5
609
 10
9.34733
 20
30.5877
 30
0.000000
  70
    32
  0
VERTEX
  8
0
  5
60A
 10
9.34952
 20
30.5847
 30
0.000000
  70
    32
  0
VERTEX
  8
0
  5
60B
 10
9.35165
 20
30.5816
 30
0.000000
  70
    32
  0
VERTEX
  8
0
  5
60C
 10
9.35372
 20
30.5785
 30
0.000000
  70
    32
  0
VERTEX
  8
0
  5
60D
 10
9.35572
 20
30.5753
 30
0.000000
  70
    32
  0
VERTEX
  8
0
  5
60E
 10
9.35766
 20
30.5720
 30
0.000000
  70
    32
  0
VERTEX
  8
0
  5
60F
 10
9.35954
 20
30.5687
 30
0.000000
  70
    32
  0
VERTEX
  8
0
  5
610
 10
9.36135
 20
30.5653
 30
0.000000
  70
    32
  0
VERTEX
  8
0
  5
611
 10
9.36309
 20
30.5618
 30
0.000000
  70
    32
  0
VERTEX
  8
0
  5
612
 10
9.36477
 20
30.5583
 30
0.000000
  70
    32
  0
VERTEX
  8
0
  5
613
 10
9.36639
 20
30.5547
 30
0.000000
  70
    32
  0
VERTEX
  8
0
  5
614
 10
9.36793
 20
30.5510
 30
0.000000
  70
    32
  0
VERTEX
  8
0
  5
615
 10
9.36941
 20
30.5472
 30
0.000000
  70
    32
  0
VERTEX
  8
0
  5
616
 10
9.37082
 20
30.5434
 30
0.000000
  70
    32
  0
VERTEX
  8
0
  5
617
 10
9.37217
 20
30.5395
 30
0.000000
  70
    32
  0
VERTEX
  8
0
  5
618
 10
9.37344
 20
30.5355
 30
0.000000
  70
    32
  0
VERTEX
  8
0
  5
619
 10
9.37465
 20
30.5314
 30
0.000000
  70
    32
  0
VERTEX
  8
0
  5
61A
 10
9.37579
 20
30.5273
 30
0.000000
  70
    32
  0
VERTEX
  8
0
  5
61B
 10
9.37685
 20
30.5231
 30
0.000000
  70
    32
  0
VERTEX
  8
0
  5
61C
 10
9.37785
 20
30.5188
 30
0.000000
  70
    32
  0
VERTEX
  8
0
  5
61D
 10
9.37877
 20
30.5144
 30
0.000000
  70
    32
  0
VERTEX
  8
0
  5
61E
 10
9.37963
 20
30.5100
 30
0.000000
  70
    32
  0
VERTEX
  8
0
  5
61F
 10
9.38041
 20
30.5055
 30
0.000000
  70
    32
  0
VERTEX
  8
0
  5
620
 10
9.38112
 20
30.5009
 30
0.000000
  70
    32
  0
VERTEX
  8
0
  5
621
 10
9.38176
 20
30.4962
 30
0.000000
  70
    32
  0
VERTEX
  8
0
  5
622
 10
9.38232
 20
30.4914
 30
0.000000
  70
    32
  0
VERTEX
  8
0
  5
623
 10
9.38281
 20
30.4866
 30
0.000000
  70
    32
  0
VERTEX
  8
0
  5
624
 10
9.38323
 20
30.4816
 30
0.000000
  70
    32
  0
VERTEX
  8
0
  5
625
 10
9.38357
 20
30.4766
 30
0.000000
  70
    32
  0
VERTEX
  8
0
  5
626
 10
9.38383
 20
30.4715
 30
0.000000
  70
    32
  0
VERTEX
  8
0
  5
627
 10
9.38403
 20
30.4663
 30
0.000000
  70
    32
  0
VERTEX
  8
0
  5
628
 10
9.38414
 20
30.4611
 30
0.000000
  70
    32
  0
VERTEX
  8
0
  5
629
 10
9.38418
 20
30.4557
 30
0.000000
  70
    32
  0
SEQEND
  8
0
  5
62A
  0
POLYLINE
  8
0
  5
62B
  66
     1
 10
0.000000
 20
0.000000
 30
0.000000
  70
     8
  0
VERTEX
  8
0
  5
62C
 10
9.38418
 20
30.4557
 30
0.000000
  70
    32
  0
VERTEX
  8
0
  5
62D
 10
9.38418
 20
30.4554
 30
0.000000
  70
    32
  0
VERTEX
  8
0
  5
62E
 10
9.38418
 20
30.4546
 30
0.000000
  70
    32
  0
VERTEX
  8
0
  5
62F
 10
9.38418
 20
30.4533
 30
0.000000
  70
    32
  0
VERTEX
  8
0
  5
630
 10
9.38418
 20
30.4514
 30
0.000000
  70
    32
  0
VERTEX
  8
0
  5
631
 10
9.38418
 20
30.4490
 30
0.000000
  70
    32
  0
VERTEX
  8
0
  5
632
 10
9.38418
 20
30.4460
 30
0.000000
  70
    32
  0
VERTEX
  8
0
  5
633
 10
9.38418
 20
30.4426
 30
0.000000
  70
    32
  0
VERTEX
  8
0
  5
634
 10
9.38418
 20
30.4387
 30
0.000000
  70
    32
  0
VERTEX
  8
0
  5
635
 10
9.38418
 20
30.4343
 30
0.000000
  70
    32
  0
VERTEX
  8
0
  5
636
 10
9.38418
 20
30.4294
 30
0.000000
  70
    32
  0
VERTEX
  8
0
  5
637
 10
9.38418
 20
30.4240
 30
0.000000
  70
    32
  0
VERTEX
  8
0
  5
638
 10
9.38418
 20
30.4182
 30
0.000000
  70
    32
  0
VERTEX
  8
0
  5
639
 10
9.38418
 20
30.4120
 30
0.000000
  70
    32
  0
VERTEX
  8
0
  5
63A
 10
9.38418
 20
30.4053
 30
0.000000
  70
    32
  0
VERTEX
  8
0
  5
63B
 10
9.38418
 20
30.3981
 30
0.000000
  70
    32
  0
VERTEX
  8
0
  5
63C
 10
9.38418
 20
30.3906
 30
0.000000
  70
    32
  0
VERTEX
  8
0
  5
63D
 10
9.38418
 20
30.3826
 30
0.000000
  70
    32
  0
VERTEX
  8
0
  5
63E
 10
9.38418
 20
30.3742
 30
0.000000
  70
    32
  0
VERTEX
  8
0
  5
63F
 10
9.38418
 20
30.3654
 30
0.000000
  70
    32
  0
VERTEX
  8
0
  5
640
 10
9.38418
 20
30.3562
 30
0.000000
  70
    32
  0
VERTEX
  8
0
  5
641
 10
9.38418
 20
30.3467
 30
0.000000
  70
    32
  0
VERTEX
  8
0
  5
642
 10
9.38418
 20
30.3367
 30
0.000000
  70
    32
  0
VERTEX
  8
0
  5
643
 10
9.38418
 20
30.3265
 30
0.000000
  70
    32
  0
VERTEX
  8
0
  5
644
 10
9.38418
 20
30.3158
 30
0.000000
  70
    32
  0
VERTEX
  8
0
  5
645
 10
9.38418
 20
30.3048
 30
0.000000
  70
    32
  0
VERTEX
  8
0
  5
646
 10
9.38418
 20
30.2935
 30
0.000000
  70
    32
  0
VERTEX
  8
0
  5
647
 10
9.38418
 20
30.2818
 30
0.000000
  70
    32
  0
VERTEX
  8
0
  5
648
 10
9.38418
 20
30.2699
 30
0.000000
  70
    32
  0
VERTEX
  8
0
  5
649
 10
9.38418
 20
30.2576
 30
0.000000
  70
    32
  0
VERTEX
  8
0
  5
64A
 10
9.38418
 20
30.2450
 30
0.000000
  70
    32
  0
VERTEX
  8
0
  5
64B
 10
9.38418
 20
30.2321
 30
0.000000
  70
    32
  0
VERTEX
  8
0
  5
64C
 10
9.38418
 20
30.2189
 30
0.000000
  70
    32
  0
VERTEX
  8
0
  5
64D
 10
9.38418
 20
30.2055
 30
0.000000
  70
    32
  0
VERTEX
  8
0
  5
64E
 10
9.38418
 20
30.1918
 30
0.000000
  70
    32
  0
VERTEX
  8
0
  5
64F
 10
9.38418
 20
30.1778
 30
0.000000
  70
    32
  0
VERTEX
  8
0
  5
650
 10
9.38418
 20
30.1636
 30
0.000000
  70
    32
  0
VERTEX
  8
0
  5
651
 10
9.38418
 20
30.1492
 30
0.000000
  70
    32
  0
VERTEX
  8
0
  5
652
 10
9.38418
 20
30.1345
 30
0.000000
  70
    32
  0
VERTEX
  8
0
  5
653
 10
9.38418
 20
30.1196
 30
0.000000
  70
    32
  0
VERTEX
  8
0
  5
654
 10
9.38418
 20
30.1044
 30
0.000000
  70
    32
  0
VERTEX
  8
0
  5
655
 10
9.38418
 20
30.0891
 30
0.000000
  70
    32
  0
VERTEX
  8
0
  5
656
 10
9.38418
 20
30.0736
 30
0.000000
  70
    32
  0
VERTEX
  8
0
  5
657
 10
9.38418
 20
30.0579
 30
0.000000
  70
    32
  0
VERTEX
  8
0
  5
658
 10
9.38418
 20
30.0420
 30
0.000000
  70
    32
  0
VERTEX
  8
0
  5
659
 10
9.38418
 20
30.0259
 30
0.000000
  70
    32
  0
VERTEX
  8
0
  5
65A
 10
9.38418
 20
30.0097
 30
0.000000
  70
    32
  0
VERTEX
  8
0
  5
65B
 10
9.38418
 20
29.9933
 30
0.000000
  70
    32
  0
VERTEX
  8
0
  5
65C
 10
9.38418
 20
29.9768
 30
0.000000
  70
    32
  0
VERTEX
  8
0
  5
65D
 10
9.38418
 20
29.9601
 30
0.000000
  70
    32
  0
VERTEX
  8
0
  5
65E
 10
9.38418
 20
29.9433
 30
0.000000
  70
    32
  0
VERTEX
  8
0
  5
65F
 10
9.38418
 20
29.9264
 30
0.000000
  70
    32
  0
VERTEX
  8
0
  5
660
 10
9.38418
 20
29.9094
 30
0.000000
  70
    32
  0
VERTEX
  8
0
  5
661
 10
9.38418
 20
29.8923
 30
0.000000
  70
    32
  0
VERTEX
  8
0
  5
662
 10
9.38418
 20
29.8751
 30
0.000000
  70
    32
  0
VERTEX
  8
0
  5
663
 10
9.38418
 20
29.8578
 30
0.000000
  70
    32
  0
VERTEX
  8
0
  5
664
 10
9.38418
 20
29.8404
 30
0.000000
  70
    32
  0
VERTEX
  8
0
  5
665
 10
9.38418
 20
29.8230
 30
0.000000
  70
    32
  0
VERTEX
  8
0
  5
666
 10
9.38418
 20
29.8055
 30
0.000000
  70
    32
  0
VERTEX
  8
0
  5
667
 10
9.38418
 20
29.7879
 30
0.000000
  70
    32
  0
VERTEX
  8
0
  5
668
 10
9.38418
 20
29.7704
 30
0.000000
  70
    32
  0
VERTEX
  8
0
  5
669
 10
9.38418
 20
29.7528
 30
0.000000
  70
    32
  0
VERTEX
  8
0
  5
66A
 10
9.38418
 20
29.7351
 30
0.000000
  70
    32
  0
VERTEX
  8
0
  5
66B
 10
9.38418
 20
29.7175
 30
0.000000
  70
    32
  0
VERTEX
  8
0
  5
66C
 10
9.38418
 20
29.6998
 30
0.000000
  70
    32
  0
VERTEX
  8
0
  5
66D
 10
9.38418
 20
29.6822
 30
0.000000
  70
    32
  0
VERTEX
  8
0
  5
66E
 10
9.38418
 20
29.6646
 30
0.000000
  70
    32
  0
VERTEX
  8
0
  5
66F
 10
9.38418
 20
29.6470
 30
0.000000
  70
    32
  0
VERTEX
  8
0
  5
670
 10
9.38418
 20
29.6294
 30
0.000000
  70
    32
  0
VERTEX
  8
0
  5
671
 10
9.38418
 20
29.6119
 30
0.000000
  70
    32
  0
VERTEX
  8
0
  5
672
 10
9.38418
 20
29.5944
 30
0.000000
  70
    32
  0
VERTEX
  8
0
  5
673
 10
9.38418
 20
29.5769
 30
0.000000
  70
    32
  0
VERTEX
  8
0
  5
674
 10
9.38418
 20
29.5596
 30
0.000000
  70
    32
  0
VERTEX
  8
0
  5
675
 10
9.38418
 20
29.5423
 30
0.000000
  70
    32
  0
VERTEX
  8
0
  5
676
 10
9.38418
 20
29.5251
 30
0.000000
  70
    32
  0
VERTEX
  8
0
  5
677
 10
9.38418
 20
29.5079
 30
0.000000
  70
    32
  0
VERTEX
  8
0
  5
678
 10
9.38418
 20
29.4909
 30
0.000000
  70
    32
  0
VERTEX
  8
0
  5
679
 10
9.38418
 20
29.4740
 30
0.000000
  70
    32
  0
VERTEX
  8
0
  5
67A
 10
9.38418
 20
29.4572
 30
0.000000
  70
    32
  0
VERTEX
  8
0
  5
67B
 10
9.38418
 20
29.4406
 30
0.000000
  70
    32
  0
VERTEX
  8
0
  5
67C
 10
9.38418
 20
29.4240
 30
0.000000
  70
    32
  0
VERTEX
  8
0
  5
67D
 10
9.38418
 20
29.4077
 30
0.000000
  70
    32
  0
VERTEX
  8
0
  5
67E
 10
9.38418
 20
29.3914
 30
0.000000
  70
    32
  0
VERTEX
  8
0
  5
67F
 10
9.38418
 20
29.3754
 30
0.000000
  70
    32
  0
VERTEX
  8
0
  5
680
 10
9.38418
 20
29.3595
 30
0.000000
  70
    32
  0
VERTEX
  8
0
  5
681
 10
9.38418
 20
29.3438
 30
0.000000
  70
    32
  0
VERTEX
  8
0
  5
682
 10
9.38418
 20
29.3282
 30
0.000000
  70
    32
  0
VERTEX
  8
0
  5
683
 10
9.38418
 20
29.3129
 30
0.000000
  70
    32
  0
VERTEX
  8
0
  5
684
 10
9.38418
 20
29.2978
 30
0.000000
  70
    32
  0
VERTEX
  8
0
  5
685
 10
9.38418
 20
29.2829
 30
0.000000
  70
    32
  0
VERTEX
  8
0
  5
686
 10
9.38418
 20
29.2682
 30
0.000000
  70
    32
  0
VERTEX
  8
0
  5
687
 10
9.38418
 20
29.2537
 30
0.000000
  70
    32
  0
VERTEX
  8
0
  5
688
 10
9.38418
 20
29.2395
 30
0.000000
  70
    32
  0
VERTEX
  8
0
  5
689
 10
9.38418
 20
29.2255
 30
0.000000
  70
    32
  0
VERTEX
  8
0
  5
68A
 10
9.38418
 20
29.2118
 30
0.000000
  70
    32
  0
VERTEX
  8
0
  5
68B
 10
9.38418
 20
29.1984
 30
0.000000
  70
    32
  0
VERTEX
  8
0
  5
68C
 10
9.38418
 20
29.1852
 30
0.000000
  70
    32
  0
VERTEX
  8
0
  5
68D
 10
9.38418
 20
29.1723
 30
0.000000
  70
    32
  0
VERTEX
  8
0
  5
68E
 10
9.38418
 20
29.1598
 30
0.000000
  70
    32
  0
VERTEX
  8
0
  5
68F
 10
9.38418
 20
29.1475
 30
0.000000
  70
    32
  0
VERTEX
  8
0
  5
690
 10
9.38418
 20
29.1355
 30
0.000000
  70
    32
  0
VERTEX
  8
0
  5
691
 10
9.38418
 20
29.1238
 30
0.000000
  70
    32
  0
VERTEX
  8
0
  5
692
 10
9.38418
 20
29.1125
 30
0.000000
  70
    32
  0
VERTEX
  8
0
  5
693
 10
9.38418
 20
29.1015
 30
0.000000
  70
    32
  0
VERTEX
  8
0
  5
694
 10
9.38418
 20
29.0909
 30
0.000000
  70
    32
  0
VERTEX
  8
0
  5
695
 10
9.38418
 20
29.0806
 30
0.000000
  70
    32
  0
VERTEX
  8
0
  5
696
 10
9.38418
 20
29.0707
 30
0.000000
  70
    32
  0
VERTEX
  8
0
  5
697
 10
9.38418
 20
29.0611
 30
0.000000
  70
    32
  0
VERTEX
  8
0
  5
698
 10
9.38418
 20
29.0519
 30
0.000000
  70
    32
  0
VERTEX
  8
0
  5
699
 10
9.38418
 20
29.0432
 30
0.000000
  70
    32
  0
VERTEX
  8
0
  5
69A
 10
9.38418
 20
29.0348
 30
0.000000
  70
    32
  0
VERTEX
  8
0
  5
69B
 10
9.38418
 20
29.0268
 30
0.000000
  70
    32
  0
VERTEX
  8
0
  5
69C
 10
9.38418
 20
29.0192
 30
0.000000
  70
    32
  0
VERTEX
  8
0
  5
69D
 10
9.38418
 20
29.0121
 30
0.000000
  70
    32
  0
VERTEX
  8
0
  5
69E
 10
9.38418
 20
29.0054
 30
0.000000
  70
    32
  0
VERTEX
  8
0
  5
69F
 10
9.38418
 20
28.9991
 30
0.000000
  70
    32
  0
VERTEX
  8
0
  5
6A0
 10
9.38418
 20
28.9933
 30
0.000000
  70
    32
  0
VERTEX
  8
0
  5
6A1
 10
9.38418
 20
28.9880
 30
0.000000
  70
    32
  0
VERTEX
  8
0
  5
6A2
 10
9.38418
 20
28.9831
 30
0.000000
  70
    32
  0
VERTEX
  8
0
  5
6A3
 10
9.38418
 20
28.9787
 30
0.000000
  70
    32
  0
VERTEX
  8
0
  5
6A4
 10
9.38418
 20
28.9747
 30
0.000000
  70
    32
  0
VERTEX
  8
0
  5
6A5
 10
9.38418
 20
28.9713
 30
0.000000
  70
    32
  0
VERTEX
  8
0
  5
6A6
 10
9.38418
 20
28.9684
 30
0.000000
  70
    32
  0
VERTEX
  8
0
  5
6A7
 10
9.38418
 20
28.9660
 30
0.000000
  70
    32
  0
VERTEX
  8
0
  5
6A8
 10
9.38418
 20
28.9641
 30
0.000000
  70
    32
  0
VERTEX
  8
0
  5
6A9
 10
9.38418
 20
28.9627
 30
0.000000
  70
    32
  0
VERTEX
  8
0
  5
6AA
 10
9.38418
 20
28.9619
 30
0.000000
  70
    32
  0
VERTEX
  8
0
  5
6AB
 10
9.38418
 20
28.9616
 30
0.000000
  70
    32
  0
SEQEND
  8
0
  5
6AC
  0
POLYLINE
  8
0
  5
6AD
  66
     1
 10
0.000000
 20
0.000000
 30
0.000000
  70
     8
  0
VERTEX
  8
0
  5
6AE
 10
26.4688
 20
11.2459
 30
0.000000
  70
    32
  0
VERTEX
  8
0
  5
6AF
 10
26.4582
 20
11.2277
 30
0.000000
  70
    32
  0
VERTEX
  8
0
  5
6B0
 10
26.4477
 20
11.2095
 30
0.000000
  70
    32
  0
VERTEX
  8
0
  5
6B1
 10
26.4372
 20
11.1911
 30
0.000000
  70
    32
  0
VERTEX
  8
0
  5
6B2
 10
26.4267
 20
11.1725
 30
0.000000
  70
    32
  0
VERTEX
  8
0
  5
6B3
 10
26.4162
 20
11.1539
 30
0.000000
  70
    32
  0
VERTEX
  8
0
  5
6B4
 10
26.4057
 20
11.1352
 30
0.000000
  70
    32
  0
VERTEX
  8
0
  5
6B5
 10
26.3953
 20
11.1163
 30
0.000000
  70
    32
  0
VERTEX
  8
0
  5
6B6
 10
26.3848
 20
11.0973
 30
0.000000
  70
    32
  0
VERTEX
  8
0
  5
6B7
 10
26.3744
 20
11.0783
 30
0.000000
  70
    32
  0
VERTEX
  8
0
  5
6B8
 10
26.3640
 20
11.0591
 30
0.000000
  70
    32
  0
VERTEX
  8
0
  5
6B9
 10
26.3536
 20
11.0398
 30
0.000000
  70
    32
  0
VERTEX
  8
0
  5
6BA
 10
26.3433
 20
11.0205
 30
0.000000
  70
    32
  0
VERTEX
  8
0
  5
6BB
 10
26.3329
 20
11.0010
 30
0.000000
  70
    32
  0
VERTEX
  8
0
  5
6BC
 10
26.3226
 20
10.9814
 30
0.000000
  70
    32
  0
VERTEX
  8
0
  5
6BD
 10
26.3124
 20
10.9618
 30
0.000000
  70
    32
  0
VERTEX
  8
0
  5
6BE
 10
26.3021
 20
10.9421
 30
0.000000
  70
    32
  0
VERTEX
  8
0
  5
6BF
 10
26.2919
 20
10.9223
 30
0.000000
  70
    32
  0
VERTEX
  8
0
  5
6C0
 10
26.2818
 20
10.9024
 30
0.000000
  70
    32
  0
VERTEX
  8
0
  5
6C1
 10
26.2716
 20
10.8824
 30
0.000000
  70
    32
  0
VERTEX
  8
0
  5
6C2
 10
26.2615
 20
10.8624
 30
0.000000
  70
    32
  0
VERTEX
  8
0
  5
6C3
 10
26.2515
 20
10.8423
 30
0.000000
  70
    32
  0
VERTEX
  8
0
  5
6C4
 10
26.2415
 20
10.8221
 30
0.000000
  70
    32
  0
VERTEX
  8
0
  5
6C5
 10
26.2315
 20
10.8018
 30
0.000000
  70
    32
  0
VERTEX
  8
0
  5
6C6
 10
26.2215
 20
10.7815
 30
0.000000
  70
    32
  0
VERTEX
  8
0
  5
6C7
 10
26.2116
 20
10.7611
 30
0.000000
  70
    32
  0
VERTEX
  8
0
  5
6C8
 10
26.2018
 20
10.7407
 30
0.000000
  70
    32
  0
VERTEX
  8
0
  5
6C9
 10
26.1920
 20
10.7202
 30
0.000000
  70
    32
  0
VERTEX
  8
0
  5
6CA
 10
26.1823
 20
10.6997
 30
0.000000
  70
    32
  0
VERTEX
  8
0
  5
6CB
 10
26.1726
 20
10.6791
 30
0.000000
  70
    32
  0
VERTEX
  8
0
  5
6CC
 10
26.1629
 20
10.6585
 30
0.000000
  70
    32
  0
VERTEX
  8
0
  5
6CD
 10
26.1533
 20
10.6378
 30
0.000000
  70
    32
  0
VERTEX
  8
0
  5
6CE
 10
26.1438
 20
10.6171
 30
0.000000
  70
    32
  0
VERTEX
  8
0
  5
6CF
 10
26.1343
 20
10.5963
 30
0.000000
  70
    32
  0
VERTEX
  8
0
  5
6D0
 10
26.1249
 20
10.5755
 30
0.000000
  70
    32
  0
VERTEX
  8
0
  5
6D1
 10
26.1156
 20
10.5547
 30
0.000000
  70
    32
  0
VERTEX
  8
0
  5
6D2
 10
26.1063
 20
10.5338
 30
0.000000
  70
    32
  0
VERTEX
  8
0
  5
6D3
 10
26.0970
 20
10.5129
 30
0.000000
  70
    32
  0
VERTEX
  8
0
  5
6D4
 10
26.0879
 20
10.4920
 30
0.000000
  70
    32
  0
VERTEX
  8
0
  5
6D5
 10
26.0788
 20
10.4710
 30
0.000000
  70
    32
  0
VERTEX
  8
0
  5
6D6
 10
26.0697
 20
10.4501
 30
0.000000
  70
    32
  0
VERTEX
  8
0
  5
6D7
 10
26.0608
 20
10.4291
 30
0.000000
  70
    32
  0
VERTEX
  8
0
  5
6D8
 10
26.0519
 20
10.4081
 30
0.000000
  70
    32
  0
VERTEX
  8
0
  5
6D9
 10
26.0431
 20
10.3871
 30
0.000000
  70
    32
  0
VERTEX
  8
0
  5
6DA
 10
26.0343
 20
10.3660
 30
0.000000
  70
    32
  0
VERTEX
  8
0
  5
6DB
 10
26.0257
 20
10.3450
 30
0.000000
  70
    32
  0
VERTEX
  8
0
  5
6DC
 10
26.0171
 20
10.3240
 30
0.000000
  70
    32
  0
VERTEX
  8
0
  5
6DD
 10
26.0086
 20
10.3029
 30
0.000000
  70
    32
  0
VERTEX
  8
0
  5
6DE
 10
26.0002
 20
10.2819
 30
0.000000
  70
    32
  0
VERTEX
  8
0
  5
6DF
 10
25.9918
 20
10.2609
 30
0.000000
  70
    32
  0
VERTEX
  8
0
  5
6E0
 10
25.9836
 20
10.2399
 30
0.000000
  70
    32
  0
VERTEX
  8
0
  5
6E1
 10
25.9754
 20
10.2189
 30
0.000000
  70
    32
  0
VERTEX
  8
0
  5
6E2
 10
25.9673
 20
10.1978
 30
0.000000
  70
    32
  0
VERTEX
  8
0
  5
6E3
 10
25.9593
 20
10.1769
 30
0.000000
  70
    32
  0
VERTEX
  8
0
  5
6E4
 10
25.9514
 20
10.1559
 30
0.000000
  70
    32
  0
VERTEX
  8
0
  5
6E5
 10
25.9436
 20
10.1349
 30
0.000000
  70
    32
  0
VERTEX
  8
0
  5
6E6
 10
25.9358
 20
10.1140
 30
0.000000
  70
    32
  0
VERTEX
  8
0
  5
6E7
 10
25.9282
 20
10.0931
 30
0.000000
  70
    32
  0
VERTEX
  8
0
  5
6E8
 10
25.9207
 20
10.0722
 30
0.000000
  70
    32
  0
VERTEX
  8
0
  5
6E9
 10
25.9132
 20
10.0514
 30
0.000000
  70
    32
  0
VERTEX
  8
0
  5
6EA
 10
25.9059
 20
10.0306
 30
0.000000
  70
    32
  0
VERTEX
  8
0
  5
6EB
 10
25.8987
 20
10.0098
 30
0.000000
  70
    32
  0
VERTEX
  8
0
  5
6EC
 10
25.8915
 20
9.98908
 30
0.000000
  70
    32
  0
VERTEX
  8
0
  5
6ED
 10
25.8845
 20
9.96839
 30
0.000000
  70
    32
  0
VERTEX
  8
0
  5
6EE
 10
25.8776
 20
9.94774
 30
0.000000
  70
    32
  0
VERTEX
  8
0
  5
6EF
 10
25.8708
 20
9.92714
 30
0.000000
  70
    32
  0
VERTEX
  8
0
  5
6F0
 10
25.8641
 20
9.90658
 30
0.000000
  70
    32
  0
VERTEX
  8
0
  5
6F1
 10
25.8575
 20
9.88608
 30
0.000000
  70
    32
  0
VERTEX
  8
0
  5
6F2
 10
25.8510
 20
9.86564
 30
0.000000
  70
    32
  0
VERTEX
  8
0
  5
6F3
 10
25.8446
 20
9.84525
 30
0.000000
  70
    32
  0
VERTEX
  8
0
  5
6F4
 10
25.8384
 20
9.82493
 30
0.000000
  70
    32
  0
VERTEX
  8
0
  5
6F5
 10
25.8323
 20
9.80466
 30
0.000000
  70
    32
  0
VERTEX
  8
0
  5
6F6
 10
25.8262
 20
9.78447
 30
0.000000
  70
    32
  0
VERTEX
  8
0
  5
6F7
 10
25.8203
 20
9.76434
 30
0.000000
  70
    32
  0
VERTEX
  8
0
  5
6F8
 10
25.8146
 20
9.74428
 30
0.000000
  70
    32
  0
VERTEX
  8
0
  5
6F9
 10
25.8089
 20
9.72430
 30
0.000000
  70
    32
  0
VERTEX
  8
0
  5
6FA
 10
25.8034
 20
9.70439
 30
0.000000
  70
    32
  0
VERTEX
  8
0
  5
6FB
 10
25.7980
 20
9.68457
 30
0.000000
  70
    32
  0
VERTEX
  8
0
  5
6FC
 10
25.7927
 20
9.66482
 30
0.000000
  70
    32
  0
VERTEX
  8
0
  5
6FD
 10
25.7876
 20
9.64516
 30
0.000000
  70
    32
  0
VERTEX
  8
0
  5
6FE
 10
25.7825
 20
9.62559
 30
0.000000
  70
    32
  0
VERTEX
  8
0
  5
6FF
 10
25.7777
 20
9.60611
 30
0.000000
  70
    32
  0
VERTEX
  8
0
  5
700
 10
25.7729
 20
9.58672
 30
0.000000
  70
    32
  0
VERTEX
  8
0
  5
701
 10
25.7683
 20
9.56743
 30
0.000000
  70
    32
  0
VERTEX
  8
0
  5
702
 10
25.7638
 20
9.54823
 30
0.000000
  70
    32
  0
VERTEX
  8
0
  5
703
 10
25.7595
 20
9.52914
 30
0.000000
  70
    32
  0
VERTEX
  8
0
  5
704
 10
25.7553
 20
9.51015
 30
0.000000
  70
    32
  0
VERTEX
  8
0
  5
705
 10
25.7512
 20
9.49126
 30
0.000000
  70
    32
  0
VERTEX
  8
0
  5
706
 10
25.7473
 20
9.47249
 30
0.000000
  70
    32
  0
VERTEX
  8
0
  5
707
 10
25.7436
 20
9.45383
 30
0.000000
  70
    32
  0
VERTEX
  8
0
  5
708
 10
25.7399
 20
9.43528
 30
0.000000
  70
    32
  0
VERTEX
  8
0
  5
709
 10
25.7365
 20
9.41685
 30
0.000000
  70
    32
  0
VERTEX
  8
0
  5
70A
 10
25.7332
 20
9.39854
 30
0.000000
  70
    32
  0
VERTEX
  8
0
  5
70B
 10
25.7300
 20
9.38035
 30
0.000000
  70
    32
  0
VERTEX
  8
0
  5
70C
 10
25.7270
 20
9.36229
 30
0.000000
  70
    32
  0
VERTEX
  8
0
  5
70D
 10
25.7241
 20
9.34435
 30
0.000000
  70
    32
  0
VERTEX
  8
0
  5
70E
 10
25.7214
 20
9.32655
 30
0.000000
  70
    32
  0
VERTEX
  8
0
  5
70F
 10
25.7188
 20
9.30888
 30
0.000000
  70
    32
  0
VERTEX
  8
0
  5
710
 10
25.7165
 20
9.29134
 30
0.000000
  70
    32
  0
VERTEX
  8
0
  5
711
 10
25.7142
 20
9.27395
 30
0.000000
  70
    32
  0
VERTEX
  8
0
  5
712
 10
25.7122
 20
9.25670
 30
0.000000
  70
    32
  0
VERTEX
  8
0
  5
713
 10
25.7103
 20
9.23959
 30
0.000000
  70
    32
  0
VERTEX
  8
0
  5
714
 10
25.7085
 20
9.22262
 30
0.000000
  70
    32
  0
VERTEX
  8
0
  5
715
 10
25.7069
 20
9.20581
 30
0.000000
  70
    32
  0
VERTEX
  8
0
  5
716
 10
25.7055
 20
9.18915
 30
0.000000
  70
    32
  0
VERTEX
  8
0
  5
717
 10
25.7043
 20
9.17265
 30
0.000000
  70
    32
  0
VERTEX
  8
0
  5
718
 10
25.7032
 20
9.15630
 30
0.000000
  70
    32
  0
VERTEX
  8
0
  5
719
 10
25.7024
 20
9.14011
 30
0.000000
  70
    32
  0
VERTEX
  8
0
  5
71A
 10
25.7016
 20
9.12409
 30
0.000000
  70
    32
  0
VERTEX
  8
0
  5
71B
 10
25.7011
 20
9.10823
 30
0.000000
  70
    32
  0
VERTEX
  8
0
  5
71C
 10
25.7007
 20
9.09254
 30
0.000000
  70
    32
  0
VERTEX
  8
0
  5
71D
 10
25.7006
 20
9.07703
 30
0.000000
  70
    32
  0
VERTEX
  8
0
  5
71E
 10
25.7005
 20
9.06485
 30
0.000000
  70
    32
  0
VERTEX
  8
0
  5
71F
 10
25.7006
 20
9.05590
 30
0.000000
  70
    32
  0
VERTEX
  8
0
  5
720
 10
25.7007
 20
9.04698
 30
0.000000
  70
    32
  0
VERTEX
  8
0
  5
721
 10
25.7008
 20
9.03808
 30
0.000000
  70
    32
  0
VERTEX
  8
0
  5
722
 10
25.7010
 20
9.02921
 30
0.000000
  70
    32
  0
VERTEX
  8
0
  5
723
 10
25.7012
 20
9.02036
 30
0.000000
  70
    32
  0
VERTEX
  8
0
  5
724
 10
25.7014
 20
9.01153
 30
0.000000
  70
    32
  0
VERTEX
  8
0
  5
725
 10
25.7017
 20
9.00271
 30
0.000000
  70
    32
  0
VERTEX
  8
0
  5
726
 10
25.7020
 20
8.99391
 30
0.000000
  70
    32
  0
VERTEX
  8
0
  5
727
 10
25.7024
 20
8.98511
 30
0.000000
  70
    32
  0
VERTEX
  8
0
  5
728
 10
25.7028
 20
8.97632
 30
0.000000
  70
    32
  0
VERTEX
  8
0
  5
729
 10
25.7033
 20
8.96754
 30
0.000000
  70
    32
  0
VERTEX
  8
0
  5
72A
 10
25.7038
 20
8.95876
 30
0.000000
  70
    32
  0
VERTEX
  8
0
  5
72B
 10
25.7043
 20
8.94998
 30
0.000000
  70
    32
  0
VERTEX
  8
0
  5
72C
 10
25.7049
 20
8.94120
 30
0.000000
  70
    32
  0
VERTEX
  8
0
  5
72D
 10
25.7055
 20
8.93241
 30
0.000000
  70
    32
  0
VERTEX
  8
0
  5
72E
 10
25.7061
 20
8.92361
 30
0.000000
  70
    32
  0
VERTEX
  8
0
  5
72F
 10
25.7068
 20
8.91480
 30
0.000000
  70
    32
  0
VERTEX
  8
0
  5
730
 10
25.7075
 20
8.90597
 30
0.000000
  70
    32
  0
VERTEX
  8
0
  5
731
 10
25.7083
 20
8.89713
 30
0.000000
  70
    32
  0
VERTEX
  8
0
  5
732
 10
25.7091
 20
8.88827
 30
0.000000
  70
    32
  0
VERTEX
  8
0
  5
733
 10
25.7099
 20
8.87938
 30
0.000000
  70
    32
  0
VERTEX
  8
0
  5
734
 10
25.7108
 20
8.87047
 30
0.000000
  70
    32
  0
VERTEX
  8
0
  5
735
 10
25.7117
 20
8.86154
 30
0.000000
  70
    32
  0
VERTEX
  8
0
  5
736
 10
25.7126
 20
8.85257
 30
0.000000
  70
    32
  0
VERTEX
  8
0
  5
737
 10
25.7136
 20
8.84357
 30
0.000000
  70
    32
  0
VERTEX
  8
0
  5
738
 10
25.7146
 20
8.83453
 30
0.000000
  70
    32
  0
VERTEX
  8
0
  5
739
 10
25.7157
 20
8.82546
 30
0.000000
  70
    32
  0
VERTEX
  8
0
  5
73A
 10
25.7168
 20
8.81634
 30
0.000000
  70
    32
  0
VERTEX
  8
0
  5
73B
 10
25.7179
 20
8.80718
 30
0.000000
  70
    32
  0
VERTEX
  8
0
  5
73C
 10
25.7191
 20
8.79797
 30
0.000000
  70
    32
  0
VERTEX
  8
0
  5
73D
 10
25.7203
 20
8.78872
 30
0.000000
  70
    32
  0
VERTEX
  8
0
  5
73E
 10
25.7215
 20
8.77941
 30
0.000000
  70
    32
  0
VERTEX
  8
0
  5
73F
 10
25.7227
 20
8.77004
 30
0.000000
  70
    32
  0
VERTEX
  8
0
  5
740
 10
25.7240
 20
8.76062
 30
0.000000
  70
    32
  0
VERTEX
  8
0
  5
741
 10
25.7254
 20
8.75114
 30
0.000000
  70
    32
  0
VERTEX
  8
0
  5
742
 10
25.7267
 20
8.74160
 30
0.000000
  70
    32
  0
VERTEX
  8
0
  5
743
 10
25.7281
 20
8.73199
 30
0.000000
  70
    32
  0
VERTEX
  8
0
  5
744
 10
25.7296
 20
8.72231
 30
0.000000
  70
    32
  0
VERTEX
  8
0
  5
745
 10
25.7310
 20
8.71256
 30
0.000000
  70
    32
  0
VERTEX
  8
0
  5
746
 10
25.7325
 20
8.70274
 30
0.000000
  70
    32
  0
VERTEX
  8
0
  5
747
 10
25.7340
 20
8.69284
 30
0.000000
  70
    32
  0
VERTEX
  8
0
  5
748
 10
25.7356
 20
8.68286
 30
0.000000
  70
    32
  0
VERTEX
  8
0
  5
749
 10
25.7372
 20
8.67280
 30
0.000000
  70
    32
  0
VERTEX
  8
0
  5
74A
 10
25.7388
 20
8.66265
 30
0.000000
  70
    32
  0
VERTEX
  8
0
  5
74B
 10
25.7405
 20
8.65242
 30
0.000000
  70
    32
  0
VERTEX
  8
0
  5
74C
 10
25.7421
 20
8.64210
 30
0.000000
  70
    32
  0
VERTEX
  8
0
  5
74D
 10
25.7438
 20
8.63169
 30
0.000000
  70
    32
  0
VERTEX
  8
0
  5
74E
 10
25.7456
 20
8.62118
 30
0.000000
  70
    32
  0
VERTEX
  8
0
  5
74F
 10
25.7474
 20
8.61057
 30
0.000000
  70
    32
  0
VERTEX
  8
0
  5
750
 10
25.7492
 20
8.59986
 30
0.000000
  70
    32
  0
VERTEX
  8
0
  5
751
 10
25.7510
 20
8.58905
 30
0.000000
  70
    32
  0
VERTEX
  8
0
  5
752
 10
25.7529
 20
8.57813
 30
0.000000
  70
    32
  0
VERTEX
  8
0
  5
753
 10
25.7548
 20
8.56710
 30
0.000000
  70
    32
  0
VERTEX
  8
0
  5
754
 10
25.7567
 20
8.55596
 30
0.000000
  70
    32
  0
VERTEX
  8
0
  5
755
 10
25.7586
 20
8.54471
 30
0.000000
  70
    32
  0
VERTEX
  8
0
  5
756
 10
25.7606
 20
8.53334
 30
0.000000
  70
    32
  0
VERTEX
  8
0
  5
757
 10
25.7626
 20
8.52185
 30
0.000000
  70
    32
  0
VERTEX
  8
0
  5
758
 10
25.7646
 20
8.51024
 30
0.000000
  70
    32
  0
VERTEX
  8
0
  5
759
 10
25.7667
 20
8.49850
 30
0.000000
  70
    32
  0
VERTEX
  8
0
  5
75A
 10
25.7688
 20
8.48663
 30
0.000000
  70
    32
  0
VERTEX
  8
0
  5
75B
 10
25.7709
 20
8.47464
 30
0.000000
  70
    32
  0
VERTEX
  8
0
  5
75C
 10
25.7730
 20
8.46251
 30
0.000000
  70
    32
  0
VERTEX
  8
0
  5
75D
 10
25.7752
 20
8.45024
 30
0.000000
  70
    32
  0
VERTEX
  8
0
  5
75E
 10
25.7774
 20
8.43784
 30
0.000000
  70
    32
  0
VERTEX
  8
0
  5
75F
 10
25.7796
 20
8.42530
 30
0.000000
  70
    32
  0
VERTEX
  8
0
  5
760
 10
25.7819
 20
8.41261
 30
0.000000
  70
    32
  0
VERTEX
  8
0
  5
761
 10
25.7841
 20
8.39977
 30
0.000000
  70
    32
  0
VERTEX
  8
0
  5
762
 10
25.7864
 20
8.38679
 30
0.000000
  70
    32
  0
VERTEX
  8
0
  5
763
 10
25.7888
 20
8.37365
 30
0.000000
  70
    32
  0
VERTEX
  8
0
  5
764
 10
25.7911
 20
8.36036
 30
0.000000
  70
    32
  0
VERTEX
  8
0
  5
765
 10
25.7935
 20
8.34691
 30
0.000000
  70
    32
  0
VERTEX
  8
0
  5
766
 10
25.7959
 20
8.33330
 30
0.000000
  70
    32
  0
VERTEX
  8
0
  5
767
 10
25.7983
 20
8.31953
 30
0.000000
  70
    32
  0
VERTEX
  8
0
  5
768
 10
25.8007
 20
8.30559
 30
0.000000
  70
    32
  0
VERTEX
  8
0
  5
769
 10
25.8032
 20
8.29148
 30
0.000000
  70
    32
  0
VERTEX
  8
0
  5
76A
 10
25.8057
 20
8.27720
 30
0.000000
  70
    32
  0
VERTEX
  8
0
  5
76B
 10
25.8082
 20
8.26275
 30
0.000000
  70
    32
  0
VERTEX
  8
0
  5
76C
 10
25.8108
 20
8.24813
 30
0.000000
  70
    32
  0
VERTEX
  8
0
  5
76D
 10
25.8133
 20
8.23332
 30
0.000000
  70
    32
  0
VERTEX
  8
0
  5
76E
 10
25.8159
 20
8.21833
 30
0.000000
  70
    32
  0
VERTEX
  8
0
  5
76F
 10
25.8185
 20
8.20316
 30
0.000000
  70
    32
  0
VERTEX
  8
0
  5
770
 10
25.8211
 20
8.18780
 30
0.000000
  70
    32
  0
VERTEX
  8
0
  5
771
 10
25.8238
 20
8.17225
 30
0.000000
  70
    32
  0
VERTEX
  8
0
  5
772
 10
25.8264
 20
8.15650
 30
0.000000
  70
    32
  0
VERTEX
  8
0
  5
773
 10
25.8291
 20
8.14056
 30
0.000000
  70
    32
  0
VERTEX
  8
0
  5
774
 10
25.8318
 20
8.12443
 30
0.000000
  70
    32
  0
VERTEX
  8
0
  5
775
 10
25.8346
 20
8.10809
 30
0.000000
  70
    32
  0
VERTEX
  8
0
  5
776
 10
25.8373
 20
8.09155
 30
0.000000
  70
    32
  0
VERTEX
  8
0
  5
777
 10
25.8401
 20
8.07480
 30
0.000000
  70
    32
  0
VERTEX
  8
0
  5
778
 10
25.8429
 20
8.05785
 30
0.000000
  70
    32
  0
VERTEX
  8
0
  5
779
 10
25.8457
 20
8.04068
 30
0.000000
  70
    32
  0
VERTEX
  8
0
  5
77A
 10
25.8485
 20
8.02330
 30
0.000000
  70
    32
  0
VERTEX
  8
0
  5
77B
 10
25.8514
 20
8.00570
 30
0.000000
  70
    32
  0
VERTEX
  8
0
  5
77C
 10
25.8542
 20
7.98788
 30
0.000000
  70
    32
  0
VERTEX
  8
0
  5
77D
 10
25.8571
 20
7.96984
 30
0.000000
  70
    32
  0
VERTEX
  8
0
  5
77E
 10
25.8600
 20
7.95157
 30
0.000000
  70
    32
  0
VERTEX
  8
0
  5
77F
 10
25.8629
 20
7.93308
 30
0.000000
  70
    32
  0
VERTEX
  8
0
  5
780
 10
25.8659
 20
7.91435
 30
0.000000
  70
    32
  0
VERTEX
  8
0
  5
781
 10
25.8688
 20
7.89540
 30
0.000000
  70
    32
  0
VERTEX
  8
0
  5
782
 10
25.8718
 20
7.87620
 30
0.000000
  70
    32
  0
VERTEX
  8
0
  5
783
 10
25.8748
 20
7.85677
 30
0.000000
  70
    32
  0
VERTEX
  8
0
  5
784
 10
25.8778
 20
7.83710
 30
0.000000
  70
    32
  0
VERTEX
  8
0
  5
785
 10
25.8808
 20
7.81718
 30
0.000000
  70
    32
  0
VERTEX
  8
0
  5
786
 10
25.8839
 20
7.79702
 30
0.000000
  70
    32
  0
VERTEX
  8
0
  5
787
 10
25.8869
 20
7.77660
 30
0.000000
  70
    32
  0
VERTEX
  8
0
  5
788
 10
25.8900
 20
7.75594
 30
0.000000
  70
    32
  0
VERTEX
  8
0
  5
789
 10
25.8931
 20
7.73502
 30
0.000000
  70
    32
  0
VERTEX
  8
0
  5
78A
 10
25.8962
 20
7.71384
 30
0.000000
  70
    32
  0
VERTEX
  8
0
  5
78B
 10
25.8993
 20
7.69240
 30
0.000000
  70
    32
  0
VERTEX
  8
0
  5
78C
 10
25.9024
 20
7.67070
 30
0.000000
  70
    32
  0
VERTEX
  8
0
  5
78D
 10
25.9056
 20
7.64873
 30
0.000000
  70
    32
  0
SEQEND
  8
0
  5
78E
  0
POLYLINE
  8
0
  5
78F
  66
     1
 10
0.000000
 20
0.000000
 30
0.000000
  70
     8
  0
VERTEX
  8
0
  5
790
 10
25.9056
 20
7.64873
 30
0.000000
  70
    32
  0
VERTEX
  8
0
  5
791
 10
25.9085
 20
7.63488
 30
0.000000
  70
    32
  0
VERTEX
  8
0
  5
792
 10
25.9117
 20
7.61885
 30
0.000000
  70
    32
  0
VERTEX
  8
0
  5
793
 10
25.9153
 20
7.60068
 30
0.000000
  70
    32
  0
VERTEX
  8
0
  5
794
 10
25.9192
 20
7.58040
 30
0.000000
  70
    32
  0
VERTEX
  8
0
  5
795
 10
25.9234
 20
7.55806
 30
0.000000
  70
    32
  0
VERTEX
  8
0
  5
796
 10
25.9278
 20
7.53368
 30
0.000000
  70
    32
  0
VERTEX
  8
0
  5
797
 10
25.9326
 20
7.50731
 30
0.000000
  70
    32
  0
VERTEX
  8
0
  5
798
 10
25.9377
 20
7.47897
 30
0.000000
  70
    32
  0
VERTEX
  8
0
  5
799
 10
25.9430
 20
7.44871
 30
0.000000
  70
    32
  0
VERTEX
  8
0
  5
79A
 10
25.9486
 20
7.41655
 30
0.000000
  70
    32
  0
VERTEX
  8
0
  5
79B
 10
25.9545
 20
7.38255
 30
0.000000
  70
    32
  0
VERTEX
  8
0
  5
79C
 10
25.9607
 20
7.34672
 30
0.000000
  70
    32
  0
VERTEX
  8
0
  5
79D
 10
25.9671
 20
7.30911
 30
0.000000
  70
    32
  0
VERTEX
  8
0
  5
79E
 10
25.9737
 20
7.26975
 30
0.000000
  70
    32
  0
VERTEX
  8
0
  5
79F
 10
25.9807
 20
7.22868
 30
0.000000
  70
    32
  0
VERTEX
  8
0
  5
7A0
 10
25.9878
 20
7.18594
 30
0.000000
  70
    32
  0
VERTEX
  8
0
  5
7A1
 10
25.9952
 20
7.14155
 30
0.000000
  70
    32
  0
VERTEX
  8
0
  5
7A2
 10
26.0029
 20
7.09556
 30
0.000000
  70
    32
  0
VERTEX
  8
0
  5
7A3
 10
26.0108
 20
7.04800
 30
0.000000
  70
    32
  0
VERTEX
  8
0
  5
7A4
 10
26.0189
 20
6.99890
 30
0.000000
  70
    32
  0
VERTEX
  8
0
  5
7A5
 10
26.0272
 20
6.94831
 30
0.000000
  70
    32
  0
VERTEX
  8
0
  5
7A6
 10
26.0357
 20
6.89626
 30
0.000000
  70
    32
  0
VERTEX
  8
0
  5
7A7
 10
26.0444
 20
6.84278
 30
0.000000
  70
    32
  0
VERTEX
  8
0
  5
7A8
 10
26.0534
 20
6.78791
 30
0.000000
  70
    32
  0
VERTEX
  8
0
  5
7A9
 10
26.0625
 20
6.73168
 30
0.000000
  70
    32
  0
VERTEX
  8
0
  5
7AA
 10
26.0718
 20
6.67414
 30
0.000000
  70
    32
  0
VERTEX
  8
0
  5
7AB
 10
26.0814
 20
6.61531
 30
0.000000
  70
    32
  0
VERTEX
  8
0
  5
7AC
 10
26.0911
 20
6.55523
 30
0.000000
  70
    32
  0
VERTEX
  8
0
  5
7AD
 10
26.1009
 20
6.49395
 30
0.000000
  70
    32
  0
VERTEX
  8
0
  5
7AE
 10
26.1110
 20
6.43148
 30
0.000000
  70
    32
  0
VERTEX
  8
0
  5
7AF
 10
26.1212
 20
6.36788
 30
0.000000
  70
    32
  0
VERTEX
  8
0
  5
7B0
 10
26.1315
 20
6.30317
 30
0.000000
  70
    32
  0
VERTEX
  8
0
  5
7B1
 10
26.1421
 20
6.23739
 30
0.000000
  70
    32
  0
VERTEX
  8
0
  5
7B2
 10
26.1527
 20
6.17058
 30
0.000000
  70
    32
  0
VERTEX
  8
0
  5
7B3
 10
26.1636
 20
6.10277
 30
0.000000
  70
    32
  0
VERTEX
  8
0
  5
7B4
 10
26.1745
 20
6.03400
 30
0.000000
  70
    32
  0
VERTEX
  8
0
  5
7B5
 10
26.1856
 20
5.96430
 30
0.000000
  70
    32
  0
VERTEX
  8
0
  5
7B6
 10
26.1968
 20
5.89371
 30
0.000000
  70
    32
  0
VERTEX
  8
0
  5
7B7
 10
26.2081
 20
5.82226
 30
0.000000
  70
    32
  0
VERTEX
  8
0
  5
7B8
 10
26.2196
 20
5.75000
 30
0.000000
  70
    32
  0
VERTEX
  8
0
  5
7B9
 10
26.2312
 20
5.67695
 30
0.000000
  70
    32
  0
VERTEX
  8
0
  5
7BA
 10
26.2428
 20
5.60316
 30
0.000000
  70
    32
  0
VERTEX
  8
0
  5
7BB
 10
26.2546
 20
5.52865
 30
0.000000
  70
    32
  0
VERTEX
  8
0
  5
7BC
 10
26.2665
 20
5.45347
 30
0.000000
  70
    32
  0
VERTEX
  8
0
  5
7BD
 10
26.2785
 20
5.37764
 30
0.000000
  70
    32
  0
VERTEX
  8
0
  5
7BE
 10
26.2905
 20
5.30122
 30
0.000000
  70
    32
  0
VERTEX
  8
0
  5
7BF
 10
26.3026
 20
5.22422
 30
0.000000
  70
    32
  0
VERTEX
  8
0
  5
7C0
 10
26.3148
 20
5.14668
 30
0.000000
  70
    32
  0
VERTEX
  8
0
  5
7C1
 10
26.3271
 20
5.06865
 30
0.000000
  70
    32
  0
VERTEX
  8
0
  5
7C2
 10
26.3394
 20
4.99016
 30
0.000000
  70
    32
  0
VERTEX
  8
0
  5
7C3
 10
26.3518
 20
4.91124
 30
0.000000
  70
    32
  0
VERTEX
  8
0
  5
7C4
 10
26.3643
 20
4.83193
 30
0.000000
  70
    32
  0
VERTEX
  8
0
  5
7C5
 10
26.3768
 20
4.75227
 30
0.000000
  70
    32
  0
VERTEX
  8
0
  5
7C6
 10
26.3893
 20
4.67229
 30
0.000000
  70
    32
  0
VERTEX
  8
0
  5
7C7
 10
26.4019
 20
4.59202
 30
0.000000
  70
    32
  0
VERTEX
  8
0
  5
7C8
 10
26.4145
 20
4.51150
 30
0.000000
  70
    32
  0
VERTEX
  8
0
  5
7C9
 10
26.4271
 20
4.43077
 30
0.000000
  70
    32
  0
VERTEX
  8
0
  5
7CA
 10
26.4398
 20
4.34987
 30
0.000000
  70
    32
  0
VERTEX
  8
0
  5
7CB
 10
26.4524
 20
4.26882
 30
0.000000
  70
    32
  0
VERTEX
  8
0
  5
7CC
 10
26.4651
 20
4.18767
 30
0.000000
  70
    32
  0
VERTEX
  8
0
  5
7CD
 10
26.4778
 20
4.10645
 30
0.000000
  70
    32
  0
VERTEX
  8
0
  5
7CE
 10
26.4905
 20
4.02520
 30
0.000000
  70
    32
  0
VERTEX
  8
0
  5
7CF
 10
26.5032
 20
3.94395
 30
0.000000
  70
    32
  0
VERTEX
  8
0
  5
7D0
 10
26.5159
 20
3.86273
 30
0.000000
  70
    32
  0
VERTEX
  8
0
  5
7D1
 10
26.5285
 20
3.78159
 30
0.000000
  70
    32
  0
VERTEX
  8
0
  5
7D2
 10
26.5411
 20
3.70056
 30
0.000000
  70
    32
  0
VERTEX
  8
0
  5
7D3
 10
26.5537
 20
3.61968
 30
0.000000
  70
    32
  0
VERTEX
  8
0
  5
7D4
 10
26.5663
 20
3.53897
 30
0.000000
  70
    32
  0
VERTEX
  8
0
  5
7D5
 10
26.5789
 20
3.45848
 30
0.000000
  70
    32
  0
VERTEX
  8
0
  5
7D6
 10
26.5914
 20
3.37824
 30
0.000000
  70
    32
  0
VERTEX
  8
0
  5
7D7
 10
26.6038
 20
3.29829
 30
0.000000
  70
    32
  0
VERTEX
  8
0
  5
7D8
 10
26.6162
 20
3.21866
 30
0.000000
  70
    32
  0
VERTEX
  8
0
  5
7D9
 10
26.6285
 20
3.13939
 30
0.000000
  70
    32
  0
VERTEX
  8
0
  5
7DA
 10
26.6408
 20
3.06052
 30
0.000000
  70
    32
  0
VERTEX
  8
0
  5
7DB
 10
26.6530
 20
2.98208
 30
0.000000
  70
    32
  0
VERTEX
  8
0
  5
7DC
 10
26.6651
 20
2.90410
 30
0.000000
  70
    32
  0
VERTEX
  8
0
  5
7DD
 10
26.6772
 20
2.82663
 30
0.000000
  70
    32
  0
VERTEX
  8
0
  5
7DE
 10
26.6891
 20
2.74969
 30
0.000000
  70
    32
  0
VERTEX
  8
0
  5
7DF
 10
26.7010
 20
2.67332
 30
0.000000
  70
    32
  0
VERTEX
  8
0
  5
7E0
 10
26.7128
 20
2.59757
 30
0.000000
  70
    32
  0
VERTEX
  8
0
  5
7E1
 10
26.7244
 20
2.52246
 30
0.000000
  70
    32
  0
VERTEX
  8
0
  5
7E2
 10
26.7360
 20
2.44803
 30
0.000000
  70
    32
  0
VERTEX
  8
0
  5
7E3
 10
26.7475
 20
2.37431
 30
0.000000
  70
    32
  0
VERTEX
  8
0
  5
7E4
 10
26.7588
 20
2.30135
 30
0.000000
  70
    32
  0
VERTEX
  8
0
  5
7E5
 10
26.7700
 20
2.22918
 30
0.000000
  70
    32
  0
VERTEX
  8
0
  5
7E6
 10
26.7811
 20
2.15783
 30
0.000000
  70
    32
  0
VERTEX
  8
0
  5
7E7
 10
26.7920
 20
2.08733
 30
0.000000
  70
    32
  0
VERTEX
  8
0
  5
7E8
 10
26.8029
 20
2.01773
 30
0.000000
  70
    32
  0
VERTEX
  8
0
  5
7E9
 10
26.8135
 20
1.94907
 30
0.000000
  70
    32
  0
VERTEX
  8
0
  5
7EA
 10
26.8240
 20
1.88137
 30
0.000000
  70
    32
  0
VERTEX
  8
0
  5
7EB
 10
26.8344
 20
1.81467
 30
0.000000
  70
    32
  0
VERTEX
  8
0
  5
7EC
 10
26.8446
 20
1.74900
 30
0.000000
  70
    32
  0
VERTEX
  8
0
  5
7ED
 10
26.8546
 20
1.68441
 30
0.000000
  70
    32
  0
VERTEX
  8
0
  5
7EE
 10
26.8645
 20
1.62093
 30
0.000000
  70
    32
  0
VERTEX
  8
0
  5
7EF
 10
26.8742
 20
1.55860
 30
0.000000
  70
    32
  0
VERTEX
  8
0
  5
7F0
 10
26.8837
 20
1.49744
 30
0.000000
  70
    32
  0
VERTEX
  8
0
  5
7F1
 10
26.8930
 20
1.43750
 30
0.000000
  70
    32
  0
VERTEX
  8
0
  5
7F2
 10
26.9022
 20
1.37881
 30
0.000000
  70
    32
  0
VERTEX
  8
0
  5
7F3
 10
26.9111
 20
1.32141
 30
0.000000
  70
    32
  0
VERTEX
  8
0
  5
7F4
 10
26.9198
 20
1.26534
 30
0.000000
  70
    32
  0
VERTEX
  8
0
  5
7F5
 10
26.9284
 20
1.21062
 30
0.000000
  70
    32
  0
VERTEX
  8
0
  5
7F6
 10
26.9367
 20
1.15729
 30
0.000000
  70
    32
  0
VERTEX
  8
0
  5
7F7
 10
26.9448
 20
1.10540
 30
0.000000
  70
    32
  0
VERTEX
  8
0
  5
7F8
 10
26.9526
 20
1.05497
 30
0.000000
  70
    32
  0
VERTEX
  8
0
  5
7F9
 10
26.9603
 20
1.00604
 30
0.000000
  70
    32
  0
VERTEX
  8
0
  5
7FA
 10
26.9677
 20
0.958655
 30
0.000000
  70
    32
  0
VERTEX
  8
0
  5
7FB
 10
26.9748
 20
0.912839
 30
0.000000
  70
    32
  0
VERTEX
  8
0
  5
7FC
 10
26.9818
 20
0.868632
 30
0.000000
  70
    32
  0
VERTEX
  8
0
  5
7FD
 10
26.9884
 20
0.826069
 30
0.000000
  70
    32
  0
VERTEX
  8
0
  5
7FE
 10
26.9948
 20
0.785186
 30
0.000000
  70
    32
  0
VERTEX
  8
0
  5
7FF
 10
27.0010
 20
0.746019
 30
0.000000
  70
    32
  0
VERTEX
  8
0
  5
800
 10
27.0069
 20
0.708604
 30
0.000000
  70
    32
  0
VERTEX
  8
0
  5
801
 10
27.0125
 20
0.672975
 30
0.000000
  70
    32
  0
VERTEX
  8
0
  5
802
 10
27.0178
 20
0.639170
 30
0.000000
  70
    32
  0
VERTEX
  8
0
  5
803
 10
27.0229
 20
0.607224
 30
0.000000
  70
    32
  0
VERTEX
  8
0
  5
804
 10
27.0276
 20
0.577172
 30
0.000000
  70
    32
  0
VERTEX
  8
0
  5
805
 10
27.0321
 20
0.549050
 30
0.000000
  70
    32
  0
VERTEX
  8
0
  5
806
 10
27.0363
 20
0.522894
 30
0.000000
  70
    32
  0
VERTEX
  8
0
  5
807
 10
27.0401
 20
0.498739
 30
0.000000
  70
    32
  0
VERTEX
  8
0
  5
808
 10
27.0437
 20
0.476622
 30
0.000000
  70
    32
  0
VERTEX
  8
0
  5
809
 10
27.0469
 20
0.456577
 30
0.000000
  70
    32
  0
VERTEX
  8
0
  5
80A
 10
27.0499
 20
0.438641
 30
0.000000
  70
    32
  0
VERTEX
  8
0
  5
80B
 10
27.0525
 20
0.422850
 30
0.000000
  70
    32
  0
VERTEX
  8
0
  5
80C
 10
27.0547
 20
0.409238
 30
0.000000
  70
    32
  0
VERTEX
  8
0
  5
80D
 10
27.0567
 20
0.397843
 30
0.000000
  70
    32
  0
VERTEX
  8
0
  5
80E
 10
27.0582
 20
0.388698
 30
0.000000
  70
    32
  0
VERTEX
  8
0
  5
80F
 10
27.0595
 20
0.381841
 30
0.000000
  70
    32
  0
SEQEND
  8
0
  5
810
  0
POLYLINE
  8
0
  5
811
  66
     1
 10
0.000000
 20
0.000000
 30
0.000000
  70
     8
  0
VERTEX
  8
0
  5
812
 10
27.0595
 20
0.381841
 30
0.000000
  70
    32
  0
VERTEX
  8
0
  5
813
 10
27.0605
 20
0.376383
 30
0.000000
  70
    32
  0
VERTEX
  8
0
  5
814
 10
27.0615
 20
0.370979
 30
0.000000
  70
    32
  0
VERTEX
  8
0
  5
815
 10
27.0625
 20
0.365628
 30
0.000000
  70
    32
  0
VERTEX
  8
0
  5
816
 10
27.0634
 20
0.360330
 30
0.000000
  70
    32
  0
VERTEX
  8
0
  5
817
 10
27.0643
 20
0.355084
 30
0.000000
  70
    32
  0
VERTEX
  8
0
  5
818
 10
27.0653
 20
0.349889
 30
0.000000
  70
    32
  0
VERTEX
  8
0
  5
819
 10
27.0662
 20
0.344745
 30
0.000000
  70
    32
  0
VERTEX
  8
0
  5
81A
 10
27.0670
 20
0.339652
 30
0.000000
  70
    32
  0
VERTEX
  8
0
  5
81B
 10
27.0679
 20
0.334608
 30
0.000000
  70
    32
  0
VERTEX
  8
0
  5
81C
 10
27.0687
 20
0.329614
 30
0.000000
  70
    32
  0
VERTEX
  8
0
  5
81D
 10
27.0695
 20
0.324668
 30
0.000000
  70
    32
  0
VERTEX
  8
0
  5
81E
 10
27.0703
 20
0.319770
 30
0.000000
  70
    32
  0
VERTEX
  8
0
  5
81F
 10
27.0711
 20
0.314919
 30
0.000000
  70
    32
  0
VERTEX
  8
0
  5
820
 10
27.0718
 20
0.310116
 30
0.000000
  70
    32
  0
VERTEX
  8
0
  5
821
 10
27.0726
 20
0.305359
 30
0.000000
  70
    32
  0
VERTEX
  8
0
  5
822
 10
27.0733
 20
0.300647
 30
0.000000
  70
    32
  0
VERTEX
  8
0
  5
823
 10
27.0740
 20
0.295981
 30
0.000000
  70
    32
  0
VERTEX
  8
0
  5
824
 10
27.0747
 20
0.291360
 30
0.000000
  70
    32
  0
VERTEX
  8
0
  5
825
 10
27.0753
 20
0.286782
 30
0.000000
  70
    32
  0
VERTEX
  8
0
  5
826
 10
27.0760
 20
0.282248
 30
0.000000
  70
    32
  0
VERTEX
  8
0
  5
827
 10
27.0766
 20
0.277757
 30
0.000000
  70
    32
  0
VERTEX
  8
0
  5
828
 10
27.0772
 20
0.273308
 30
0.000000
  70
    32
  0
VERTEX
  8
0
  5
829
 10
27.0778
 20
0.268901
 30
0.000000
  70
    32
  0
VERTEX
  8
0
  5
82A
 10
27.0784
 20
0.264535
 30
0.000000
  70
    32
  0
VERTEX
  8
0
  5
82B
 10
27.0790
 20
0.260210
 30
0.000000
  70
    32
  0
VERTEX
  8
0
  5
82C
 10
27.0795
 20
0.255924
 30
0.000000
  70
    32
  0
VERTEX
  8
0
  5
82D
 10
27.0801
 20
0.251678
 30
0.000000
  70
    32
  0
VERTEX
  8
0
  5
82E
 10
27.0806
 20
0.247471
 30
0.000000
  70
    32
  0
VERTEX
  8
0
  5
82F
 10
27.0811
 20
0.243303
 30
0.000000
  70
    32
  0
VERTEX
  8
0
  5
830
 10
27.0816
 20
0.239172
 30
0.000000
  70
    32
  0
VERTEX
  8
0
  5
831
 10
27.0820
 20
0.235078
 30
0.000000
  70
    32
  0
VERTEX
  8
0
  5
832
 10
27.0825
 20
0.231021
 30
0.000000
  70
    32
  0
VERTEX
  8
0
  5
833
 10
27.0829
 20
0.227000
 30
0.000000
  70
    32
  0
VERTEX
  8
0
  5
834
 10
27.0834
 20
0.223014
 30
0.000000
  70
    32
  0
VERTEX
  8
0
  5
835
 10
27.0838
 20
0.219063
 30
0.000000
  70
    32
  0
VERTEX
  8
0
  5
836
 10
27.0842
 20
0.215147
 30
0.000000
  70
    32
  0
VERTEX
  8
0
  5
837
 10
27.0845
 20
0.211264
 30
0.000000
  70
    32
  0
VERTEX
  8
0
  5
838
 10
27.0849
 20
0.207415
 30
0.000000
  70
    32
  0
VERTEX
  8
0
  5
839
 10
27.0853
 20
0.203598
 30
0.000000
  70
    32
  0
VERTEX
  8
0
  5
83A
 10
27.0856
 20
0.199813
 30
0.000000
  70
    32
  0
VERTEX
  8
0
  5
83B
 10
27.0859
 20
0.196059
 30
0.000000
  70
    32
  0
VERTEX
  8
0
  5
83C
 10
27.0863
 20
0.192336
 30
0.000000
  70
    32
  0
VERTEX
  8
0
  5
83D
 10
27.0866
 20
0.188644
 30
0.000000
  70
    32
  0
VERTEX
  8
0
  5
83E
 10
27.0869
 20
0.184981
 30
0.000000
  70
    32
  0
VERTEX
  8
0
  5
83F
 10
27.0871
 20
0.181348
 30
0.000000
  70
    32
  0
VERTEX
  8
0
  5
840
 10
27.0874
 20
0.177743
 30
0.000000
  70
    32
  0
VERTEX
  8
0
  5
841
 10
27.0877
 20
0.174166
 30
0.000000
  70
    32
  0
VERTEX
  8
0
  5
842
 10
27.0879
 20
0.170616
 30
0.000000
  70
    32
  0
VERTEX
  8
0
  5
843
 10
27.0882
 20
0.167094
 30
0.000000
  70
    32
  0
VERTEX
  8
0
  5
844
 10
27.0884
 20
0.163597
 30
0.000000
  70
    32
  0
VERTEX
  8
0
  5
845
 10
27.0886
 20
0.160127
 30
0.000000
  70
    32
  0
VERTEX
  8
0
  5
846
 10
27.0888
 20
0.156681
 30
0.000000
  70
    32
  0
VERTEX
  8
0
  5
847
 10
27.0890
 20
0.153260
 30
0.000000
  70
    32
  0
VERTEX
  8
0
  5
848
 10
27.0892
 20
0.149863
 30
0.000000
  70
    32
  0
VERTEX
  8
0
  5
849
 10
27.0893
 20
0.146490
 30
0.000000
  70
    32
  0
VERTEX
  8
0
  5
84A
 10
27.0895
 20
0.143139
 30
0.000000
  70
    32
  0
VERTEX
  8
0
  5
84B
 10
27.0896
 20
0.139811
 30
0.000000
  70
    32
  0
VERTEX
  8
0
  5
84C
 10
27.0898
 20
0.136504
 30
0.000000
  70
    32
  0
VERTEX
  8
0
  5
84D
 10
27.0899
 20
0.133218
 30
0.000000
  70
    32
  0
VERTEX
  8
0
  5
84E
 10
27.0900
 20
0.129954
 30
0.000000
  70
    32
  0
VERTEX
  8
0
  5
84F
 10
27.0902
 20
0.126709
 30
0.000000
  70
    32
  0
VERTEX
  8
0
  5
850
 10
27.0903
 20
0.123483
 30
0.000000
  70
    32
  0
VERTEX
  8
0
  5
851
 10
27.0904
 20
0.120276
 30
0.000000
  70
    32
  0
VERTEX
  8
0
  5
852
 10
27.0905
 20
0.117088
 30
0.000000
  70
    32
  0
VERTEX
  8
0
  5
853
 10
27.0905
 20
0.113917
 30
0.000000
  70
    32
  0
VERTEX
  8
0
  5
854
 10
27.0906
 20
0.110763
 30
0.000000
  70
    32
  0
VERTEX
  8
0
  5
855
 10
27.0907
 20
0.107626
 30
0.000000
  70
    32
  0
VERTEX
  8
0
  5
856
 10
27.0907
 20
0.104505
 30
0.000000
  70
    32
  0
VERTEX
  8
0
  5
857
 10
27.0908
 20
0.101399
 30
0.000000
  70
    32
  0
VERTEX
  8
0
  5
858
 10
27.0908
 20
0.0983086
 30
0.000000
  70
    32
  0
VERTEX
  8
0
  5
859
 10
27.0909
 20
0.0952320
 30
0.000000
  70
    32
  0
VERTEX
  8
0
  5
85A
 10
27.0909
 20
0.0921691
 30
0.000000
  70
    32
  0
VERTEX
  8
0
  5
85B
 10
27.0909
 20
0.0891193
 30
0.000000
  70
    32
  0
VERTEX
  8
0
  5
85C
 10
27.0909
 20
0.0860820
 30
0.000000
  70
    32
  0
VERTEX
  8
0
  5
85D
 10
27.0910
 20
0.0830568
 30
0.000000
  70
    32
  0
VERTEX
  8
0
  5
85E
 10
27.0910
 20
0.0800429
 30
0.000000
  70
    32
  0
VERTEX
  8
0
  5
85F
 10
27.0910
 20
0.0770398
 30
0.000000
  70
    32
  0
VERTEX
  8
0
  5
860
 10
27.0910
 20
0.0740470
 30
0.000000
  70
    32
  0
VERTEX
  8
0
  5
861
 10
27.0910
 20
0.0710639
 30
0.000000
  70
    32
  0
VERTEX
  8
0
  5
862
 10
27.0909
 20
0.0680899
 30
0.000000
  70
    32
  0
VERTEX
  8
0
  5
863
 10
27.0909
 20
0.0651244
 30
0.000000
  70
    32
  0
VERTEX
  8
0
  5
864
 10
27.0909
 20
0.0621669
 30
0.000000
  70
    32
  0
VERTEX
  8
0
  5
865
 10
27.0909
 20
0.0592168
 30
0.000000
  70
    32
  0
VERTEX
  8
0
  5
866
 10
27.0908
 20
0.0562735
 30
0.000000
  70
    32
  0
VERTEX
  8
0
  5
867
 10
27.0908
 20
0.0533364
 30
0.000000
  70
    32
  0
VERTEX
  8
0
  5
868
 10
27.0908
 20
0.0504050
 30
0.000000
  70
    32
  0
VERTEX
  8
0
  5
869
 10
27.0907
 20
0.0474788
 30
0.000000
  70
    32
  0
VERTEX
  8
0
  5
86A
 10
27.0907
 20
0.0445570
 30
0.000000
  70
    32
  0
VERTEX
  8
0
  5
86B
 10
27.0906
 20
0.0416392
 30
0.000000
  70
    32
  0
VERTEX
  8
0
  5
86C
 10
27.0906
 20
0.0387248
 30
0.000000
  70
    32
  0
VERTEX
  8
0
  5
86D
 10
27.0905
 20
0.0358132
 30
0.000000
  70
    32
  0
VERTEX
  8
0
  5
86E
 10
27.0905
 20
0.0329038
 30
0.000000
  70
    32
  0
VERTEX
  8
0
  5
86F
 10
27.0904
 20
0.0299961
 30
0.000000
  70
    32
  0
VERTEX
  8
0
  5
870
 10
27.0904
 20
0.0270895
 30
0.000000
  70
    32
  0
VERTEX
  8
0
  5
871
 10
27.0903
 20
0.0241834
 30
0.000000
  70
    32
  0
VERTEX
  8
0
  5
872
 10
27.0903
 20
0.0212772
 30
0.000000
  70
    32
  0
VERTEX
  8
0
  5
873
 10
27.0902
 20
0.0183704
 30
0.000000
  70
    32
  0
VERTEX
  8
0
  5
874
 10
27.0901
 20
0.0154625
 30
0.000000
  70
    32
  0
VERTEX
  8
0
  5
875
 10
27.0901
 20
0.0125527
 30
0.000000
  70
    32
  0
VERTEX
  8
0
  5
876
 10
27.0900
 20
0.00964060
 30
0.000000
  70
    32
  0
VERTEX
  8
0
  5
877
 10
27.0899
 20
0.00672559
 30
0.000000
  70
    32
  0
VERTEX
  8
0
  5
878
 10
27.0899
 20
0.00380709
 30
0.000000
  70
    32
  0
VERTEX
  8
0
  5
879
 10
27.0898
 20
0.000884527
 30
0.000000
  70
    32
  0
VERTEX
  8
0
  5
87A
 10
27.0897
 20
-0.00204267
 30
0.000000
  70
    32
  0
VERTEX
  8
0
  5
87B
 10
27.0897
 20
-0.00497508
 30
0.000000
  70
    32
  0
VERTEX
  8
0
  5
87C
 10
27.0896
 20
-0.00791326
 30
0.000000
  70
    32
  0
VERTEX
  8
0
  5
87D
 10
27.0895
 20
-0.0108578
 30
0.000000
  70
    32
  0
VERTEX
  8
0
  5
87E
 10
27.0895
 20
-0.0138093
 30
0.000000
  70
    32
  0
VERTEX
  8
0
  5
87F
 10
27.0894
 20
-0.0167682
 30
0.000000
  70
    32
  0
VERTEX
  8
0
  5
880
 10
27.0894
 20
-0.0197353
 30
0.000000
  70
    32
  0
VERTEX
  8
0
  5
881
 10
27.0893
 20
-0.0227109
 30
0.000000
  70
    32
  0
VERTEX
  8
0
  5
882
 10
27.0892
 20
-0.0256958
 30
0.000000
  70
    32
  0
VERTEX
  8
0
  5
883
 10
27.0892
 20
-0.0286905
 30
0.000000
  70
    32
  0
VERTEX
  8
0
  5
884
 10
27.0891
 20
-0.0316956
 30
0.000000
  70
    32
  0
VERTEX
  8
0
  5
885
 10
27.0891
 20
-0.0347115
 30
0.000000
  70
    32
  0
VERTEX
  8
0
  5
886
 10
27.0890
 20
-0.0377390
 30
0.000000
  70
    32
  0
VERTEX
  8
0
  5
887
 10
27.0890
 20
-0.0407786
 30
0.000000
  70
    32
  0
VERTEX
  8
0
  5
888
 10
27.0890
 20
-0.0438308
 30
0.000000
  70
    32
  0
VERTEX
  8
0
  5
889
 10
27.0889
 20
-0.0468962
 30
0.000000
  70
    32
  0
VERTEX
  8
0
  5
88A
 10
27.0889
 20
-0.0499755
 30
0.000000
  70
    32
  0
VERTEX
  8
0
  5
88B
 10
27.0889
 20
-0.0530691
 30
0.000000
  70
    32
  0
VERTEX
  8
0
  5
88C
 10
27.0888
 20
-0.0561776
 30
0.000000
  70
    32
  0
VERTEX
  8
0
  5
88D
 10
27.0888
 20
-0.0593017
 30
0.000000
  70
    32
  0
VERTEX
  8
0
  5
88E
 10
27.0888
 20
-0.0624418
 30
0.000000
  70
    32
  0
VERTEX
  8
0
  5
88F
 10
27.0888
 20
-0.0655986
 30
0.000000
  70
    32
  0
VERTEX
  8
0
  5
890
 10
27.0888
 20
-0.0687727
 30
0.000000
  70
    32
  0
VERTEX
  8
0
  5
891
 10
27.0888
 20
-0.0719645
 30
0.000000
  70
    32
  0
SEQEND
  8
0
  5
892
  0
POLYLINE
  8
0
  5
893
  66
     1
 10
0.000000
 20
0.000000
 30
0.000000
  70
     8
  0
VERTEX
  8
0
  5
894
 10
2.70254
 20
-0.0719645
 30
0.000000
  70
    32
  0
VERTEX
  8
0
  5
895
 10
2.70091
 20
-0.0719614
 30
0.000000
  70
    32
  0
VERTEX
  8
0
  5
896
 10
2.69928
 20
-0.0719518
 30
0.000000
  70
    32
  0
VERTEX
  8
0
  5
897
 10
2.69765
 20
-0.0719357
 30
0.000000
  70
    32
  0
VERTEX
  8
0
  5
898
 10
2.69603
 20
-0.0719129
 30
0.000000
  70
    32
  0
VERTEX
  8
0
  5
899
 10
2.69440
 20
-0.0718835
 30
0.000000
  70
    32
  0
VERTEX
  8
0
  5
89A
 10
2.69277
 20
-0.0718472
 30
0.000000
  70
    32
  0
VERTEX
  8
0
  5
89B
 10
2.69114
 20
-0.0718039
 30
0.000000
  70
    32
  0
VERTEX
  8
0
  5
89C
 10
2.68952
 20
-0.0717535
 30
0.000000
  70
    32
  0
VERTEX
  8
0
  5
89D
 10
2.68790
 20
-0.0716960
 30
0.000000
  70
    32
  0
VERTEX
  8
0
  5
89E
 10
2.68627
 20
-0.0716312
 30
0.000000
  70
    32
  0
VERTEX
  8
0
  5
89F
 10
2.68465
 20
-0.0715590
 30
0.000000
  70
    32
  0
VERTEX
  8
0
  5
8A0
 10
2.68304
 20
-0.0714793
 30
0.000000
  70
    32
  0
VERTEX
  8
0
  5
8A1
 10
2.68142
 20
-0.0713920
 30
0.000000
  70
    32
  0
VERTEX
  8
0
  5
8A2
 10
2.67981
 20
-0.0712969
 30
0.000000
  70
    32
  0
VERTEX
  8
0
  5
8A3
 10
2.67820
 20
-0.0711940
 30
0.000000
  70
    32
  0
VERTEX
  8
0
  5
8A4
 10
2.67659
 20
-0.0710832
 30
0.000000
  70
    32
  0
VERTEX
  8
0
  5
8A5
 10
2.67499
 20
-0.0709643
 30
0.000000
  70
    32
  0
VERTEX
  8
0
  5
8A6
 10
2.67339
 20
-0.0708373
 30
0.000000
  70
    32
  0
VERTEX
  8
0
  5
8A7
 10
2.67179
 20
-0.0707019
 30
0.000000
  70
    32
  0
VERTEX
  8
0
  5
8A8
 10
2.67020
 20
-0.0705582
 30
0.000000
  70
    32
  0
VERTEX
  8
0
  5
8A9
 10
2.66861
 20
-0.0704060
 30
0.000000
  70
    32
  0
VERTEX
  8
0
  5
8AA
 10
2.66702
 20
-0.0702452
 30
0.000000
  70
    32
  0
VERTEX
  8
0
  5
8AB
 10
2.66544
 20
-0.0700757
 30
0.000000
  70
    32
  0
VERTEX
  8
0
  5
8AC
 10
2.66386
 20
-0.0698974
 30
0.000000
  70
    32
  0
VERTEX
  8
0
  5
8AD
 10
2.66229
 20
-0.0697101
 30
0.000000
  70
    32
  0
VERTEX
  8
0
  5
8AE
 10
2.66073
 20
-0.0695138
 30
0.000000
  70
    32
  0
VERTEX
  8
0
  5
8AF
 10
2.65916
 20
-0.0693084
 30
0.000000
  70
    32
  0
VERTEX
  8
0
  5
8B0
 10
2.65761
 20
-0.0690936
 30
0.000000
  70
    32
  0
VERTEX
  8
0
  5
8B1
 10
2.65606
 20
-0.0688696
 30
0.000000
  70
    32
  0
VERTEX
  8
0
  5
8B2
 10
2.65451
 20
-0.0686360
 30
0.000000
  70
    32
  0
VERTEX
  8
0
  5
8B3
 10
2.65297
 20
-0.0683928
 30
0.000000
  70
    32
  0
VERTEX
  8
0
  5
8B4
 10
2.65144
 20
-0.0681400
 30
0.000000
  70
    32
  0
VERTEX
  8
0
  5
8B5
 10
2.64992
 20
-0.0678773
 30
0.000000
  70
    32
  0
VERTEX
  8
0
  5
8B6
 10
2.64840
 20
-0.0676048
 30
0.000000
  70
    32
  0
VERTEX
  8
0
  5
8B7
 10
2.64688
 20
-0.0673222
 30
0.000000
  70
    32
  0
VERTEX
  8
0
  5
8B8
 10
2.64538
 20
-0.0670294
 30
0.000000
  70
    32
  0
VERTEX
  8
0
  5
8B9
 10
2.64388
 20
-0.0667265
 30
0.000000
  70
    32
  0
VERTEX
  8
0
  5
8BA
 10
2.64239
 20
-0.0664131
 30
0.000000
  70
    32
  0
VERTEX
  8
0
  5
8BB
 10
2.64091
 20
-0.0660893
 30
0.000000
  70
    32
  0
VERTEX
  8
0
  5
8BC
 10
2.63943
 20
-0.0657550
 30
0.000000
  70
    32
  0
VERTEX
  8
0
  5
8BD
 10
2.63796
 20
-0.0654099
 30
0.000000
  70
    32
  0
VERTEX
  8
0
  5
8BE
 10
2.63650
 20
-0.0650541
 30
0.000000
  70
    32
  0
VERTEX
  8
0
  5
8BF
 10
2.63505
 20
-0.0646873
 30
0.000000
  70
    32
  0
VERTEX
  8
0
  5
8C0
 10
2.63361
 20
-0.0643095
 30
0.000000
  70
    32
  0
VERTEX
  8
0
  5
8C1
 10
2.63218
 20
-0.0639207
 30
0.000000
  70
    32
  0
VERTEX
  8
0
  5
8C2
 10
2.63075
 20
-0.0635205
 30
0.000000
  70
    32
  0
VERTEX
  8
0
  5
8C3
 10
2.62934
 20
-0.0631091
 30
0.000000
  70
    32
  0
VERTEX
  8
0
  5
8C4
 10
2.62793
 20
-0.0626862
 30
0.000000
  70
    32
  0
VERTEX
  8
0
  5
8C5
 10
2.62654
 20
-0.0622517
 30
0.000000
  70
    32
  0
VERTEX
  8
0
  5
8C6
 10
2.62515
 20
-0.0618056
 30
0.000000
  70
    32
  0
VERTEX
  8
0
  5
8C7
 10
2.62377
 20
-0.0613477
 30
0.000000
  70
    32
  0
VERTEX
  8
0
  5
8C8
 10
2.62241
 20
-0.0608778
 30
0.000000
  70
    32
  0
VERTEX
  8
0
  5
8C9
 10
2.62105
 20
-0.0603960
 30
0.000000
  70
    32
  0
VERTEX
  8
0
  5
8CA
 10
2.61971
 20
-0.0599021
 30
0.000000
  70
    32
  0
VERTEX
  8
0
  5
8CB
 10
2.61837
 20
-0.0593960
 30
0.000000
  70
    32
  0
VERTEX
  8
0
  5
8CC
 10
2.61705
 20
-0.0588775
 30
0.000000
  70
    32
  0
VERTEX
  8
0
  5
8CD
 10
2.61574
 20
-0.0583466
 30
0.000000
  70
    32
  0
VERTEX
  8
0
  5
8CE
 10
2.61444
 20
-0.0578032
 30
0.000000
  70
    32
  0
VERTEX
  8
0
  5
8CF
 10
2.61315
 20
-0.0572471
 30
0.000000
  70
    32
  0
VERTEX
  8
0
  5
8D0
 10
2.61188
 20
-0.0566782
 30
0.000000
  70
    32
  0
VERTEX
  8
0
  5
8D1
 10
2.61061
 20
-0.0560965
 30
0.000000
  70
    32
  0
VERTEX
  8
0
  5
8D2
 10
2.60936
 20
-0.0555018
 30
0.000000
  70
    32
  0
VERTEX
  8
0
  5
8D3
 10
2.60812
 20
-0.0548940
 30
0.000000
  70
    32
  0
VERTEX
  8
0
  5
8D4
 10
2.60690
 20
-0.0542729
 30
0.000000
  70
    32
  0
VERTEX
  8
0
  5
8D5
 10
2.60568
 20
-0.0536386
 30
0.000000
  70
    32
  0
VERTEX
  8
0
  5
8D6
 10
2.60448
 20
-0.0529908
 30
0.000000
  70
    32
  0
VERTEX
  8
0
  5
8D7
 10
2.60330
 20
-0.0523296
 30
0.000000
  70
    32
  0
VERTEX
  8
0
  5
8D8
 10
2.60212
 20
-0.0516546
 30
0.000000
  70
    32
  0
VERTEX
  8
0
  5
8D9
 10
2.60096
 20
-0.0509659
 30
0.000000
  70
    32
  0
VERTEX
  8
0
  5
8DA
 10
2.59982
 20
-0.0502634
 30
0.000000
  70
    32
  0
VERTEX
  8
0
  5
8DB
 10
2.59869
 20
-0.0495469
 30
0.000000
  70
    32
  0
VERTEX
  8
0
  5
8DC
 10
2.59757
 20
-0.0488163
 30
0.000000
  70
    32
  0
VERTEX
  8
0
  5
8DD
 10
2.59647
 20
-0.0480715
 30
0.000000
  70
    32
  0
VERTEX
  8
0
  5
8DE
 10
2.59538
 20
-0.0473124
 30
0.000000
  70
    32
  0
VERTEX
  8
0
  5
8DF
 10
2.59430
 20
-0.0465389
 30
0.000000
  70
    32
  0
VERTEX
  8
0
  5
8E0
 10
2.59325
 20
-0.0457509
 30
0.000000
  70
    32
  0
VERTEX
  8
0
  5
8E1
 10
2.59220
 20
-0.0449483
 30
0.000000
  70
    32
  0
VERTEX
  8
0
  5
8E2
 10
2.59118
 20
-0.0441309
 30
0.000000
  70
    32
  0
VERTEX
  8
0
  5
8E3
 10
2.59017
 20
-0.0432987
 30
0.000000
  70
    32
  0
VERTEX
  8
0
  5
8E4
 10
2.58917
 20
-0.0424515
 30
0.000000
  70
    32
  0
VERTEX
  8
0
  5
8E5
 10
2.58819
 20
-0.0415893
 30
0.000000
  70
    32
  0
VERTEX
  8
0
  5
8E6
 10
2.58723
 20
-0.0407118
 30
0.000000
  70
    32
  0
VERTEX
  8
0
  5
8E7
 10
2.58628
 20
-0.0398191
 30
0.000000
  70
    32
  0
VERTEX
  8
0
  5
8E8
 10
2.58536
 20
-0.0389110
 30
0.000000
  70
    32
  0
VERTEX
  8
0
  5
8E9
 10
2.58444
 20
-0.0379874
 30
0.000000
  70
    32
  0
VERTEX
  8
0
  5
8EA
 10
2.58355
 20
-0.0370482
 30
0.000000
  70
    32
  0
VERTEX
  8
0
  5
8EB
 10
2.58267
 20
-0.0360932
 30
0.000000
  70
    32
  0
VERTEX
  8
0
  5
8EC
 10
2.58181
 20
-0.0351225
 30
0.000000
  70
    32
  0
VERTEX
  8
0
  5
8ED
 10
2.58097
 20
-0.0341357
 30
0.000000
  70
    32
  0
VERTEX
  8
0
  5
8EE
 10
2.58015
 20
-0.0331330
 30
0.000000
  70
    32
  0
VERTEX
  8
0
  5
8EF
 10
2.57934
 20
-0.0321140
 30
0.000000
  70
    32
  0
VERTEX
  8
0
  5
8F0
 10
2.57855
 20
-0.0310788
 30
0.000000
  70
    32
  0
VERTEX
  8
0
  5
8F1
 10
2.57779
 20
-0.0300272
 30
0.000000
  70
    32
  0
VERTEX
  8
0
  5
8F2
 10
2.57704
 20
-0.0289592
 30
0.000000
  70
    32
  0
VERTEX
  8
0
  5
8F3
 10
2.57631
 20
-0.0278745
 30
0.000000
  70
    32
  0
VERTEX
  8
0
  5
8F4
 10
2.57559
 20
-0.0267731
 30
0.000000
  70
    32
  0
VERTEX
  8
0
  5
8F5
 10
2.57490
 20
-0.0256549
 30
0.000000
  70
    32
  0
VERTEX
  8
0
  5
8F6
 10
2.57423
 20
-0.0245197
 30
0.000000
  70
    32
  0
VERTEX
  8
0
  5
8F7
 10
2.57358
 20
-0.0233676
 30
0.000000
  70
    32
  0
VERTEX
  8
0
  5
8F8
 10
2.57295
 20
-0.0221982
 30
0.000000
  70
    32
  0
VERTEX
  8
0
  5
8F9
 10
2.57233
 20
-0.0210117
 30
0.000000
  70
    32
  0
VERTEX
  8
0
  5
8FA
 10
2.57174
 20
-0.0198077
 30
0.000000
  70
    32
  0
VERTEX
  8
0
  5
8FB
 10
2.57117
 20
-0.0185863
 30
0.000000
  70
    32
  0
VERTEX
  8
0
  5
8FC
 10
2.57062
 20
-0.0173473
 30
0.000000
  70
    32
  0
VERTEX
  8
0
  5
8FD
 10
2.57009
 20
-0.0160906
 30
0.000000
  70
    32
  0
VERTEX
  8
0
  5
8FE
 10
2.56959
 20
-0.0148160
 30
0.000000
  70
    32
  0
VERTEX
  8
0
  5
8FF
 10
2.56910
 20
-0.0135236
 30
0.000000
  70
    32
  0
VERTEX
  8
0
  5
900
 10
2.56864
 20
-0.0122132
 30
0.000000
  70
    32
  0
VERTEX
  8
0
  5
901
 10
2.56819
 20
-0.0108846
 30
0.000000
  70
    32
  0
VERTEX
  8
0
  5
902
 10
2.56777
 20
-0.00953774
 30
0.000000
  70
    32
  0
VERTEX
  8
0
  5
903
 10
2.56738
 20
-0.00817255
 30
0.000000
  70
    32
  0
VERTEX
  8
0
  5
904
 10
2.56700
 20
-0.00678890
 30
0.000000
  70
    32
  0
VERTEX
  8
0
  5
905
 10
2.56665
 20
-0.00538668
 30
0.000000
  70
    32
  0
VERTEX
  8
0
  5
906
 10
2.56632
 20
-0.00396578
 30
0.000000
  70
    32
  0
VERTEX
  8
0
  5
907
 10
2.56601
 20
-0.00252609
 30
0.000000
  70
    32
  0
VERTEX
  8
0
  5
908
 10
2.56573
 20
-0.00106749
 30
0.000000
  70
    32
  0
VERTEX
  8
0
  5
909
 10
2.56547
 20
0.000410114
 30
0.000000
  70
    32
  0
VERTEX
  8
0
  5
90A
 10
2.56523
 20
0.00190684
 30
0.000000
  70
    32
  0
VERTEX
  8
0
  5
90B
 10
2.56502
 20
0.00342280
 30
0.000000
  70
    32
  0
VERTEX
  8
0
  5
90C
 10
2.56483
 20
0.00495809
 30
0.000000
  70
    32
  0
VERTEX
  8
0
  5
90D
 10
2.56467
 20
0.00651284
 30
0.000000
  70
    32
  0
VERTEX
  8
0
  5
90E
 10
2.56453
 20
0.00808714
 30
0.000000
  70
    32
  0
VERTEX
  8
0
  5
90F
 10
2.56442
 20
0.00968111
 30
0.000000
  70
    32
  0
VERTEX
  8
0
  5
910
 10
2.56433
 20
0.0112949
 30
0.000000
  70
    32
  0
VERTEX
  8
0
  5
911
 10
2.56427
 20
0.0129285
 30
0.000000
  70
    32
  0
VERTEX
  8
0
  5
912
 10
2.56423
 20
0.0145821
 30
0.000000
  70
    32
  0
VERTEX
  8
0
  5
913
 10
2.56421
 20
0.0162559
 30
0.000000
  70
    32
  0
SEQEND
  8
0
  5
914
  0
POLYLINE
  8
0
  5
915
  66
     1
 10
0.000000
 20
0.000000
 30
0.000000
  70
     8
  0
VERTEX
  8
0
  5
916
 10
2.56421
 20
0.0874402
 30
0.000000
  70
    32
  0
VERTEX
  8
0
  5
917
 10
2.56421
 20
0.0876145
 30
0.000000
  70
    32
  0
VERTEX
  8
0
  5
918
 10
2.56421
 20
0.0881338
 30
0.000000
  70
    32
  0
VERTEX
  8
0
  5
919
 10
2.56421
 20
0.0889926
 30
0.000000
  70
    32
  0
VERTEX
  8
0
  5
91A
 10
2.56421
 20
0.0901853
 30
0.000000
  70
    32
  0
VERTEX
  8
0
  5
91B
 10
2.56421
 20
0.0917064
 30
0.000000
  70
    32
  0
VERTEX
  8
0
  5
91C
 10
2.56421
 20
0.0935504
 30
0.000000
  70
    32
  0
VERTEX
  8
0
  5
91D
 10
2.56421
 20
0.0957118
 30
0.000000
  70
    32
  0
VERTEX
  8
0
  5
91E
 10
2.56421
 20
0.0981851
 30
0.000000
  70
    32
  0
VERTEX
  8
0
  5
91F
 10
2.56421
 20
0.100965
 30
0.000000
  70
    32
  0
VERTEX
  8
0
  5
920
 10
2.56421
 20
0.104045
 30
0.000000
  70
    32
  0
VERTEX
  8
0
  5
921
 10
2.56421
 20
0.107421
 30
0.000000
  70
    32
  0
VERTEX
  8
0
  5
922
 10
2.56421
 20
0.111086
 30
0.000000
  70
    32
  0
VERTEX
  8
0
  5
923
 10
2.56421
 20
0.115036
 30
0.000000
  70
    32
  0
VERTEX
  8
0
  5
924
 10
2.56421
 20
0.119265
 30
0.000000
  70
    32
  0
VERTEX
  8
0
  5
925
 10
2.56421
 20
0.123766
 30
0.000000
  70
    32
  0
VERTEX
  8
0
  5
926
 10
2.56421
 20
0.128536
 30
0.000000
  70
    32
  0
VERTEX
  8
0
  5
927
 10
2.56421
 20
0.133567
 30
0.000000
  70
    32
  0
VERTEX
  8
0
  5
928
 10
2.56421
 20
0.138856
 30
0.000000
  70
    32
  0
VERTEX
  8
0
  5
929
 10
2.56421
 20
0.144395
 30
0.000000
  70
    32
  0
VERTEX
  8
0
  5
92A
 10
2.56421
 20
0.150180
 30
0.000000
  70
    32
  0
VERTEX
  8
0
  5
92B
 10
2.56421
 20
0.156205
 30
0.000000
  70
    32
  0
VERTEX
  8
0
  5
92C
 10
2.56421
 20
0.162465
 30
0.000000
  70
    32
  0
VERTEX
  8
0
  5
92D
 10
2.56421
 20
0.168954
 30
0.000000
  70
    32
  0
VERTEX
  8
0
  5
92E
 10
2.56421
 20
0.175666
 30
0.000000
  70
    32
  0
VERTEX
  8
0
  5
92F
 10
2.56421
 20
0.182596
 30
0.000000
  70
    32
  0
VERTEX
  8
0
  5
930
 10
2.56421
 20
0.189739
 30
0.000000
  70
    32
  0
VERTEX
  8
0
  5
931
 10
2.56421
 20
0.197089
 30
0.000000
  70
    32
  0
VERTEX
  8
0
  5
932
 10
2.56421
 20
0.204640
 30
0.000000
  70
    32
  0
VERTEX
  8
0
  5
933
 10
2.56421
 20
0.212388
 30
0.000000
  70
    32
  0
VERTEX
  8
0
  5
934
 10
2.56421
 20
0.220325
 30
0.000000
  70
    32
  0
VERTEX
  8
0
  5
935
 10
2.56421
 20
0.228448
 30
0.000000
  70
    32
  0
VERTEX
  8
0
  5
936
 10
2.56421
 20
0.236750
 30
0.000000
  70
    32
  0
VERTEX
  8
0
  5
937
 10
2.56421
 20
0.245226
 30
0.000000
  70
    32
  0
VERTEX
  8
0
  5
938
 10
2.56421
 20
0.253870
 30
0.000000
  70
    32
  0
VERTEX
  8
0
  5
939
 10
2.56421
 20
0.262677
 30
0.000000
  70
    32
  0
VERTEX
  8
0
  5
93A
 10
2.56421
 20
0.271641
 30
0.000000
  70
    32
  0
VERTEX
  8
0
  5
93B
 10
2.56421
 20
0.280758
 30
0.000000
  70
    32
  0
VERTEX
  8
0
  5
93C
 10
2.56421
 20
0.290020
 30
0.000000
  70
    32
  0
VERTEX
  8
0
  5
93D
 10
2.56421
 20
0.299423
 30
0.000000
  70
    32
  0
VERTEX
  8
0
  5
93E
 10
2.56421
 20
0.308962
 30
0.000000
  70
    32
  0
VERTEX
  8
0
  5
93F
 10
2.56421
 20
0.318630
 30
0.000000
  70
    32
  0
VERTEX
  8
0
  5
940
 10
2.56421
 20
0.328422
 30
0.000000
  70
    32
  0
VERTEX
  8
0
  5
941
 10
2.56421
 20
0.338333
 30
0.000000
  70
    32
  0
VERTEX
  8
0
  5
942
 10
2.56421
 20
0.348357
 30
0.000000
  70
    32
  0
VERTEX
  8
0
  5
943
 10
2.56421
 20
0.358489
 30
0.000000
  70
    32
  0
VERTEX
  8
0
  5
944
 10
2.56421
 20
0.368723
 30
0.000000
  70
    32
  0
VERTEX
  8
0
  5
945
 10
2.56421
 20
0.379053
 30
0.000000
  70
    32
  0
VERTEX
  8
0
  5
946
 10
2.56421
 20
0.389475
 30
0.000000
  70
    32
  0
VERTEX
  8
0
  5
947
 10
2.56421
 20
0.399982
 30
0.000000
  70
    32
  0
VERTEX
  8
0
  5
948
 10
2.56421
 20
0.410569
 30
0.000000
  70
    32
  0
VERTEX
  8
0
  5
949
 10
2.56421
 20
0.421230
 30
0.000000
  70
    32
  0
VERTEX
  8
0
  5
94A
 10
2.56421
 20
0.431961
 30
0.000000
  70
    32
  0
VERTEX
  8
0
  5
94B
 10
2.56421
 20
0.442755
 30
0.000000
  70
    32
  0
VERTEX
  8
0
  5
94C
 10
2.56421
 20
0.453607
 30
0.000000
  70
    32
  0
VERTEX
  8
0
  5
94D
 10
2.56421
 20
0.464512
 30
0.000000
  70
    32
  0
VERTEX
  8
0
  5
94E
 10
2.56421
 20
0.475463
 30
0.000000
  70
    32
  0
VERTEX
  8
0
  5
94F
 10
2.56421
 20
0.486456
 30
0.000000
  70
    32
  0
VERTEX
  8
0
  5
950
 10
2.56421
 20
0.497485
 30
0.000000
  70
    32
  0
VERTEX
  8
0
  5
951
 10
2.56421
 20
0.508544
 30
0.000000
  70
    32
  0
VERTEX
  8
0
  5
952
 10
2.56421
 20
0.519628
 30
0.000000
  70
    32
  0
VERTEX
  8
0
  5
953
 10
2.56421
 20
0.530731
 30
0.000000
  70
    32
  0
VERTEX
  8
0
  5
954
 10
2.56421
 20
0.541848
 30
0.000000
  70
    32
  0
VERTEX
  8
0
  5
955
 10
2.56421
 20
0.552973
 30
0.000000
  70
    32
  0
VERTEX
  8
0
  5
956
 10
2.56421
 20
0.564101
 30
0.000000
  70
    32
  0
VERTEX
  8
0
  5
957
 10
2.56421
 20
0.575226
 30
0.000000
  70
    32
  0
VERTEX
  8
0
  5
958
 10
2.56421
 20
0.586343
 30
0.000000
  70
    32
  0
VERTEX
  8
0
  5
959
 10
2.56421
 20
0.597447
 30
0.000000
  70
    32
  0
VERTEX
  8
0
  5
95A
 10
2.56421
 20
0.608530
 30
0.000000
  70
    32
  0
VERTEX
  8
0
  5
95B
 10
2.56421
 20
0.619589
 30
0.000000
  70
    32
  0
VERTEX
  8
0
  5
95C
 10
2.56421
 20
0.630618
 30
0.000000
  70
    32
  0
VERTEX
  8
0
  5
95D
 10
2.56421
 20
0.641611
 30
0.000000
  70
    32
  0
VERTEX
  8
0
  5
95E
 10
2.56421
 20
0.652562
 30
0.000000
  70
    32
  0
VERTEX
  8
0
  5
95F
 10
2.56421
 20
0.663467
 30
0.000000
  70
    32
  0
VERTEX
  8
0
  5
960
 10
2.56421
 20
0.674319
 30
0.000000
  70
    32
  0
VERTEX
  8
0
  5
961
 10
2.56421
 20
0.685113
 30
0.000000
  70
    32
  0
VERTEX
  8
0
  5
962
 10
2.56421
 20
0.695844
 30
0.000000
  70
    32
  0
VERTEX
  8
0
  5
963
 10
2.56421
 20
0.706505
 30
0.000000
  70
    32
  0
VERTEX
  8
0
  5
964
 10
2.56421
 20
0.717092
 30
0.000000
  70
    32
  0
VERTEX
  8
0
  5
965
 10
2.56421
 20
0.727600
 30
0.000000
  70
    32
  0
VERTEX
  8
0
  5
966
 10
2.56421
 20
0.738021
 30
0.000000
  70
    32
  0
VERTEX
  8
0
  5
967
 10
2.56421
 20
0.748352
 30
0.000000
  70
    32
  0
VERTEX
  8
0
  5
968
 10
2.56421
 20
0.758585
 30
0.000000
  70
    32
  0
VERTEX
  8
0
  5
969
 10
2.56421
 20
0.768717
 30
0.000000
  70
    32
  0
VERTEX
  8
0
  5
96A
 10
2.56421
 20
0.778741
 30
0.000000
  70
    32
  0
VERTEX
  8
0
  5
96B
 10
2.56421
 20
0.788652
 30
0.000000
  70
    32
  0
VERTEX
  8
0
  5
96C
 10
2.56421
 20
0.798444
 30
0.000000
  70
    32
  0
VERTEX
  8
0
  5
96D
 10
2.56421
 20
0.808113
 30
0.000000
  70
    32
  0
VERTEX
  8
0
  5
96E
 10
2.56421
 20
0.817651
 30
0.000000
  70
    32
  0
VERTEX
  8
0
  5
96F
 10
2.56421
 20
0.827054
 30
0.000000
  70
    32
  0
VERTEX
  8
0
  5
970
 10
2.56421
 20
0.836317
 30
0.000000
  70
    32
  0
VERTEX
  8
0
  5
971
 10
2.56421
 20
0.845433
 30
0.000000
  70
    32
  0
VERTEX
  8
0
  5
972
 10
2.56421
 20
0.854397
 30
0.000000
  70
    32
  0
VERTEX
  8
0
  5
973
 10
2.56421
 20
0.863204
 30
0.000000
  70
    32
  0
VERTEX
  8
0
  5
974
 10
2.56421
 20
0.871848
 30
0.000000
  70
    32
  0
VERTEX
  8
0
  5
975
 10
2.56421
 20
0.880324
 30
0.000000
  70
    32
  0
VERTEX
  8
0
  5
976
 10
2.56421
 20
0.888626
 30
0.000000
  70
    32
  0
VERTEX
  8
0
  5
977
 10
2.56421
 20
0.896749
 30
0.000000
  70
    32
  0
VERTEX
  8
0
  5
978
 10
2.56421
 20
0.904686
 30
0.000000
  70
    32
  0
VERTEX
  8
0
  5
979
 10
2.56421
 20
0.912434
 30
0.000000
  70
    32
  0
VERTEX
  8
0
  5
97A
 10
2.56421
 20
0.919985
 30
0.000000
  70
    32
  0
VERTEX
  8
0
  5
97B
 10
2.56421
 20
0.927335
 30
0.000000
  70
    32
  0
VERTEX
  8
0
  5
97C
 10
2.56421
 20
0.934478
 30
0.000000
  70
    32
  0
VERTEX
  8
0
  5
97D
 10
2.56421
 20
0.941408
 30
0.000000
  70
    32
  0
VERTEX
  8
0
  5
97E
 10
2.56421
 20
0.948120
 30
0.000000
  70
    32
  0
VERTEX
  8
0
  5
97F
 10
2.56421
 20
0.954609
 30
0.000000
  70
    32
  0
VERTEX
  8
0
  5
980
 10
2.56421
 20
0.960869
 30
0.000000
  70
    32
  0
VERTEX
  8
0
  5
981
 10
2.56421
 20
0.966894
 30
0.000000
  70
    32
  0
VERTEX
  8
0
  5
982
 10
2.56421
 20
0.972679
 30
0.000000
  70
    32
  0
VERTEX
  8
0
  5
983
 10
2.56421
 20
0.978219
 30
0.000000
  70
    32
  0
VERTEX
  8
0
  5
984
 10
2.56421
 20
0.983507
 30
0.000000
  70
    32
  0
VERTEX
  8
0
  5
985
 10
2.56421
 20
0.988538
 30
0.000000
  70
    32
  0
VERTEX
  8
0
  5
986
 10
2.56421
 20
0.993308
 30
0.000000
  70
    32
  0
VERTEX
  8
0
  5
987
 10
2.56421
 20
0.997810
 30
0.000000
  70
    32
  0
VERTEX
  8
0
  5
988
 10
2.56421
 20
1.00204
 30
0.000000
  70
    32
  0
VERTEX
  8
0
  5
989
 10
2.56421
 20
1.00599
 30
0.000000
  70
    32
  0
VERTEX
  8
0
  5
98A
 10
2.56421
 20
1.00965
 30
0.000000
  70
    32
  0
VERTEX
  8
0
  5
98B
 10
2.56421
 20
1.01303
 30
0.000000
  70
    32
  0
VERTEX
  8
0
  5
98C
 10
2.56421
 20
1.01611
 30
0.000000
  70
    32
  0
VERTEX
  8
0
  5
98D
 10
2.56421
 20
1.01889
 30
0.000000
  70
    32
  0
VERTEX
  8
0
  5
98E
 10
2.56421
 20
1.02136
 30
0.000000
  70
    32
  0
VERTEX
  8
0
  5
98F
 10
2.56421
 20
1.02352
 30
0.000000
  70
    32
  0
VERTEX
  8
0
  5
990
 10
2.56421
 20
1.02537
 30
0.000000
  70
    32
  0
VERTEX
  8
0
  5
991
 10
2.56421
 20
1.02689
 30
0.000000
  70
    32
  0
VERTEX
  8
0
  5
992
 10
2.56421
 20
1.02808
 30
0.000000
  70
    32
  0
VERTEX
  8
0
  5
993
 10
2.56421
 20
1.02894
 30
0.000000
  70
    32
  0
VERTEX
  8
0
  5
994
 10
2.56421
 20
1.02946
 30
0.000000
  70
    32
  0
VERTEX
  8
0
  5
995
 10
2.56421
 20
1.02963
 30
0.000000
  70
    32
  0
SEQEND
  8
0
  5
996
  0
POLYLINE
  8
0
  5
997
  66
     1
 10
0.000000
 20
0.000000
 30
0.000000
  70
     8
  0
VERTEX
  8
0
  5
998
 10
29.1849
 20
15.0422
 30
0.000000
  70
    32
  0
VERTEX
  8
0
  5
999
 10
29.1820
 20
15.0325
 30
0.000000
  70
    32
  0
VERTEX
  8
0
  5
99A
 10
29.1789
 20
15.0226
 30
0.000000
  70
    32
  0
VERTEX
  8
0
  5
99B
 10
29.1758
 20
15.0123
 30
0.000000
  70
    32
  0
VERTEX
  8
0
  5
99C
 10
29.1725
 20
15.0018
 30
0.000000
  70
    32
  0
VERTEX
  8
0
  5
99D
 10
29.1690
 20
14.9909
 30
0.000000
  70
    32
  0
VERTEX
  8
0
  5
99E
 10
29.1655
 20
14.9799
 30
0.000000
  70
    32
  0
VERTEX
  8
0
  5
99F
 10
29.1618
 20
14.9685
 30
0.000000
  70
    32
  0
VERTEX
  8
0
  5
9A0
 10
29.1580
 20
14.9569
 30
0.000000
  70
    32
  0
VERTEX
  8
0
  5
9A1
 10
29.1541
 20
14.9450
 30
0.000000
  70
    32
  0
VERTEX
  8
0
  5
9A2
 10
29.1501
 20
14.9329
 30
0.000000
  70
    32
  0
VERTEX
  8
0
  5
9A3
 10
29.1460
 20
14.9205
 30
0.000000
  70
    32
  0
VERTEX
  8
0
  5
9A4
 10
29.1417
 20
14.9078
 30
0.000000
  70
    32
  0
VERTEX
  8
0
  5
9A5
 10
29.1373
 20
14.8950
 30
0.000000
  70
    32
  0
VERTEX
  8
0
  5
9A6
 10
29.1328
 20
14.8818
 30
0.000000
  70
    32
  0
VERTEX
  8
0
  5
9A7
 10
29.1282
 20
14.8685
 30
0.000000
  70
    32
  0
VERTEX
  8
0
  5
9A8
 10
29.1235
 20
14.8549
 30
0.000000
  70
    32
  0
VERTEX
  8
0
  5
9A9
 10
29.1187
 20
14.8411
 30
0.000000
  70
    32
  0
VERTEX
  8
0
  5
9AA
 10
29.1138
 20
14.8271
 30
0.000000
  70
    32
  0
VERTEX
  8
0
  5
9AB
 10
29.1088
 20
14.8128
 30
0.000000
  70
    32
  0
VERTEX
  8
0
  5
9AC
 10
29.1036
 20
14.7983
 30
0.000000
  70
    32
  0
VERTEX
  8
0
  5
9AD
 10
29.0984
 20
14.7836
 30
0.000000
  70
    32
  0
VERTEX
  8
0
  5
9AE
 10
29.0930
 20
14.7688
 30
0.000000
  70
    32
  0
VERTEX
  8
0
  5
9AF
 10
29.0876
 20
14.7537
 30
0.000000
  70
    32
  0
VERTEX
  8
0
  5
9B0
 10
29.0820
 20
14.7384
 30
0.000000
  70
    32
  0
VERTEX
  8
0
  5
9B1
 10
29.0764
 20
14.7229
 30
0.000000
  70
    32
  0
VERTEX
  8
0
  5
9B2
 10
29.0706
 20
14.7072
 30
0.000000
  70
    32
  0
VERTEX
  8
0
  5
9B3
 10
29.0648
 20
14.6914
 30
0.000000
  70
    32
  0
VERTEX
  8
0
  5
9B4
 10
29.0589
 20
14.6753
 30
0.000000
  70
    32
  0
VERTEX
  8
0
  5
9B5
 10
29.0528
 20
14.6591
 30
0.000000
  70
    32
  0
VERTEX
  8
0
  5
9B6
 10
29.0467
 20
14.6427
 30
0.000000
  70
    32
  0
VERTEX
  8
0
  5
9B7
 10
29.0405
 20
14.6261
 30
0.000000
  70
    32
  0
VERTEX
  8
0
  5
9B8
 10
29.0342
 20
14.6094
 30
0.000000
  70
    32
  0
VERTEX
  8
0
  5
9B9
 10
29.0278
 20
14.5925
 30
0.000000
  70
    32
  0
VERTEX
  8
0
  5
9BA
 10
29.0213
 20
14.5755
 30
0.000000
  70
    32
  0
VERTEX
  8
0
  5
9BB
 10
29.0148
 20
14.5583
 30
0.000000
  70
    32
  0
VERTEX
  8
0
  5
9BC
 10
29.0081
 20
14.5409
 30
0.000000
  70
    32
  0
VERTEX
  8
0
  5
9BD
 10
29.0014
 20
14.5234
 30
0.000000
  70
    32
  0
VERTEX
  8
0
  5
9BE
 10
28.9946
 20
14.5058
 30
0.000000
  70
    32
  0
VERTEX
  8
0
  5
9BF
 10
28.9877
 20
14.4880
 30
0.000000
  70
    32
  0
VERTEX
  8
0
  5
9C0
 10
28.9807
 20
14.4701
 30
0.000000
  70
    32
  0
VERTEX
  8
0
  5
9C1
 10
28.9736
 20
14.4521
 30
0.000000
  70
    32
  0
VERTEX
  8
0
  5
9C2
 10
28.9665
 20
14.4339
 30
0.000000
  70
    32
  0
VERTEX
  8
0
  5
9C3
 10
28.9593
 20
14.4157
 30
0.000000
  70
    32
  0
VERTEX
  8
0
  5
9C4
 10
28.9520
 20
14.3973
 30
0.000000
  70
    32
  0
VERTEX
  8
0
  5
9C5
 10
28.9447
 20
14.3788
 30
0.000000
  70
    32
  0
VERTEX
  8
0
  5
9C6
 10
28.9372
 20
14.3601
 30
0.000000
  70
    32
  0
VERTEX
  8
0
  5
9C7
 10
28.9297
 20
14.3414
 30
0.000000
  70
    32
  0
VERTEX
  8
0
  5
9C8
 10
28.9222
 20
14.3226
 30
0.000000
  70
    32
  0
VERTEX
  8
0
  5
9C9
 10
28.9145
 20
14.3037
 30
0.000000
  70
    32
  0
VERTEX
  8
0
  5
9CA
 10
28.9068
 20
14.2847
 30
0.000000
  70
    32
  0
VERTEX
  8
0
  5
9CB
 10
28.8990
 20
14.2656
 30
0.000000
  70
    32
  0
VERTEX
  8
0
  5
9CC
 10
28.8912
 20
14.2464
 30
0.000000
  70
    32
  0
VERTEX
  8
0
  5
9CD
 10
28.8833
 20
14.2272
 30
0.000000
  70
    32
  0
VERTEX
  8
0
  5
9CE
 10
28.8753
 20
14.2079
 30
0.000000
  70
    32
  0
VERTEX
  8
0
  5
9CF
 10
28.8673
 20
14.1885
 30
0.000000
  70
    32
  0
VERTEX
  8
0
  5
9D0
 10
28.8592
 20
14.1690
 30
0.000000
  70
    32
  0
VERTEX
  8
0
  5
9D1
 10
28.8511
 20
14.1495
 30
0.000000
  70
    32
  0
VERTEX
  8
0
  5
9D2
 10
28.8429
 20
14.1299
 30
0.000000
  70
    32
  0
VERTEX
  8
0
  5
9D3
 10
28.8347
 20
14.1103
 30
0.000000
  70
    32
  0
VERTEX
  8
0
  5
9D4
 10
28.8264
 20
14.0906
 30
0.000000
  70
    32
  0
VERTEX
  8
0
  5
9D5
 10
28.8180
 20
14.0708
 30
0.000000
  70
    32
  0
VERTEX
  8
0
  5
9D6
 10
28.8096
 20
14.0511
 30
0.000000
  70
    32
  0
VERTEX
  8
0
  5
9D7
 10
28.8011
 20
14.0312
 30
0.000000
  70
    32
  0
VERTEX
  8
0
  5
9D8
 10
28.7926
 20
14.0114
 30
0.000000
  70
    32
  0
VERTEX
  8
0
  5
9D9
 10
28.7841
 20
13.9915
 30
0.000000
  70
    32
  0
VERTEX
  8
0
  5
9DA
 10
28.7755
 20
13.9716
 30
0.000000
  70
    32
  0
VERTEX
  8
0
  5
9DB
 10
28.7668
 20
13.9517
 30
0.000000
  70
    32
  0
VERTEX
  8
0
  5
9DC
 10
28.7581
 20
13.9318
 30
0.000000
  70
    32
  0
VERTEX
  8
0
  5
9DD
 10
28.7494
 20
13.9118
 30
0.000000
  70
    32
  0
VERTEX
  8
0
  5
9DE
 10
28.7406
 20
13.8918
 30
0.000000
  70
    32
  0
VERTEX
  8
0
  5
9DF
 10
28.7318
 20
13.8719
 30
0.000000
  70
    32
  0
VERTEX
  8
0
  5
9E0
 10
28.7230
 20
13.8519
 30
0.000000
  70
    32
  0
VERTEX
  8
0
  5
9E1
 10
28.7141
 20
13.8319
 30
0.000000
  70
    32
  0
VERTEX
  8
0
  5
9E2
 10
28.7052
 20
13.8120
 30
0.000000
  70
    32
  0
VERTEX
  8
0
  5
9E3
 10
28.6962
 20
13.7920
 30
0.000000
  70
    32
  0
VERTEX
  8
0
  5
9E4
 10
28.6872
 20
13.7721
 30
0.000000
  70
    32
  0
VERTEX
  8
0
  5
9E5
 10
28.6782
 20
13.7522
 30
0.000000
  70
    32
  0
VERTEX
  8
0
  5
9E6
 10
28.6691
 20
13.7323
 30
0.000000
  70
    32
  0
VERTEX
  8
0
  5
9E7
 10
28.6600
 20
13.7125
 30
0.000000
  70
    32
  0
VERTEX
  8
0
  5
9E8
 10
28.6509
 20
13.6926
 30
0.000000
  70
    32
  0
VERTEX
  8
0
  5
9E9
 10
28.6418
 20
13.6728
 30
0.000000
  70
    32
  0
VERTEX
  8
0
  5
9EA
 10
28.6326
 20
13.6531
 30
0.000000
  70
    32
  0
VERTEX
  8
0
  5
9EB
 10
28.6234
 20
13.6334
 30
0.000000
  70
    32
  0
VERTEX
  8
0
  5
9EC
 10
28.6142
 20
13.6137
 30
0.000000
  70
    32
  0
VERTEX
  8
0
  5
9ED
 10
28.6050
 20
13.5941
 30
0.000000
  70
    32
  0
VERTEX
  8
0
  5
9EE
 10
28.5957
 20
13.5746
 30
0.000000
  70
    32
  0
VERTEX
  8
0
  5
9EF
 10
28.5864
 20
13.5551
 30
0.000000
  70
    32
  0
VERTEX
  8
0
  5
9F0
 10
28.5771
 20
13.5357
 30
0.000000
  70
    32
  0
VERTEX
  8
0
  5
9F1
 10
28.5678
 20
13.5164
 30
0.000000
  70
    32
  0
VERTEX
  8
0
  5
9F2
 10
28.5585
 20
13.4971
 30
0.000000
  70
    32
  0
VERTEX
  8
0
  5
9F3
 10
28.5491
 20
13.4779
 30
0.000000
  70
    32
  0
VERTEX
  8
0
  5
9F4
 10
28.5398
 20
13.4588
 30
0.000000
  70
    32
  0
VERTEX
  8
0
  5
9F5
 10
28.5304
 20
13.4397
 30
0.000000
  70
    32
  0
VERTEX
  8
0
  5
9F6
 10
28.5210
 20
13.4208
 30
0.000000
  70
    32
  0
VERTEX
  8
0
  5
9F7
 10
28.5117
 20
13.4020
 30
0.000000
  70
    32
  0
VERTEX
  8
0
  5
9F8
 10
28.5023
 20
13.3832
 30
0.000000
  70
    32
  0
VERTEX
  8
0
  5
9F9
 10
28.4929
 20
13.3646
 30
0.000000
  70
    32
  0
VERTEX
  8
0
  5
9FA
 10
28.4835
 20
13.3460
 30
0.000000
  70
    32
  0
VERTEX
  8
0
  5
9FB
 10
28.4740
 20
13.3276
 30
0.000000
  70
    32
  0
VERTEX
  8
0
  5
9FC
 10
28.4646
 20
13.3093
 30
0.000000
  70
    32
  0
VERTEX
  8
0
  5
9FD
 10
28.4552
 20
13.2911
 30
0.000000
  70
    32
  0
VERTEX
  8
0
  5
9FE
 10
28.4458
 20
13.2730
 30
0.000000
  70
    32
  0
VERTEX
  8
0
  5
9FF
 10
28.4364
 20
13.2551
 30
0.000000
  70
    32
  0
VERTEX
  8
0
  5
A00
 10
28.4270
 20
13.2373
 30
0.000000
  70
    32
  0
VERTEX
  8
0
  5
A01
 10
28.4176
 20
13.2196
 30
0.000000
  70
    32
  0
VERTEX
  8
0
  5
A02
 10
28.4082
 20
13.2021
 30
0.000000
  70
    32
  0
VERTEX
  8
0
  5
A03
 10
28.3988
 20
13.1847
 30
0.000000
  70
    32
  0
VERTEX
  8
0
  5
A04
 10
28.3894
 20
13.1675
 30
0.000000
  70
    32
  0
VERTEX
  8
0
  5
A05
 10
28.3800
 20
13.1504
 30
0.000000
  70
    32
  0
VERTEX
  8
0
  5
A06
 10
28.3706
 20
13.1334
 30
0.000000
  70
    32
  0
VERTEX
  8
0
  5
A07
 10
28.3613
 20
13.1167
 30
0.000000
  70
    32
  0
VERTEX
  8
0
  5
A08
 10
28.3519
 20
13.1000
 30
0.000000
  70
    32
  0
VERTEX
  8
0
  5
A09
 10
28.3426
 20
13.0836
 30
0.000000
  70
    32
  0
VERTEX
  8
0
  5
A0A
 10
28.3333
 20
13.0673
 30
0.000000
  70
    32
  0
VERTEX
  8
0
  5
A0B
 10
28.3240
 20
13.0512
 30
0.000000
  70
    32
  0
VERTEX
  8
0
  5
A0C
 10
28.3147
 20
13.0353
 30
0.000000
  70
    32
  0
VERTEX
  8
0
  5
A0D
 10
28.3054
 20
13.0196
 30
0.000000
  70
    32
  0
VERTEX
  8
0
  5
A0E
 10
28.2962
 20
13.0041
 30
0.000000
  70
    32
  0
VERTEX
  8
0
  5
A0F
 10
28.2870
 20
12.9887
 30
0.000000
  70
    32
  0
VERTEX
  8
0
  5
A10
 10
28.2778
 20
12.9736
 30
0.000000
  70
    32
  0
VERTEX
  8
0
  5
A11
 10
28.2686
 20
12.9586
 30
0.000000
  70
    32
  0
VERTEX
  8
0
  5
A12
 10
28.2594
 20
12.9439
 30
0.000000
  70
    32
  0
VERTEX
  8
0
  5
A13
 10
28.2503
 20
12.9293
 30
0.000000
  70
    32
  0
VERTEX
  8
0
  5
A14
 10
28.2412
 20
12.9150
 30
0.000000
  70
    32
  0
VERTEX
  8
0
  5
A15
 10
28.2322
 20
12.9009
 30
0.000000
  70
    32
  0
VERTEX
  8
0
  5
A16
 10
28.2231
 20
12.8870
 30
0.000000
  70
    32
  0
VERTEX
  8
0
  5
A17
 10
28.2141
 20
12.8734
 30
0.000000
  70
    32
  0
SEQEND
  8
0
  5
A18
  0
POLYLINE
  8
0
  5
A19
  66
     1
 10
0.000000
 20
0.000000
 30
0.000000
  70
     8
  0
VERTEX
  8
0
  5
A1A
 10
28.2141
 20
12.8734
 30
0.000000
  70
    32
  0
VERTEX
  8
0
  5
A1B
 10
28.2051
 20
12.8599
 30
0.000000
  70
    32
  0
VERTEX
  8
0
  5
A1C
 10
28.1961
 20
12.8463
 30
0.000000
  70
    32
  0
VERTEX
  8
0
  5
A1D
 10
28.1870
 20
12.8327
 30
0.000000
  70
    32
  0
VERTEX
  8
0
  5
A1E
 10
28.1779
 20
12.8192
 30
0.000000
  70
    32
  0
VERTEX
  8
0
  5
A1F
 10
28.1687
 20
12.8056
 30
0.000000
  70
    32
  0
VERTEX
  8
0
  5
A20
 10
28.1595
 20
12.7920
 30
0.000000
  70
    32
  0
VERTEX
  8
0
  5
A21
 10
28.1503
 20
12.7785
 30
0.000000
  70
    32
  0
VERTEX
  8
0
  5
A22
 10
28.1410
 20
12.7649
 30
0.000000
  70
    32
  0
VERTEX
  8
0
  5
A23
 10
28.1317
 20
12.7513
 30
0.000000
  70
    32
  0
VERTEX
  8
0
  5
A24
 10
28.1224
 20
12.7377
 30
0.000000
  70
    32
  0
VERTEX
  8
0
  5
A25
 10
28.1130
 20
12.7241
 30
0.000000
  70
    32
  0
VERTEX
  8
0
  5
A26
 10
28.1035
 20
12.7105
 30
0.000000
  70
    32
  0
VERTEX
  8
0
  5
A27
 10
28.0940
 20
12.6969
 30
0.000000
  70
    32
  0
VERTEX
  8
0
  5
A28
 10
28.0845
 20
12.6833
 30
0.000000
  70
    32
  0
VERTEX
  8
0
  5
A29
 10
28.0749
 20
12.6697
 30
0.000000
  70
    32
  0
VERTEX
  8
0
  5
A2A
 10
28.0653
 20
12.6560
 30
0.000000
  70
    32
  0
VERTEX
  8
0
  5
A2B
 10
28.0556
 20
12.6424
 30
0.000000
  70
    32
  0
VERTEX
  8
0
  5
A2C
 10
28.0459
 20
12.6288
 30
0.000000
  70
    32
  0
VERTEX
  8
0
  5
A2D
 10
28.0361
 20
12.6152
 30
0.000000
  70
    32
  0
VERTEX
  8
0
  5
A2E
 10
28.0263
 20
12.6016
 30
0.000000
  70
    32
  0
VERTEX
  8
0
  5
A2F
 10
28.0164
 20
12.5880
 30
0.000000
  70
    32
  0
VERTEX
  8
0
  5
A30
 10
28.0065
 20
12.5744
 30
0.000000
  70
    32
  0
VERTEX
  8
0
  5
A31
 10
27.9965
 20
12.5608
 30
0.000000
  70
    32
  0
VERTEX
  8
0
  5
A32
 10
27.9865
 20
12.5472
 30
0.000000
  70
    32
  0
VERTEX
  8
0
  5
A33
 10
27.9764
 20
12.5336
 30
0.000000
  70
    32
  0
VERTEX
  8
0
  5
A34
 10
27.9662
 20
12.5200
 30
0.000000
  70
    32
  0
VERTEX
  8
0
  5
A35
 10
27.9560
 20
12.5064
 30
0.000000
  70
    32
  0
VERTEX
  8
0
  5
A36
 10
27.9457
 20
12.4928
 30
0.000000
  70
    32
  0
VERTEX
  8
0
  5
A37
 10
27.9354
 20
12.4792
 30
0.000000
  70
    32
  0
VERTEX
  8
0
  5
A38
 10
27.9250
 20
12.4656
 30
0.000000
  70
    32
  0
VERTEX
  8
0
  5
A39
 10
27.9146
 20
12.4520
 30
0.000000
  70
    32
  0
VERTEX
  8
0
  5
A3A
 10
27.9040
 20
12.4385
 30
0.000000
  70
    32
  0
VERTEX
  8
0
  5
A3B
 10
27.8934
 20
12.4249
 30
0.000000
  70
    32
  0
VERTEX
  8
0
  5
A3C
 10
27.8828
 20
12.4113
 30
0.000000
  70
    32
  0
VERTEX
  8
0
  5
A3D
 10
27.8721
 20
12.3978
 30
0.000000
  70
    32
  0
VERTEX
  8
0
  5
A3E
 10
27.8613
 20
12.3842
 30
0.000000
  70
    32
  0
VERTEX
  8
0
  5
A3F
 10
27.8504
 20
12.3707
 30
0.000000
  70
    32
  0
VERTEX
  8
0
  5
A40
 10
27.8395
 20
12.3572
 30
0.000000
  70
    32
  0
VERTEX
  8
0
  5
A41
 10
27.8285
 20
12.3437
 30
0.000000
  70
    32
  0
VERTEX
  8
0
  5
A42
 10
27.8174
 20
12.3302
 30
0.000000
  70
    32
  0
VERTEX
  8
0
  5
A43
 10
27.8063
 20
12.3167
 30
0.000000
  70
    32
  0
VERTEX
  8
0
  5
A44
 10
27.7951
 20
12.3032
 30
0.000000
  70
    32
  0
VERTEX
  8
0
  5
A45
 10
27.7838
 20
12.2897
 30
0.000000
  70
    32
  0
VERTEX
  8
0
  5
A46
 10
27.7724
 20
12.2763
 30
0.000000
  70
    32
  0
VERTEX
  8
0
  5
A47
 10
27.7610
 20
12.2628
 30
0.000000
  70
    32
  0
VERTEX
  8
0
  5
A48
 10
27.7495
 20
12.2494
 30
0.000000
  70
    32
  0
VERTEX
  8
0
  5
A49
 10
27.7379
 20
12.2359
 30
0.000000
  70
    32
  0
VERTEX
  8
0
  5
A4A
 10
27.7262
 20
12.2225
 30
0.000000
  70
    32
  0
VERTEX
  8
0
  5
A4B
 10
27.7145
 20
12.2091
 30
0.000000
  70
    32
  0
VERTEX
  8
0
  5
A4C
 10
27.7026
 20
12.1958
 30
0.000000
  70
    32
  0
VERTEX
  8
0
  5
A4D
 10
27.6907
 20
12.1824
 30
0.000000
  70
    32
  0
VERTEX
  8
0
  5
A4E
 10
27.6787
 20
12.1690
 30
0.000000
  70
    32
  0
VERTEX
  8
0
  5
A4F
 10
27.6666
 20
12.1557
 30
0.000000
  70
    32
  0
VERTEX
  8
0
  5
A50
 10
27.6544
 20
12.1424
 30
0.000000
  70
    32
  0
VERTEX
  8
0
  5
A51
 10
27.6422
 20
12.1291
 30
0.000000
  70
    32
  0
VERTEX
  8
0
  5
A52
 10
27.6298
 20
12.1158
 30
0.000000
  70
    32
  0
VERTEX
  8
0
  5
A53
 10
27.6174
 20
12.1025
 30
0.000000
  70
    32
  0
VERTEX
  8
0
  5
A54
 10
27.6049
 20
12.0893
 30
0.000000
  70
    32
  0
VERTEX
  8
0
  5
A55
 10
27.5923
 20
12.0761
 30
0.000000
  70
    32
  0
VERTEX
  8
0
  5
A56
 10
27.5796
 20
12.0629
 30
0.000000
  70
    32
  0
VERTEX
  8
0
  5
A57
 10
27.5668
 20
12.0497
 30
0.000000
  70
    32
  0
VERTEX
  8
0
  5
A58
 10
27.5539
 20
12.0365
 30
0.000000
  70
    32
  0
VERTEX
  8
0
  5
A59
 10
27.5409
 20
12.0233
 30
0.000000
  70
    32
  0
VERTEX
  8
0
  5
A5A
 10
27.5278
 20
12.0102
 30
0.000000
  70
    32
  0
VERTEX
  8
0
  5
A5B
 10
27.5146
 20
11.9971
 30
0.000000
  70
    32
  0
VERTEX
  8
0
  5
A5C
 10
27.5014
 20
11.9840
 30
0.000000
  70
    32
  0
VERTEX
  8
0
  5
A5D
 10
27.4880
 20
11.9710
 30
0.000000
  70
    32
  0
VERTEX
  8
0
  5
A5E
 10
27.4745
 20
11.9579
 30
0.000000
  70
    32
  0
VERTEX
  8
0
  5
A5F
 10
27.4610
 20
11.9449
 30
0.000000
  70
    32
  0
VERTEX
  8
0
  5
A60
 10
27.4473
 20
11.9319
 30
0.000000
  70
    32
  0
VERTEX
  8
0
  5
A61
 10
27.4335
 20
11.9189
 30
0.000000
  70
    32
  0
VERTEX
  8
0
  5
A62
 10
27.4196
 20
11.9060
 30
0.000000
  70
    32
  0
VERTEX
  8
0
  5
A63
 10
27.4057
 20
11.8931
 30
0.000000
  70
    32
  0
VERTEX
  8
0
  5
A64
 10
27.3916
 20
11.8802
 30
0.000000
  70
    32
  0
VERTEX
  8
0
  5
A65
 10
27.3774
 20
11.8673
 30
0.000000
  70
    32
  0
VERTEX
  8
0
  5
A66
 10
27.3631
 20
11.8545
 30
0.000000
  70
    32
  0
VERTEX
  8
0
  5
A67
 10
27.3487
 20
11.8417
 30
0.000000
  70
    32
  0
VERTEX
  8
0
  5
A68
 10
27.3342
 20
11.8289
 30
0.000000
  70
    32
  0
VERTEX
  8
0
  5
A69
 10
27.3195
 20
11.8161
 30
0.000000
  70
    32
  0
VERTEX
  8
0
  5
A6A
 10
27.3048
 20
11.8034
 30
0.000000
  70
    32
  0
VERTEX
  8
0
  5
A6B
 10
27.2900
 20
11.7907
 30
0.000000
  70
    32
  0
VERTEX
  8
0
  5
A6C
 10
27.2750
 20
11.7780
 30
0.000000
  70
    32
  0
VERTEX
  8
0
  5
A6D
 10
27.2599
 20
11.7654
 30
0.000000
  70
    32
  0
VERTEX
  8
0
  5
A6E
 10
27.2447
 20
11.7528
 30
0.000000
  70
    32
  0
VERTEX
  8
0
  5
A6F
 10
27.2294
 20
11.7402
 30
0.000000
  70
    32
  0
VERTEX
  8
0
  5
A70
 10
27.2140
 20
11.7276
 30
0.000000
  70
    32
  0
VERTEX
  8
0
  5
A71
 10
27.1985
 20
11.7151
 30
0.000000
  70
    32
  0
VERTEX
  8
0
  5
A72
 10
27.1828
 20
11.7026
 30
0.000000
  70
    32
  0
VERTEX
  8
0
  5
A73
 10
27.1670
 20
11.6902
 30
0.000000
  70
    32
  0
VERTEX
  8
0
  5
A74
 10
27.1511
 20
11.6778
 30
0.000000
  70
    32
  0
VERTEX
  8
0
  5
A75
 10
27.1351
 20
11.6654
 30
0.000000
  70
    32
  0
VERTEX
  8
0
  5
A76
 10
27.1190
 20
11.6530
 30
0.000000
  70
    32
  0
VERTEX
  8
0
  5
A77
 10
27.1027
 20
11.6407
 30
0.000000
  70
    32
  0
VERTEX
  8
0
  5
A78
 10
27.0863
 20
11.6284
 30
0.000000
  70
    32
  0
VERTEX
  8
0
  5
A79
 10
27.0698
 20
11.6162
 30
0.000000
  70
    32
  0
VERTEX
  8
0
  5
A7A
 10
27.0531
 20
11.6040
 30
0.000000
  70
    32
  0
VERTEX
  8
0
  5
A7B
 10
27.0363
 20
11.5918
 30
0.000000
  70
    32
  0
VERTEX
  8
0
  5
A7C
 10
27.0194
 20
11.5797
 30
0.000000
  70
    32
  0
VERTEX
  8
0
  5
A7D
 10
27.0024
 20
11.5676
 30
0.000000
  70
    32
  0
VERTEX
  8
0
  5
A7E
 10
26.9852
 20
11.5555
 30
0.000000
  70
    32
  0
VERTEX
  8
0
  5
A7F
 10
26.9679
 20
11.5435
 30
0.000000
  70
    32
  0
VERTEX
  8
0
  5
A80
 10
26.9505
 20
11.5315
 30
0.000000
  70
    32
  0
VERTEX
  8
0
  5
A81
 10
26.9330
 20
11.5196
 30
0.000000
  70
    32
  0
VERTEX
  8
0
  5
A82
 10
26.9153
 20
11.5077
 30
0.000000
  70
    32
  0
VERTEX
  8
0
  5
A83
 10
26.8974
 20
11.4958
 30
0.000000
  70
    32
  0
VERTEX
  8
0
  5
A84
 10
26.8795
 20
11.4840
 30
0.000000
  70
    32
  0
VERTEX
  8
0
  5
A85
 10
26.8613
 20
11.4722
 30
0.000000
  70
    32
  0
VERTEX
  8
0
  5
A86
 10
26.8431
 20
11.4605
 30
0.000000
  70
    32
  0
VERTEX
  8
0
  5
A87
 10
26.8247
 20
11.4488
 30
0.000000
  70
    32
  0
VERTEX
  8
0
  5
A88
 10
26.8062
 20
11.4371
 30
0.000000
  70
    32
  0
VERTEX
  8
0
  5
A89
 10
26.7875
 20
11.4255
 30
0.000000
  70
    32
  0
VERTEX
  8
0
  5
A8A
 10
26.7687
 20
11.4139
 30
0.000000
  70
    32
  0
VERTEX
  8
0
  5
A8B
 10
26.7498
 20
11.4024
 30
0.000000
  70
    32
  0
VERTEX
  8
0
  5
A8C
 10
26.7307
 20
11.3909
 30
0.000000
  70
    32
  0
VERTEX
  8
0
  5
A8D
 10
26.7114
 20
11.3795
 30
0.000000
  70
    32
  0
VERTEX
  8
0
  5
A8E
 10
26.6920
 20
11.3681
 30
0.000000
  70
    32
  0
VERTEX
  8
0
  5
A8F
 10
26.6725
 20
11.3567
 30
0.000000
  70
    32
  0
VERTEX
  8
0
  5
A90
 10
26.6528
 20
11.3454
 30
0.000000
  70
    32
  0
VERTEX
  8
0
  5
A91
 10
26.6330
 20
11.3342
 30
0.000000
  70
    32
  0
VERTEX
  8
0
  5
A92
 10
26.6130
 20
11.3230
 30
0.000000
  70
    32
  0
VERTEX
  8
0
  5
A93
 10
26.5928
 20
11.3118
 30
0.000000
  70
    32
  0
VERTEX
  8
0
  5
A94
 10
26.5725
 20
11.3007
 30
0.000000
  70
    32
  0
VERTEX
  8
0
  5
A95
 10
26.5521
 20
11.2897
 30
0.000000
  70
    32
  0
VERTEX
  8
0
  5
A96
 10
26.5315
 20
11.2786
 30
0.000000
  70
    32
  0
VERTEX
  8
0
  5
A97
 10
26.5107
 20
11.2677
 30
0.000000
  70
    32
  0
VERTEX
  8
0
  5
A98
 10
26.4898
 20
11.2568
 30
0.000000
  70
    32
  0
VERTEX
  8
0
  5
A99
 10
26.4688
 20
11.2459
 30
0.000000
  70
    32
  0
SEQEND
  8
0
  5
A9A
  0
POLYLINE
  8
0
  5
A9B
  66
     1
 10
0.000000
 20
0.000000
 30
0.000000
  70
     8
  0
VERTEX
  8
0
  5
A9C
 10
0.503033
 20
17.0353
 30
0.000000
  70
    32
  0
VERTEX
  8
0
  5
A9D
 10
0.508306
 20
17.0353
 30
0.000000
  70
    32
  0
VERTEX
  8
0
  5
A9E
 10
0.524015
 20
17.0353
 30
0.000000
  70
    32
  0
VERTEX
  8
0
  5
A9F
 10
0.549992
 20
17.0353
 30
0.000000
  70
    32
  0
VERTEX
  8
0
  5
AA0
 10
0.586070
 20
17.0353
 30
0.000000
  70
    32
  0
VERTEX
  8
0
  5
AA1
 10
0.632083
 20
17.0353
 30
0.000000
  70
    32
  0
VERTEX
  8
0
  5
AA2
 10
0.687864
 20
17.0353
 30
0.000000
  70
    32
  0
VERTEX
  8
0
  5
AA3
 10
0.753245
 20
17.0353
 30
0.000000
  70
    32
  0
VERTEX
  8
0
  5
AA4
 10
0.828059
 20
17.0353
 30
0.000000
  70
    32
  0
VERTEX
  8
0
  5
AA5
 10
0.912141
 20
17.0353
 30
0.000000
  70
    32
  0
VERTEX
  8
0
  5
AA6
 10
1.00532
 20
17.0353
 30
0.000000
  70
    32
  0
VERTEX
  8
0
  5
AA7
 10
1.10744
 20
17.0353
 30
0.000000
  70
    32
  0
VERTEX
  8
0
  5
AA8
 10
1.21831
 20
17.0353
 30
0.000000
  70
    32
  0
VERTEX
  8
0
  5
AA9
 10
1.33779
 20
17.0353
 30
0.000000
  70
    32
  0
VERTEX
  8
0
  5
AAA
 10
1.46570
 20
17.0353
 30
0.000000
  70
    32
  0
VERTEX
  8
0
  5
AAB
 10
1.60188
 20
17.0353
 30
0.000000
  70
    32
  0
VERTEX
  8
0
  5
AAC
 10
1.74615
 20
17.0353
 30
0.000000
  70
    32
  0
VERTEX
  8
0
  5
AAD
 10
1.89835
 20
17.0353
 30
0.000000
  70
    32
  0
VERTEX
  8
0
  5
AAE
 10
2.05832
 20
17.0353
 30
0.000000
  70
    32
  0
VERTEX
  8
0
  5
AAF
 10
2.22588
 20
17.0353
 30
0.000000
  70
    32
  0
VERTEX
  8
0
  5
AB0
 10
2.40088
 20
17.0353
 30
0.000000
  70
    32
  0
VERTEX
  8
0
  5
AB1
 10
2.58313
 20
17.0353
 30
0.000000
  70
    32
  0
VERTEX
  8
0
  5
AB2
 10
2.77249
 20
17.0353
 30
0.000000
  70
    32
  0
VERTEX
  8
0
  5
AB3
 10
2.96877
 20
17.0353
 30
0.000000
  70
    32
  0
VERTEX
  8
0
  5
AB4
 10
3.17181
 20
17.0353
 30
0.000000
  70
    32
  0
VERTEX
  8
0
  5
AB5
 10
3.38145
 20
17.0353
 30
0.000000
  70
    32
  0
VERTEX
  8
0
  5
AB6
 10
3.59752
 20
17.0353
 30
0.000000
  70
    32
  0
VERTEX
  8
0
  5
AB7
 10
3.81985
 20
17.0353
 30
0.000000
  70
    32
  0
VERTEX
  8
0
  5
AB8
 10
4.04827
 20
17.0353
 30
0.000000
  70
    32
  0
VERTEX
  8
0
  5
AB9
 10
4.28262
 20
17.0353
 30
0.000000
  70
    32
  0
VERTEX
  8
0
  5
ABA
 10
4.52274
 20
17.0353
 30
0.000000
  70
    32
  0
VERTEX
  8
0
  5
ABB
 10
4.76844
 20
17.0353
 30
0.000000
  70
    32
  0
VERTEX
  8
0
  5
ABC
 10
5.01957
 20
17.0353
 30
0.000000
  70
    32
  0
VERTEX
  8
0
  5
ABD
 10
5.27596
 20
17.0353
 30
0.000000
  70
    32
  0
VERTEX
  8
0
  5
ABE
 10
5.53744
 20
17.0353
 30
0.000000
  70
    32
  0
VERTEX
  8
0
  5
ABF
 10
5.80385
 20
17.0353
 30
0.000000
  70
    32
  0
VERTEX
  8
0
  5
AC0
 10
6.07502
 20
17.0353
 30
0.000000
  70
    32
  0
VERTEX
  8
0
  5
AC1
 10
6.35077
 20
17.0353
 30
0.000000
  70
    32
  0
VERTEX
  8
0
  5
AC2
 10
6.63096
 20
17.0353
 30
0.000000
  70
    32
  0
VERTEX
  8
0
  5
AC3
 10
6.91540
 20
17.0353
 30
0.000000
  70
    32
  0
VERTEX
  8
0
  5
AC4
 10
7.20393
 20
17.0353
 30
0.000000
  70
    32
  0
VERTEX
  8
0
  5
AC5
 10
7.49638
 20
17.0353
 30
0.000000
  70
    32
  0
VERTEX
  8
0
  5
AC6
 10
7.79259
 20
17.0353
 30
0.000000
  70
    32
  0
VERTEX
  8
0
  5
AC7
 10
8.09239
 20
17.0353
 30
0.000000
  70
    32
  0
VERTEX
  8
0
  5
AC8
 10
8.39562
 20
17.0353
 30
0.000000
  70
    32
  0
VERTEX
  8
0
  5
AC9
 10
8.70210
 20
17.0353
 30
0.000000
  70
    32
  0
VERTEX
  8
0
  5
ACA
 10
9.01167
 20
17.0353
 30
0.000000
  70
    32
  0
VERTEX
  8
0
  5
ACB
 10
9.32416
 20
17.0353
 30
0.000000
  70
    32
  0
VERTEX
  8
0
  5
ACC
 10
9.63940
 20
17.0353
 30
0.000000
  70
    32
  0
VERTEX
  8
0
  5
ACD
 10
9.95724
 20
17.0353
 30
0.000000
  70
    32
  0
VERTEX
  8
0
  5
ACE
 10
10.2775
 20
17.0353
 30
0.000000
  70
    32
  0
VERTEX
  8
0
  5
ACF
 10
10.6000
 20
17.0353
 30
0.000000
  70
    32
  0
VERTEX
  8
0
  5
AD0
 10
10.9246
 20
17.0353
 30
0.000000
  70
    32
  0
VERTEX
  8
0
  5
AD1
 10
11.2511
 20
17.0353
 30
0.000000
  70
    32
  0
VERTEX
  8
0
  5
AD2
 10
11.5794
 20
17.0353
 30
0.000000
  70
    32
  0
VERTEX
  8
0
  5
AD3
 10
11.9092
 20
17.0353
 30
0.000000
  70
    32
  0
VERTEX
  8
0
  5
AD4
 10
12.2405
 20
17.0353
 30
0.000000
  70
    32
  0
VERTEX
  8
0
  5
AD5
 10
12.5730
 20
17.0353
 30
0.000000
  70
    32
  0
VERTEX
  8
0
  5
AD6
 10
12.9066
 20
17.0353
 30
0.000000
  70
    32
  0
VERTEX
  8
0
  5
AD7
 10
13.2412
 20
17.0353
 30
0.000000
  70
    32
  0
VERTEX
  8
0
  5
AD8
 10
13.5765
 20
17.0353
 30
0.000000
  70
    32
  0
VERTEX
  8
0
  5
AD9
 10
13.9123
 20
17.0353
 30
0.000000
  70
    32
  0
VERTEX
  8
0
  5
ADA
 10
14.2486
 20
17.0353
 30
0.000000
  70
    32
  0
VERTEX
  8
0
  5
ADB
 10
14.5851
 20
17.0353
 30
0.000000
  70
    32
  0
VERTEX
  8
0
  5
ADC
 10
14.9218
 20
17.0353
 30
0.000000
  70
    32
  0
VERTEX
  8
0
  5
ADD
 10
15.2583
 20
17.0353
 30
0.000000
  70
    32
  0
VERTEX
  8
0
  5
ADE
 10
15.5946
 20
17.0353
 30
0.000000
  70
    32
  0
VERTEX
  8
0
  5
ADF
 10
15.9304
 20
17.0353
 30
0.000000
  70
    32
  0
VERTEX
  8
0
  5
AE0
 10
16.2657
 20
17.0353
 30
0.000000
  70
    32
  0
VERTEX
  8
0
  5
AE1
 10
16.6003
 20
17.0353
 30
0.000000
  70
    32
  0
VERTEX
  8
0
  5
AE2
 10
16.9339
 20
17.0353
 30
0.000000
  70
    32
  0
VERTEX
  8
0
  5
AE3
 10
17.2664
 20
17.0353
 30
0.000000
  70
    32
  0
VERTEX
  8
0
  5
AE4
 10
17.5977
 20
17.0353
 30
0.000000
  70
    32
  0
VERTEX
  8
0
  5
AE5
 10
17.9275
 20
17.0353
 30
0.000000
  70
    32
  0
VERTEX
  8
0
  5
AE6
 10
18.2558
 20
17.0353
 30
0.000000
  70
    32
  0
VERTEX
  8
0
  5
AE7
 10
18.5823
 20
17.0353
 30
0.000000
  70
    32
  0
VERTEX
  8
0
  5
AE8
 10
18.9069
 20
17.0353
 30
0.000000
  70
    32
  0
VERTEX
  8
0
  5
AE9
 10
19.2294
 20
17.0353
 30
0.000000
  70
    32
  0
VERTEX
  8
0
  5
AEA
 10
19.5497
 20
17.0353
 30
0.000000
  70
    32
  0
VERTEX
  8
0
  5
AEB
 10
19.8675
 20
17.0353
 30
0.000000
  70
    32
  0
VERTEX
  8
0
  5
AEC
 10
20.1827
 20
17.0353
 30
0.000000
  70
    32
  0
VERTEX
  8
0
  5
AED
 10
20.4952
 20
17.0353
 30
0.000000
  70
    32
  0
VERTEX
  8
0
  5
AEE
 10
20.8048
 20
17.0353
 30
0.000000
  70
    32
  0
VERTEX
  8
0
  5
AEF
 10
21.1113
 20
17.0353
 30
0.000000
  70
    32
  0
VERTEX
  8
0
  5
AF0
 10
21.4145
 20
17.0353
 30
0.000000
  70
    32
  0
VERTEX
  8
0
  5
AF1
 10
21.7143
 20
17.0353
 30
0.000000
  70
    32
  0
VERTEX
  8
0
  5
AF2
 10
22.0105
 20
17.0353
 30
0.000000
  70
    32
  0
VERTEX
  8
0
  5
AF3
 10
22.3030
 20
17.0353
 30
0.000000
  70
    32
  0
VERTEX
  8
0
  5
AF4
 10
22.5915
 20
17.0353
 30
0.000000
  70
    32
  0
VERTEX
  8
0
  5
AF5
 10
22.8759
 20
17.0353
 30
0.000000
  70
    32
  0
VERTEX
  8
0
  5
AF6
 10
23.1561
 20
17.0353
 30
0.000000
  70
    32
  0
VERTEX
  8
0
  5
AF7
 10
23.4319
 20
17.0353
 30
0.000000
  70
    32
  0
VERTEX
  8
0
  5
AF8
 10
23.7030
 20
17.0353
 30
0.000000
  70
    32
  0
VERTEX
  8
0
  5
AF9
 10
23.9695
 20
17.0353
 30
0.000000
  70
    32
  0
VERTEX
  8
0
  5
AFA
 10
24.2309
 20
17.0353
 30
0.000000
  70
    32
  0
VERTEX
  8
0
  5
AFB
 10
24.4873
 20
17.0353
 30
0.000000
  70
    32
  0
VERTEX
  8
0
  5
AFC
 10
24.7385
 20
17.0353
 30
0.000000
  70
    32
  0
VERTEX
  8
0
  5
AFD
 10
24.9842
 20
17.0353
 30
0.000000
  70
    32
  0
VERTEX
  8
0
  5
AFE
 10
25.2243
 20
17.0353
 30
0.000000
  70
    32
  0
VERTEX
  8
0
  5
AFF
 10
25.4586
 20
17.0353
 30
0.000000
  70
    32
  0
VERTEX
  8
0
  5
B00
 10
25.6870
 20
17.0353
 30
0.000000
  70
    32
  0
VERTEX
  8
0
  5
B01
 10
25.9094
 20
17.0353
 30
0.000000
  70
    32
  0
VERTEX
  8
0
  5
B02
 10
26.1254
 20
17.0353
 30
0.000000
  70
    32
  0
VERTEX
  8
0
  5
B03
 10
26.3351
 20
17.0353
 30
0.000000
  70
    32
  0
VERTEX
  8
0
  5
B04
 10
26.5381
 20
17.0353
 30
0.000000
  70
    32
  0
VERTEX
  8
0
  5
B05
 10
26.7344
 20
17.0353
 30
0.000000
  70
    32
  0
VERTEX
  8
0
  5
B06
 10
26.9238
 20
17.0353
 30
0.000000
  70
    32
  0
VERTEX
  8
0
  5
B07
 10
27.1060
 20
17.0353
 30
0.000000
  70
    32
  0
VERTEX
  8
0
  5
B08
 10
27.2810
 20
17.0353
 30
0.000000
  70
    32
  0
VERTEX
  8
0
  5
B09
 10
27.4486
 20
17.0353
 30
0.000000
  70
    32
  0
VERTEX
  8
0
  5
B0A
 10
27.6085
 20
17.0353
 30
0.000000
  70
    32
  0
VERTEX
  8
0
  5
B0B
 10
27.7607
 20
17.0353
 30
0.000000
  70
    32
  0
VERTEX
  8
0
  5
B0C
 10
27.9050
 20
17.0353
 30
0.000000
  70
    32
  0
VERTEX
  8
0
  5
B0D
 10
28.0412
 20
17.0353
 30
0.000000
  70
    32
  0
VERTEX
  8
0
  5
B0E
 10
28.1691
 20
17.0353
 30
0.000000
  70
    32
  0
VERTEX
  8
0
  5
B0F
 10
28.2886
 20
17.0353
 30
0.000000
  70
    32
  0
VERTEX
  8
0
  5
B10
 10
28.3995
 20
17.0353
 30
0.000000
  70
    32
  0
VERTEX
  8
0
  5
B11
 10
28.5016
 20
17.0353
 30
0.000000
  70
    32
  0
VERTEX
  8
0
  5
B12
 10
28.5948
 20
17.0353
 30
0.000000
  70
    32
  0
VERTEX
  8
0
  5
B13
 10
28.6788
 20
17.0353
 30
0.000000
  70
    32
  0
VERTEX
  8
0
  5
B14
 10
28.7537
 20
17.0353
 30
0.000000
  70
    32
  0
VERTEX
  8
0
  5
B15
 10
28.8190
 20
17.0353
 30
0.000000
  70
    32
  0
VERTEX
  8
0
  5
B16
 10
28.8748
 20
17.0353
 30
0.000000
  70
    32
  0
VERTEX
  8
0
  5
B17
 10
28.9208
 20
17.0353
 30
0.000000
  70
    32
  0
VERTEX
  8
0
  5
B18
 10
28.9569
 20
17.0353
 30
0.000000
  70
    32
  0
VERTEX
  8
0
  5
B19
 10
28.9829
 20
17.0353
 30
0.000000
  70
    32
  0
VERTEX
  8
0
  5
B1A
 10
28.9986
 20
17.0353
 30
0.000000
  70
    32
  0
VERTEX
  8
0
  5
B1B
 10
29.0039
 20
17.0353
 30
0.000000
  70
    32
  0
SEQEND
  8
0
  5
B1C
  0
POLYLINE
  8
0
  5
B1D
  66
     1
 10
0.000000
 20
0.000000
 30
0.000000
  70
     8
  0
VERTEX
  8
0
  5
B1E
 10
29.0039
 20
17.0353
 30
0.000000
  70
    32
  0
VERTEX
  8
0
  5
B1F
 10
29.0055
 20
17.0353
 30
0.000000
  70
    32
  0
VERTEX
  8
0
  5
B20
 10
29.0072
 20
17.0352
 30
0.000000
  70
    32
  0
VERTEX
  8
0
  5
B21
 10
29.0089
 20
17.0352
 30
0.000000
  70
    32
  0
VERTEX
  8
0
  5
B22
 10
29.0105
 20
17.0351
 30
0.000000
  70
    32
  0
VERTEX
  8
0
  5
B23
 10
29.0122
 20
17.0350
 30
0.000000
  70
    32
  0
VERTEX
  8
0
  5
B24
 10
29.0139
 20
17.0348
 30
0.000000
  70
    32
  0
VERTEX
  8
0
  5
B25
 10
29.0156
 20
17.0347
 30
0.000000
  70
    32
  0
VERTEX
  8
0
  5
B26
 10
29.0172
 20
17.0345
 30
0.000000
  70
    32
  0
VERTEX
  8
0
  5
B27
 10
29.0189
 20
17.0343
 30
0.000000
  70
    32
  0
VERTEX
  8
0
  5
B28
 10
29.0206
 20
17.0341
 30
0.000000
  70
    32
  0
VERTEX
  8
0
  5
B29
 10
29.0222
 20
17.0338
 30
0.000000
  70
    32
  0
VERTEX
  8
0
  5
B2A
 10
29.0239
 20
17.0336
 30
0.000000
  70
    32
  0
VERTEX
  8
0
  5
B2B
 10
29.0256
 20
17.0333
 30
0.000000
  70
    32
  0
VERTEX
  8
0
  5
B2C
 10
29.0272
 20
17.0330
 30
0.000000
  70
    32
  0
VERTEX
  8
0
  5
B2D
 10
29.0289
 20
17.0326
 30
0.000000
  70
    32
  0
VERTEX
  8
0
  5
B2E
 10
29.0306
 20
17.0323
 30
0.000000
  70
    32
  0
VERTEX
  8
0
  5
B2F
 10
29.0322
 20
17.0319
 30
0.000000
  70
    32
  0
VERTEX
  8
0
  5
B30
 10
29.0339
 20
17.0315
 30
0.000000
  70
    32
  0
VERTEX
  8
0
  5
B31
 10
29.0356
 20
17.0311
 30
0.000000
  70
    32
  0
VERTEX
  8
0
  5
B32
 10
29.0372
 20
17.0306
 30
0.000000
  70
    32
  0
VERTEX
  8
0
  5
B33
 10
29.0389
 20
17.0302
 30
0.000000
  70
    32
  0
VERTEX
  8
0
  5
B34
 10
29.0405
 20
17.0297
 30
0.000000
  70
    32
  0
VERTEX
  8
0
  5
B35
 10
29.0422
 20
17.0292
 30
0.000000
  70
    32
  0
VERTEX
  8
0
  5
B36
 10
29.0439
 20
17.0287
 30
0.000000
  70
    32
  0
VERTEX
  8
0
  5
B37
 10
29.0455
 20
17.0281
 30
0.000000
  70
    32
  0
VERTEX
  8
0
  5
B38
 10
29.0471
 20
17.0276
 30
0.000000
  70
    32
  0
VERTEX
  8
0
  5
B39
 10
29.0488
 20
17.0270
 30
0.000000
  70
    32
  0
VERTEX
  8
0
  5
B3A
 10
29.0504
 20
17.0264
 30
0.000000
  70
    32
  0
VERTEX
  8
0
  5
B3B
 10
29.0521
 20
17.0258
 30
0.000000
  70
    32
  0
VERTEX
  8
0
  5
B3C
 10
29.0537
 20
17.0251
 30
0.000000
  70
    32
  0
VERTEX
  8
0
  5
B3D
 10
29.0553
 20
17.0245
 30
0.000000
  70
    32
  0
VERTEX
  8
0
  5
B3E
 10
29.0570
 20
17.0238
 30
0.000000
  70
    32
  0
VERTEX
  8
0
  5
B3F
 10
29.0586
 20
17.0231
 30
0.000000
  70
    32
  0
VERTEX
  8
0
  5
B40
 10
29.0602
 20
17.0224
 30
0.000000
  70
    32
  0
VERTEX
  8
0
  5
B41
 10
29.0618
 20
17.0217
 30
0.000000
  70
    32
  0
VERTEX
  8
0
  5
B42
 10
29.0634
 20
17.0210
 30
0.000000
  70
    32
  0
VERTEX
  8
0
  5
B43
 10
29.0650
 20
17.0202
 30
0.000000
  70
    32
  0
VERTEX
  8
0
  5
B44
 10
29.0666
 20
17.0194
 30
0.000000
  70
    32
  0
VERTEX
  8
0
  5
B45
 10
29.0682
 20
17.0186
 30
0.000000
  70
    32
  0
VERTEX
  8
0
  5
B46
 10
29.0698
 20
17.0178
 30
0.000000
  70
    32
  0
VERTEX
  8
0
  5
B47
 10
29.0714
 20
17.0170
 30
0.000000
  70
    32
  0
VERTEX
  8
0
  5
B48
 10
29.0730
 20
17.0162
 30
0.000000
  70
    32
  0
VERTEX
  8
0
  5
B49
 10
29.0745
 20
17.0153
 30
0.000000
  70
    32
  0
VERTEX
  8
0
  5
B4A
 10
29.0761
 20
17.0144
 30
0.000000
  70
    32
  0
VERTEX
  8
0
  5
B4B
 10
29.0777
 20
17.0136
 30
0.000000
  70
    32
  0
VERTEX
  8
0
  5
B4C
 10
29.0792
 20
17.0127
 30
0.000000
  70
    32
  0
VERTEX
  8
0
  5
B4D
 10
29.0808
 20
17.0117
 30
0.000000
  70
    32
  0
VERTEX
  8
0
  5
B4E
 10
29.0823
 20
17.0108
 30
0.000000
  70
    32
  0
VERTEX
  8
0
  5
B4F
 10
29.0839
 20
17.0099
 30
0.000000
  70
    32
  0
VERTEX
  8
0
  5
B50
 10
29.0854
 20
17.0089
 30
0.000000
  70
    32
  0
VERTEX
  8
0
  5
B51
 10
29.0869
 20
17.0079
 30
0.000000
  70
    32
  0
VERTEX
  8
0
  5
B52
 10
29.0884
 20
17.0070
 30
0.000000
  70
    32
  0
VERTEX
  8
0
  5
B53
 10
29.0900
 20
17.0060
 30
0.000000
  70
    32
  0
VERTEX
  8
0
  5
B54
 10
29.0915
 20
17.0049
 30
0.000000
  70
    32
  0
VERTEX
  8
0
  5
B55
 10
29.0930
 20
17.0039
 30
0.000000
  70
    32
  0
VERTEX
  8
0
  5
B56
 10
29.0944
 20
17.0029
 30
0.000000
  70
    32
  0
VERTEX
  8
0
  5
B57
 10
29.0959
 20
17.0018
 30
0.000000
  70
    32
  0
VERTEX
  8
0
  5
B58
 10
29.0974
 20
17.0008
 30
0.000000
  70
    32
  0
VERTEX
  8
0
  5
B59
 10
29.0989
 20
16.9997
 30
0.000000
  70
    32
  0
VERTEX
  8
0
  5
B5A
 10
29.1003
 20
16.9986
 30
0.000000
  70
    32
  0
VERTEX
  8
0
  5
B5B
 10
29.1018
 20
16.9975
 30
0.000000
  70
    32
  0
VERTEX
  8
0
  5
B5C
 10
29.1032
 20
16.9964
 30
0.000000
  70
    32
  0
VERTEX
  8
0
  5
B5D
 10
29.1046
 20
16.9953
 30
0.000000
  70
    32
  0
VERTEX
  8
0
  5
B5E
 10
29.1061
 20
16.9941
 30
0.000000
  70
    32
  0
VERTEX
  8
0
  5
B5F
 10
29.1075
 20
16.9930
 30
0.000000
  70
    32
  0
VERTEX
  8
0
  5
B60
 10
29.1089
 20
16.9918
 30
0.000000
  70
    32
  0
VERTEX
  8
0
  5
B61
 10
29.1103
 20
16.9907
 30
0.000000
  70
    32
  0
VERTEX
  8
0
  5
B62
 10
29.1117
 20
16.9895
 30
0.000000
  70
    32
  0
VERTEX
  8
0
  5
B63
 10
29.1131
 20
16.9883
 30
0.000000
  70
    32
  0
VERTEX
  8
0
  5
B64
 10
29.1144
 20
16.9871
 30
0.000000
  70
    32
  0
VERTEX
  8
0
  5
B65
 10
29.1158
 20
16.9859
 30
0.000000
  70
    32
  0
VERTEX
  8
0
  5
B66
 10
29.1171
 20
16.9847
 30
0.000000
  70
    32
  0
VERTEX
  8
0
  5
B67
 10
29.1185
 20
16.9835
 30
0.000000
  70
    32
  0
VERTEX
  8
0
  5
B68
 10
29.1198
 20
16.9822
 30
0.000000
  70
    32
  0
VERTEX
  8
0
  5
B69
 10
29.1211
 20
16.9810
 30
0.000000
  70
    32
  0
VERTEX
  8
0
  5
B6A
 10
29.1224
 20
16.9797
 30
0.000000
  70
    32
  0
VERTEX
  8
0
  5
B6B
 10
29.1237
 20
16.9785
 30
0.000000
  70
    32
  0
VERTEX
  8
0
  5
B6C
 10
29.1250
 20
16.9772
 30
0.000000
  70
    32
  0
VERTEX
  8
0
  5
B6D
 10
29.1263
 20
16.9759
 30
0.000000
  70
    32
  0
VERTEX
  8
0
  5
B6E
 10
29.1275
 20
16.9747
 30
0.000000
  70
    32
  0
VERTEX
  8
0
  5
B6F
 10
29.1288
 20
16.9734
 30
0.000000
  70
    32
  0
VERTEX
  8
0
  5
B70
 10
29.1300
 20
16.9721
 30
0.000000
  70
    32
  0
VERTEX
  8
0
  5
B71
 10
29.1312
 20
16.9708
 30
0.000000
  70
    32
  0
VERTEX
  8
0
  5
B72
 10
29.1325
 20
16.9695
 30
0.000000
  70
    32
  0
VERTEX
  8
0
  5
B73
 10
29.1337
 20
16.9681
 30
0.000000
  70
    32
  0
VERTEX
  8
0
  5
B74
 10
29.1348
 20
16.9668
 30
0.000000
  70
    32
  0
VERTEX
  8
0
  5
B75
 10
29.1360
 20
16.9655
 30
0.000000
  70
    32
  0
VERTEX
  8
0
  5
B76
 10
29.1372
 20
16.9641
 30
0.000000
  70
    32
  0
VERTEX
  8
0
  5
B77
 10
29.1383
 20
16.9628
 30
0.000000
  70
    32
  0
VERTEX
  8
0
  5
B78
 10
29.1395
 20
16.9615
 30
0.000000
  70
    32
  0
VERTEX
  8
0
  5
B79
 10
29.1406
 20
16.9601
 30
0.000000
  70
    32
  0
VERTEX
  8
0
  5
B7A
 10
29.1417
 20
16.9587
 30
0.000000
  70
    32
  0
VERTEX
  8
0
  5
B7B
 10
29.1428
 20
16.9574
 30
0.000000
  70
    32
  0
VERTEX
  8
0
  5
B7C
 10
29.1439
 20
16.9560
 30
0.000000
  70
    32
  0
VERTEX
  8
0
  5
B7D
 10
29.1450
 20
16.9546
 30
0.000000
  70
    32
  0
VERTEX
  8
0
  5
B7E
 10
29.1460
 20
16.9533
 30
0.000000
  70
    32
  0
VERTEX
  8
0
  5
B7F
 10
29.1471
 20
16.9519
 30
0.000000
  70
    32
  0
VERTEX
  8
0
  5
B80
 10
29.1481
 20
16.9505
 30
0.000000
  70
    32
  0
VERTEX
  8
0
  5
B81
 10
29.1491
 20
16.9491
 30
0.000000
  70
    32
  0
VERTEX
  8
0
  5
B82
 10
29.1501
 20
16.9477
 30
0.000000
  70
    32
  0
VERTEX
  8
0
  5
B83
 10
29.1511
 20
16.9463
 30
0.000000
  70
    32
  0
VERTEX
  8
0
  5
B84
 10
29.1521
 20
16.9449
 30
0.000000
  70
    32
  0
VERTEX
  8
0
  5
B85
 10
29.1530
 20
16.9435
 30
0.000000
  70
    32
  0
VERTEX
  8
0
  5
B86
 10
29.1540
 20
16.9421
 30
0.000000
  70
    32
  0
VERTEX
  8
0
  5
B87
 10
29.1549
 20
16.9407
 30
0.000000
  70
    32
  0
VERTEX
  8
0
  5
B88
 10
29.1558
 20
16.9393
 30
0.000000
  70
    32
  0
VERTEX
  8
0
  5
B89
 10
29.1567
 20
16.9379
 30
0.000000
  70
    32
  0
VERTEX
  8
0
  5
B8A
 10
29.1576
 20
16.9365
 30
0.000000
  70
    32
  0
VERTEX
  8
0
  5
B8B
 10
29.1585
 20
16.9351
 30
0.000000
  70
    32
  0
VERTEX
  8
0
  5
B8C
 10
29.1593
 20
16.9337
 30
0.000000
  70
    32
  0
VERTEX
  8
0
  5
B8D
 10
29.1601
 20
16.9323
 30
0.000000
  70
    32
  0
VERTEX
  8
0
  5
B8E
 10
29.1610
 20
16.9308
 30
0.000000
  70
    32
  0
VERTEX
  8
0
  5
B8F
 10
29.1618
 20
16.9294
 30
0.000000
  70
    32
  0
VERTEX
  8
0
  5
B90
 10
29.1625
 20
16.9280
 30
0.000000
  70
    32
  0
VERTEX
  8
0
  5
B91
 10
29.1633
 20
16.9266
 30
0.000000
  70
    32
  0
VERTEX
  8
0
  5
B92
 10
29.1641
 20
16.9252
 30
0.000000
  70
    32
  0
VERTEX
  8
0
  5
B93
 10
29.1648
 20
16.9238
 30
0.000000
  70
    32
  0
VERTEX
  8
0
  5
B94
 10
29.1655
 20
16.9223
 30
0.000000
  70
    32
  0
VERTEX
  8
0
  5
B95
 10
29.1662
 20
16.9209
 30
0.000000
  70
    32
  0
VERTEX
  8
0
  5
B96
 10
29.1669
 20
16.9195
 30
0.000000
  70
    32
  0
VERTEX
  8
0
  5
B97
 10
29.1675
 20
16.9181
 30
0.000000
  70
    32
  0
VERTEX
  8
0
  5
B98
 10
29.1682
 20
16.9167
 30
0.000000
  70
    32
  0
VERTEX
  8
0
  5
B99
 10
29.1688
 20
16.9153
 30
0.000000
  70
    32
  0
VERTEX
  8
0
  5
B9A
 10
29.1694
 20
16.9139
 30
0.000000
  70
    32
  0
VERTEX
  8
0
  5
B9B
 10
29.1700
 20
16.9125
 30
0.000000
  70
    32
  0
VERTEX
  8
0
  5
B9C
 10
29.1706
 20
16.9111
 30
0.000000
  70
    32
  0
VERTEX
  8
0
  5
B9D
 10
29.1711
 20
16.9097
 30
0.000000
  70
    32
  0
SEQEND
  8
0
  5
B9E
  0
POLYLINE
  8
0
  5
B9F
  66
     1
 10
0.000000
 20
0.000000
 30
0.000000
  70
     8
  0
VERTEX
  8
0
  5
BA0
 10
29.1711
 20
16.9097
 30
0.000000
  70
    32
  0
VERTEX
  8
0
  5
BA1
 10
29.1745
 20
16.9007
 30
0.000000
  70
    32
  0
VERTEX
  8
0
  5
BA2
 10
29.1779
 20
16.8916
 30
0.000000
  70
    32
  0
VERTEX
  8
0
  5
BA3
 10
29.1812
 20
16.8823
 30
0.000000
  70
    32
  0
VERTEX
  8
0
  5
BA4
 10
29.1845
 20
16.8729
 30
0.000000
  70
    32
  0
VERTEX
  8
0
  5
BA5
 10
29.1878
 20
16.8633
 30
0.000000
  70
    32
  0
VERTEX
  8
0
  5
BA6
 10
29.1911
 20
16.8535
 30
0.000000
  70
    32
  0
VERTEX
  8
0
  5
BA7
 10
29.1943
 20
16.8435
 30
0.000000
  70
    32
  0
VERTEX
  8
0
  5
BA8
 10
29.1976
 20
16.8333
 30
0.000000
  70
    32
  0
VERTEX
  8
0
  5
BA9
 10
29.2008
 20
16.8230
 30
0.000000
  70
    32
  0
VERTEX
  8
0
  5
BAA
 10
29.2040
 20
16.8126
 30
0.000000
  70
    32
  0
VERTEX
  8
0
  5
BAB
 10
29.2071
 20
16.8020
 30
0.000000
  70
    32
  0
VERTEX
  8
0
  5
BAC
 10
29.2103
 20
16.7912
 30
0.000000
  70
    32
  0
VERTEX
  8
0
  5
BAD
 10
29.2134
 20
16.7803
 30
0.000000
  70
    32
  0
VERTEX
  8
0
  5
BAE
 10
29.2165
 20
16.7692
 30
0.000000
  70
    32
  0
VERTEX
  8
0
  5
BAF
 10
29.2195
 20
16.7580
 30
0.000000
  70
    32
  0
VERTEX
  8
0
  5
BB0
 10
29.2226
 20
16.7467
 30
0.000000
  70
    32
  0
VERTEX
  8
0
  5
BB1
 10
29.2256
 20
16.7352
 30
0.000000
  70
    32
  0
VERTEX
  8
0
  5
BB2
 10
29.2286
 20
16.7236
 30
0.000000
  70
    32
  0
VERTEX
  8
0
  5
BB3
 10
29.2316
 20
16.7118
 30
0.000000
  70
    32
  0
VERTEX
  8
0
  5
BB4
 10
29.2345
 20
16.6999
 30
0.000000
  70
    32
  0
VERTEX
  8
0
  5
BB5
 10
29.2375
 20
16.6879
 30
0.000000
  70
    32
  0
VERTEX
  8
0
  5
BB6
 10
29.2404
 20
16.6758
 30
0.000000
  70
    32
  0
VERTEX
  8
0
  5
BB7
 10
29.2432
 20
16.6635
 30
0.000000
  70
    32
  0
VERTEX
  8
0
  5
BB8
 10
29.2461
 20
16.6511
 30
0.000000
  70
    32
  0
VERTEX
  8
0
  5
BB9
 10
29.2489
 20
16.6386
 30
0.000000
  70
    32
  0
VERTEX
  8
0
  5
BBA
 10
29.2517
 20
16.6260
 30
0.000000
  70
    32
  0
VERTEX
  8
0
  5
BBB
 10
29.2545
 20
16.6133
 30
0.000000
  70
    32
  0
VERTEX
  8
0
  5
BBC
 10
29.2573
 20
16.6005
 30
0.000000
  70
    32
  0
VERTEX
  8
0
  5
BBD
 10
29.2600
 20
16.5875
 30
0.000000
  70
    32
  0
VERTEX
  8
0
  5
BBE
 10
29.2627
 20
16.5745
 30
0.000000
  70
    32
  0
VERTEX
  8
0
  5
BBF
 10
29.2654
 20
16.5614
 30
0.000000
  70
    32
  0
VERTEX
  8
0
  5
BC0
 10
29.2680
 20
16.5482
 30
0.000000
  70
    32
  0
VERTEX
  8
0
  5
BC1
 10
29.2706
 20
16.5348
 30
0.000000
  70
    32
  0
VERTEX
  8
0
  5
BC2
 10
29.2732
 20
16.5214
 30
0.000000
  70
    32
  0
VERTEX
  8
0
  5
BC3
 10
29.2758
 20
16.5079
 30
0.000000
  70
    32
  0
VERTEX
  8
0
  5
BC4
 10
29.2783
 20
16.4944
 30
0.000000
  70
    32
  0
VERTEX
  8
0
  5
BC5
 10
29.2809
 20
16.4807
 30
0.000000
  70
    32
  0
VERTEX
  8
0
  5
BC6
 10
29.2834
 20
16.4670
 30
0.000000
  70
    32
  0
VERTEX
  8
0
  5
BC7
 10
29.2858
 20
16.4531
 30
0.000000
  70
    32
  0
VERTEX
  8
0
  5
BC8
 10
29.2882
 20
16.4393
 30
0.000000
  70
    32
  0
VERTEX
  8
0
  5
BC9
 10
29.2907
 20
16.4253
 30
0.000000
  70
    32
  0
VERTEX
  8
0
  5
BCA
 10
29.2930
 20
16.4113
 30
0.000000
  70
    32
  0
VERTEX
  8
0
  5
BCB
 10
29.2954
 20
16.3972
 30
0.000000
  70
    32
  0
VERTEX
  8
0
  5
BCC
 10
29.2977
 20
16.3830
 30
0.000000
  70
    32
  0
VERTEX
  8
0
  5
BCD
 10
29.3000
 20
16.3688
 30
0.000000
  70
    32
  0
VERTEX
  8
0
  5
BCE
 10
29.3023
 20
16.3546
 30
0.000000
  70
    32
  0
VERTEX
  8
0
  5
BCF
 10
29.3045
 20
16.3403
 30
0.000000
  70
    32
  0
VERTEX
  8
0
  5
BD0
 10
29.3067
 20
16.3259
 30
0.000000
  70
    32
  0
VERTEX
  8
0
  5
BD1
 10
29.3089
 20
16.3115
 30
0.000000
  70
    32
  0
VERTEX
  8
0
  5
BD2
 10
29.3110
 20
16.2970
 30
0.000000
  70
    32
  0
VERTEX
  8
0
  5
BD3
 10
29.3132
 20
16.2826
 30
0.000000
  70
    32
  0
VERTEX
  8
0
  5
BD4
 10
29.3153
 20
16.2680
 30
0.000000
  70
    32
  0
VERTEX
  8
0
  5
BD5
 10
29.3173
 20
16.2535
 30
0.000000
  70
    32
  0
VERTEX
  8
0
  5
BD6
 10
29.3193
 20
16.2389
 30
0.000000
  70
    32
  0
VERTEX
  8
0
  5
BD7
 10
29.3213
 20
16.2242
 30
0.000000
  70
    32
  0
VERTEX
  8
0
  5
BD8
 10
29.3233
 20
16.2096
 30
0.000000
  70
    32
  0
VERTEX
  8
0
  5
BD9
 10
29.3253
 20
16.1949
 30
0.000000
  70
    32
  0
VERTEX
  8
0
  5
BDA
 10
29.3272
 20
16.1802
 30
0.000000
  70
    32
  0
VERTEX
  8
0
  5
BDB
 10
29.3290
 20
16.1655
 30
0.000000
  70
    32
  0
VERTEX
  8
0
  5
BDC
 10
29.3309
 20
16.1508
 30
0.000000
  70
    32
  0
VERTEX
  8
0
  5
BDD
 10
29.3327
 20
16.1360
 30
0.000000
  70
    32
  0
VERTEX
  8
0
  5
BDE
 10
29.3345
 20
16.1213
 30
0.000000
  70
    32
  0
VERTEX
  8
0
  5
BDF
 10
29.3362
 20
16.1065
 30
0.000000
  70
    32
  0
VERTEX
  8
0
  5
BE0
 10
29.3380
 20
16.0917
 30
0.000000
  70
    32
  0
VERTEX
  8
0
  5
BE1
 10
29.3397
 20
16.0770
 30
0.000000
  70
    32
  0
VERTEX
  8
0
  5
BE2
 10
29.3413
 20
16.0622
 30
0.000000
  70
    32
  0
VERTEX
  8
0
  5
BE3
 10
29.3429
 20
16.0475
 30
0.000000
  70
    32
  0
VERTEX
  8
0
  5
BE4
 10
29.3445
 20
16.0327
 30
0.000000
  70
    32
  0
VERTEX
  8
0
  5
BE5
 10
29.3461
 20
16.0180
 30
0.000000
  70
    32
  0
VERTEX
  8
0
  5
BE6
 10
29.3476
 20
16.0033
 30
0.000000
  70
    32
  0
VERTEX
  8
0
  5
BE7
 10
29.3491
 20
15.9886
 30
0.000000
  70
    32
  0
VERTEX
  8
0
  5
BE8
 10
29.3506
 20
15.9739
 30
0.000000
  70
    32
  0
VERTEX
  8
0
  5
BE9
 10
29.3520
 20
15.9592
 30
0.000000
  70
    32
  0
VERTEX
  8
0
  5
BEA
 10
29.3534
 20
15.9446
 30
0.000000
  70
    32
  0
VERTEX
  8
0
  5
BEB
 10
29.3548
 20
15.9300
 30
0.000000
  70
    32
  0
VERTEX
  8
0
  5
BEC
 10
29.3561
 20
15.9154
 30
0.000000
  70
    32
  0
VERTEX
  8
0
  5
BED
 10
29.3574
 20
15.9009
 30
0.000000
  70
    32
  0
VERTEX
  8
0
  5
BEE
 10
29.3587
 20
15.8864
 30
0.000000
  70
    32
  0
VERTEX
  8
0
  5
BEF
 10
29.3599
 20
15.8719
 30
0.000000
  70
    32
  0
VERTEX
  8
0
  5
BF0
 10
29.3611
 20
15.8575
 30
0.000000
  70
    32
  0
VERTEX
  8
0
  5
BF1
 10
29.3622
 20
15.8431
 30
0.000000
  70
    32
  0
VERTEX
  8
0
  5
BF2
 10
29.3634
 20
15.8288
 30
0.000000
  70
    32
  0
VERTEX
  8
0
  5
BF3
 10
29.3644
 20
15.8145
 30
0.000000
  70
    32
  0
VERTEX
  8
0
  5
BF4
 10
29.3655
 20
15.8003
 30
0.000000
  70
    32
  0
VERTEX
  8
0
  5
BF5
 10
29.3665
 20
15.7861
 30
0.000000
  70
    32
  0
VERTEX
  8
0
  5
BF6
 10
29.3675
 20
15.7720
 30
0.000000
  70
    32
  0
VERTEX
  8
0
  5
BF7
 10
29.3684
 20
15.7580
 30
0.000000
  70
    32
  0
VERTEX
  8
0
  5
BF8
 10
29.3694
 20
15.7440
 30
0.000000
  70
    32
  0
VERTEX
  8
0
  5
BF9
 10
29.3702
 20
15.7301
 30
0.000000
  70
    32
  0
VERTEX
  8
0
  5
BFA
 10
29.3711
 20
15.7163
 30
0.000000
  70
    32
  0
VERTEX
  8
0
  5
BFB
 10
29.3719
 20
15.7025
 30
0.000000
  70
    32
  0
VERTEX
  8
0
  5
BFC
 10
29.3726
 20
15.6888
 30
0.000000
  70
    32
  0
VERTEX
  8
0
  5
BFD
 10
29.3734
 20
15.6752
 30
0.000000
  70
    32
  0
VERTEX
  8
0
  5
BFE
 10
29.3741
 20
15.6617
 30
0.000000
  70
    32
  0
VERTEX
  8
0
  5
BFF
 10
29.3747
 20
15.6483
 30
0.000000
  70
    32
  0
VERTEX
  8
0
  5
C00
 10
29.3753
 20
15.6349
 30
0.000000
  70
    32
  0
VERTEX
  8
0
  5
C01
 10
29.3759
 20
15.6217
 30
0.000000
  70
    32
  0
VERTEX
  8
0
  5
C02
 10
29.3765
 20
15.6085
 30
0.000000
  70
    32
  0
VERTEX
  8
0
  5
C03
 10
29.3770
 20
15.5955
 30
0.000000
  70
    32
  0
VERTEX
  8
0
  5
C04
 10
29.3774
 20
15.5825
 30
0.000000
  70
    32
  0
VERTEX
  8
0
  5
C05
 10
29.3779
 20
15.5697
 30
0.000000
  70
    32
  0
VERTEX
  8
0
  5
C06
 10
29.3783
 20
15.5569
 30
0.000000
  70
    32
  0
VERTEX
  8
0
  5
C07
 10
29.3786
 20
15.5443
 30
0.000000
  70
    32
  0
VERTEX
  8
0
  5
C08
 10
29.3789
 20
15.5318
 30
0.000000
  70
    32
  0
VERTEX
  8
0
  5
C09
 10
29.3792
 20
15.5193
 30
0.000000
  70
    32
  0
VERTEX
  8
0
  5
C0A
 10
29.3794
 20
15.5071
 30
0.000000
  70
    32
  0
VERTEX
  8
0
  5
C0B
 10
29.3796
 20
15.4949
 30
0.000000
  70
    32
  0
VERTEX
  8
0
  5
C0C
 10
29.3798
 20
15.4828
 30
0.000000
  70
    32
  0
VERTEX
  8
0
  5
C0D
 10
29.3799
 20
15.4709
 30
0.000000
  70
    32
  0
VERTEX
  8
0
  5
C0E
 10
29.3800
 20
15.4591
 30
0.000000
  70
    32
  0
VERTEX
  8
0
  5
C0F
 10
29.3800
 20
15.4474
 30
0.000000
  70
    32
  0
VERTEX
  8
0
  5
C10
 10
29.3800
 20
15.4359
 30
0.000000
  70
    32
  0
VERTEX
  8
0
  5
C11
 10
29.3800
 20
15.4247
 30
0.000000
  70
    32
  0
VERTEX
  8
0
  5
C12
 10
29.3800
 20
15.4137
 30
0.000000
  70
    32
  0
VERTEX
  8
0
  5
C13
 10
29.3799
 20
15.4030
 30
0.000000
  70
    32
  0
VERTEX
  8
0
  5
C14
 10
29.3798
 20
15.3925
 30
0.000000
  70
    32
  0
VERTEX
  8
0
  5
C15
 10
29.3796
 20
15.3822
 30
0.000000
  70
    32
  0
VERTEX
  8
0
  5
C16
 10
29.3795
 20
15.3722
 30
0.000000
  70
    32
  0
VERTEX
  8
0
  5
C17
 10
29.3793
 20
15.3625
 30
0.000000
  70
    32
  0
VERTEX
  8
0
  5
C18
 10
29.3791
 20
15.3530
 30
0.000000
  70
    32
  0
VERTEX
  8
0
  5
C19
 10
29.3788
 20
15.3437
 30
0.000000
  70
    32
  0
VERTEX
  8
0
  5
C1A
 10
29.3785
 20
15.3346
 30
0.000000
  70
    32
  0
VERTEX
  8
0
  5
C1B
 10
29.3782
 20
15.3258
 30
0.000000
  70
    32
  0
VERTEX
  8
0
  5
C1C
 10
29.3779
 20
15.3172
 30
0.000000
  70
    32
  0
VERTEX
  8
0
  5
C1D
 10
29.3775
 20
15.3088
 30
0.000000
  70
    32
  0
VERTEX
  8
0
  5
C1E
 10
29.3771
 20
15.3006
 30
0.000000
  70
    32
  0
VERTEX
  8
0
  5
C1F
 10
29.3767
 20
15.2927
 30
0.000000
  70
    32
  0
VERTEX
  8
0
  5
C20
 10
29.3763
 20
15.2850
 30
0.000000
  70
    32
  0
VERTEX
  8
0
  5
C21
 10
29.3758
 20
15.2774
 30
0.000000
  70
    32
  0
VERTEX
  8
0
  5
C22
 10
29.3753
 20
15.2701
 30
0.000000
  70
    32
  0
VERTEX
  8
0
  5
C23
 10
29.3748
 20
15.2630
 30
0.000000
  70
    32
  0
VERTEX
  8
0
  5
C24
 10
29.3742
 20
15.2561
 30
0.000000
  70
    32
  0
VERTEX
  8
0
  5
C25
 10
29.3736
 20
15.2493
 30
0.000000
  70
    32
  0
VERTEX
  8
0
  5
C26
 10
29.3730
 20
15.2428
 30
0.000000
  70
    32
  0
VERTEX
  8
0
  5
C27
 10
29.3723
 20
15.2365
 30
0.000000
  70
    32
  0
VERTEX
  8
0
  5
C28
 10
29.3717
 20
15.2303
 30
0.000000
  70
    32
  0
VERTEX
  8
0
  5
C29
 10
29.3710
 20
15.2243
 30
0.000000
  70
    32
  0
VERTEX
  8
0
  5
C2A
 10
29.3702
 20
15.2185
 30
0.000000
  70
    32
  0
VERTEX
  8
0
  5
C2B
 10
29.3694
 20
15.2129
 30
0.000000
  70
    32
  0
VERTEX
  8
0
  5
C2C
 10
29.3686
 20
15.2074
 30
0.000000
  70
    32
  0
VERTEX
  8
0
  5
C2D
 10
29.3678
 20
15.2022
 30
0.000000
  70
    32
  0
VERTEX
  8
0
  5
C2E
 10
29.3669
 20
15.1971
 30
0.000000
  70
    32
  0
VERTEX
  8
0
  5
C2F
 10
29.3661
 20
15.1921
 30
0.000000
  70
    32
  0
VERTEX
  8
0
  5
C30
 10
29.3651
 20
15.1873
 30
0.000000
  70
    32
  0
VERTEX
  8
0
  5
C31
 10
29.3642
 20
15.1827
 30
0.000000
  70
    32
  0
VERTEX
  8
0
  5
C32
 10
29.3632
 20
15.1782
 30
0.000000
  70
    32
  0
VERTEX
  8
0
  5
C33
 10
29.3622
 20
15.1739
 30
0.000000
  70
    32
  0
VERTEX
  8
0
  5
C34
 10
29.3611
 20
15.1697
 30
0.000000
  70
    32
  0
VERTEX
  8
0
  5
C35
 10
29.3601
 20
15.1657
 30
0.000000
  70
    32
  0
VERTEX
  8
0
  5
C36
 10
29.3589
 20
15.1618
 30
0.000000
  70
    32
  0
VERTEX
  8
0
  5
C37
 10
29.3578
 20
15.1580
 30
0.000000
  70
    32
  0
VERTEX
  8
0
  5
C38
 10
29.3566
 20
15.1544
 30
0.000000
  70
    32
  0
VERTEX
  8
0
  5
C39
 10
29.3554
 20
15.1509
 30
0.000000
  70
    32
  0
VERTEX
  8
0
  5
C3A
 10
29.3542
 20
15.1475
 30
0.000000
  70
    32
  0
VERTEX
  8
0
  5
C3B
 10
29.3529
 20
15.1443
 30
0.000000
  70
    32
  0
VERTEX
  8
0
  5
C3C
 10
29.3516
 20
15.1412
 30
0.000000
  70
    32
  0
VERTEX
  8
0
  5
C3D
 10
29.3503
 20
15.1382
 30
0.000000
  70
    32
  0
VERTEX
  8
0
  5
C3E
 10
29.3489
 20
15.1353
 30
0.000000
  70
    32
  0
VERTEX
  8
0
  5
C3F
 10
29.3475
 20
15.1326
 30
0.000000
  70
    32
  0
VERTEX
  8
0
  5
C40
 10
29.3461
 20
15.1299
 30
0.000000
  70
    32
  0
VERTEX
  8
0
  5
C41
 10
29.3446
 20
15.1273
 30
0.000000
  70
    32
  0
VERTEX
  8
0
  5
C42
 10
29.3431
 20
15.1249
 30
0.000000
  70
    32
  0
VERTEX
  8
0
  5
C43
 10
29.3416
 20
15.1225
 30
0.000000
  70
    32
  0
VERTEX
  8
0
  5
C44
 10
29.3400
 20
15.1203
 30
0.000000
  70
    32
  0
VERTEX
  8
0
  5
C45
 10
29.3384
 20
15.1181
 30
0.000000
  70
    32
  0
VERTEX
  8
0
  5
C46
 10
29.3368
 20
15.1160
 30
0.000000
  70
    32
  0
VERTEX
  8
0
  5
C47
 10
29.3352
 20
15.1141
 30
0.000000
  70
    32
  0
VERTEX
  8
0
  5
C48
 10
29.3335
 20
15.1122
 30
0.000000
  70
    32
  0
VERTEX
  8
0
  5
C49
 10
29.3317
 20
15.1103
 30
0.000000
  70
    32
  0
VERTEX
  8
0
  5
C4A
 10
29.3300
 20
15.1086
 30
0.000000
  70
    32
  0
VERTEX
  8
0
  5
C4B
 10
29.3282
 20
15.1069
 30
0.000000
  70
    32
  0
VERTEX
  8
0
  5
C4C
 10
29.3263
 20
15.1053
 30
0.000000
  70
    32
  0
VERTEX
  8
0
  5
C4D
 10
29.3245
 20
15.1038
 30
0.000000
  70
    32
  0
VERTEX
  8
0
  5
C4E
 10
29.3226
 20
15.1023
 30
0.000000
  70
    32
  0
VERTEX
  8
0
  5
C4F
 10
29.3206
 20
15.1009
 30
0.000000
  70
    32
  0
VERTEX
  8
0
  5
C50
 10
29.3187
 20
15.0996
 30
0.000000
  70
    32
  0
VERTEX
  8
0
  5
C51
 10
29.3167
 20
15.0983
 30
0.000000
  70
    32
  0
VERTEX
  8
0
  5
C52
 10
29.3146
 20
15.0970
 30
0.000000
  70
    32
  0
VERTEX
  8
0
  5
C53
 10
29.3125
 20
15.0958
 30
0.000000
  70
    32
  0
VERTEX
  8
0
  5
C54
 10
29.3104
 20
15.0947
 30
0.000000
  70
    32
  0
VERTEX
  8
0
  5
C55
 10
29.3083
 20
15.0936
 30
0.000000
  70
    32
  0
VERTEX
  8
0
  5
C56
 10
29.3061
 20
15.0925
 30
0.000000
  70
    32
  0
VERTEX
  8
0
  5
C57
 10
29.3039
 20
15.0915
 30
0.000000
  70
    32
  0
VERTEX
  8
0
  5
C58
 10
29.3017
 20
15.0905
 30
0.000000
  70
    32
  0
VERTEX
  8
0
  5
C59
 10
29.2994
 20
15.0895
 30
0.000000
  70
    32
  0
VERTEX
  8
0
  5
C5A
 10
29.2970
 20
15.0885
 30
0.000000
  70
    32
  0
VERTEX
  8
0
  5
C5B
 10
29.2947
 20
15.0876
 30
0.000000
  70
    32
  0
VERTEX
  8
0
  5
C5C
 10
29.2923
 20
15.0867
 30
0.000000
  70
    32
  0
VERTEX
  8
0
  5
C5D
 10
29.2899
 20
15.0858
 30
0.000000
  70
    32
  0
VERTEX
  8
0
  5
C5E
 10
29.2874
 20
15.0849
 30
0.000000
  70
    32
  0
VERTEX
  8
0
  5
C5F
 10
29.2849
 20
15.0841
 30
0.000000
  70
    32
  0
VERTEX
  8
0
  5
C60
 10
29.2824
 20
15.0832
 30
0.000000
  70
    32
  0
VERTEX
  8
0
  5
C61
 10
29.2798
 20
15.0823
 30
0.000000
  70
    32
  0
VERTEX
  8
0
  5
C62
 10
29.2772
 20
15.0815
 30
0.000000
  70
    32
  0
VERTEX
  8
0
  5
C63
 10
29.2745
 20
15.0806
 30
0.000000
  70
    32
  0
VERTEX
  8
0
  5
C64
 10
29.2718
 20
15.0797
 30
0.000000
  70
    32
  0
VERTEX
  8
0
  5
C65
 10
29.2691
 20
15.0789
 30
0.000000
  70
    32
  0
VERTEX
  8
0
  5
C66
 10
29.2664
 20
15.0780
 30
0.000000
  70
    32
  0
VERTEX
  8
0
  5
C67
 10
29.2636
 20
15.0771
 30
0.000000
  70
    32
  0
VERTEX
  8
0
  5
C68
 10
29.2607
 20
15.0761
 30
0.000000
  70
    32
  0
VERTEX
  8
0
  5
C69
 10
29.2578
 20
15.0752
 30
0.000000
  70
    32
  0
VERTEX
  8
0
  5
C6A
 10
29.2549
 20
15.0742
 30
0.000000
  70
    32
  0
VERTEX
  8
0
  5
C6B
 10
29.2520
 20
15.0732
 30
0.000000
  70
    32
  0
VERTEX
  8
0
  5
C6C
 10
29.2490
 20
15.0722
 30
0.000000
  70
    32
  0
VERTEX
  8
0
  5
C6D
 10
29.2460
 20
15.0711
 30
0.000000
  70
    32
  0
VERTEX
  8
0
  5
C6E
 10
29.2429
 20
15.0700
 30
0.000000
  70
    32
  0
VERTEX
  8
0
  5
C6F
 10
29.2398
 20
15.0689
 30
0.000000
  70
    32
  0
VERTEX
  8
0
  5
C70
 10
29.2367
 20
15.0677
 30
0.000000
  70
    32
  0
VERTEX
  8
0
  5
C71
 10
29.2335
 20
15.0664
 30
0.000000
  70
    32
  0
VERTEX
  8
0
  5
C72
 10
29.2303
 20
15.0651
 30
0.000000
  70
    32
  0
VERTEX
  8
0
  5
C73
 10
29.2270
 20
15.0638
 30
0.000000
  70
    32
  0
VERTEX
  8
0
  5
C74
 10
29.2237
 20
15.0624
 30
0.000000
  70
    32
  0
VERTEX
  8
0
  5
C75
 10
29.2204
 20
15.0609
 30
0.000000
  70
    32
  0
VERTEX
  8
0
  5
C76
 10
29.2170
 20
15.0594
 30
0.000000
  70
    32
  0
VERTEX
  8
0
  5
C77
 10
29.2136
 20
15.0578
 30
0.000000
  70
    32
  0
VERTEX
  8
0
  5
C78
 10
29.2102
 20
15.0561
 30
0.000000
  70
    32
  0
VERTEX
  8
0
  5
C79
 10
29.2067
 20
15.0544
 30
0.000000
  70
    32
  0
VERTEX
  8
0
  5
C7A
 10
29.2031
 20
15.0526
 30
0.000000
  70
    32
  0
VERTEX
  8
0
  5
C7B
 10
29.1996
 20
15.0507
 30
0.000000
  70
    32
  0
VERTEX
  8
0
  5
C7C
 10
29.1960
 20
15.0487
 30
0.000000
  70
    32
  0
VERTEX
  8
0
  5
C7D
 10
29.1923
 20
15.0466
 30
0.000000
  70
    32
  0
VERTEX
  8
0
  5
C7E
 10
29.1886
 20
15.0445
 30
0.000000
  70
    32
  0
VERTEX
  8
0
  5
C7F
 10
29.1849
 20
15.0422
 30
0.000000
  70
    32
  0
SEQEND
  8
0
  5
C80
  0
POLYLINE
  8
0
  5
C81
  66
     1
 10
0.000000
 20
0.000000
 30
0.000000
  70
     8
  0
VERTEX
  8
0
  5
C82
 10
8.36664
 20
17.5364
 30
0.000000
  70
    32
  0
VERTEX
  8
0
  5
C83
 10
8.37363
 20
17.5822
 30
0.000000
  70
    32
  0
VERTEX
  8
0
  5
C84
 10
8.38056
 20
17.6275
 30
0.000000
  70
    32
  0
VERTEX
  8
0
  5
C85
 10
8.38746
 20
17.6721
 30
0.000000
  70
    32
  0
VERTEX
  8
0
  5
C86
 10
8.39431
 20
17.7162
 30
0.000000
  70
    32
  0
VERTEX
  8
0
  5
C87
 10
8.40111
 20
17.7596
 30
0.000000
  70
    32
  0
VERTEX
  8
0
  5
C88
 10
8.40788
 20
17.8024
 30
0.000000
  70
    32
  0
VERTEX
  8
0
  5
C89
 10
8.41460
 20
17.8447
 30
0.000000
  70
    32
  0
VERTEX
  8
0
  5
C8A
 10
8.42128
 20
17.8864
 30
0.000000
  70
    32
  0
VERTEX
  8
0
  5
C8B
 10
8.42791
 20
17.9276
 30
0.000000
  70
    32
  0
VERTEX
  8
0
  5
C8C
 10
8.43451
 20
17.9682
 30
0.000000
  70
    32
  0
VERTEX
  8
0
  5
C8D
 10
8.44106
 20
18.0083
 30
0.000000
  70
    32
  0
VERTEX
  8
0
  5
C8E
 10
8.44757
 20
18.0478
 30
0.000000
  70
    32
  0
VERTEX
  8
0
  5
C8F
 10
8.45404
 20
18.0869
 30
0.000000
  70
    32
  0
VERTEX
  8
0
  5
C90
 10
8.46046
 20
18.1254
 30
0.000000
  70
    32
  0
VERTEX
  8
0
  5
C91
 10
8.46685
 20
18.1634
 30
0.000000
  70
    32
  0
VERTEX
  8
0
  5
C92
 10
8.47319
 20
18.2010
 30
0.000000
  70
    32
  0
VERTEX
  8
0
  5
C93
 10
8.47949
 20
18.2381
 30
0.000000
  70
    32
  0
VERTEX
  8
0
  5
C94
 10
8.48575
 20
18.2747
 30
0.000000
  70
    32
  0
VERTEX
  8
0
  5
C95
 10
8.49197
 20
18.3109
 30
0.000000
  70
    32
  0
VERTEX
  8
0
  5
C96
 10
8.49815
 20
18.3466
 30
0.000000
  70
    32
  0
VERTEX
  8
0
  5
C97
 10
8.50429
 20
18.3819
 30
0.000000
  70
    32
  0
VERTEX
  8
0
  5
C98
 10
8.51039
 20
18.4167
 30
0.000000
  70
    32
  0
VERTEX
  8
0
  5
C99
 10
8.51645
 20
18.4512
 30
0.000000
  70
    32
  0
VERTEX
  8
0
  5
C9A
 10
8.52246
 20
18.4852
 30
0.000000
  70
    32
  0
VERTEX
  8
0
  5
C9B
 10
8.52844
 20
18.5189
 30
0.000000
  70
    32
  0
VERTEX
  8
0
  5
C9C
 10
8.53438
 20
18.5521
 30
0.000000
  70
    32
  0
VERTEX
  8
0
  5
C9D
 10
8.54028
 20
18.5850
 30
0.000000
  70
    32
  0
VERTEX
  8
0
  5
C9E
 10
8.54614
 20
18.6176
 30
0.000000
  70
    32
  0
VERTEX
  8
0
  5
C9F
 10
8.55196
 20
18.6497
 30
0.000000
  70
    32
  0
VERTEX
  8
0
  5
CA0
 10
8.55774
 20
18.6816
 30
0.000000
  70
    32
  0
VERTEX
  8
0
  5
CA1
 10
8.56348
 20
18.7131
 30
0.000000
  70
    32
  0
VERTEX
  8
0
  5
CA2
 10
8.56918
 20
18.7442
 30
0.000000
  70
    32
  0
VERTEX
  8
0
  5
CA3
 10
8.57485
 20
18.7751
 30
0.000000
  70
    32
  0
VERTEX
  8
0
  5
CA4
 10
8.58047
 20
18.8057
 30
0.000000
  70
    32
  0
VERTEX
  8
0
  5
CA5
 10
8.58606
 20
18.8359
 30
0.000000
  70
    32
  0
VERTEX
  8
0
  5
CA6
 10
8.59161
 20
18.8659
 30
0.000000
  70
    32
  0
VERTEX
  8
0
  5
CA7
 10
8.59712
 20
18.8956
 30
0.000000
  70
    32
  0
VERTEX
  8
0
  5
CA8
 10
8.60259
 20
18.9250
 30
0.000000
  70
    32
  0
VERTEX
  8
0
  5
CA9
 10
8.60802
 20
18.9542
 30
0.000000
  70
    32
  0
VERTEX
  8
0
  5
CAA
 10
8.61342
 20
18.9832
 30
0.000000
  70
    32
  0
VERTEX
  8
0
  5
CAB
 10
8.61878
 20
19.0119
 30
0.000000
  70
    32
  0
VERTEX
  8
0
  5
CAC
 10
8.62410
 20
19.0404
 30
0.000000
  70
    32
  0
VERTEX
  8
0
  5
CAD
 10
8.62939
 20
19.0687
 30
0.000000
  70
    32
  0
VERTEX
  8
0
  5
CAE
 10
8.63464
 20
19.0967
 30
0.000000
  70
    32
  0
VERTEX
  8
0
  5
CAF
 10
8.63985
 20
19.1246
 30
0.000000
  70
    32
  0
VERTEX
  8
0
  5
CB0
 10
8.64502
 20
19.1523
 30
0.000000
  70
    32
  0
VERTEX
  8
0
  5
CB1
 10
8.65016
 20
19.1798
 30
0.000000
  70
    32
  0
VERTEX
  8
0
  5
CB2
 10
8.65526
 20
19.2072
 30
0.000000
  70
    32
  0
VERTEX
  8
0
  5
CB3
 10
8.66033
 20
19.2344
 30
0.000000
  70
    32
  0
VERTEX
  8
0
  5
CB4
 10
8.66536
 20
19.2615
 30
0.000000
  70
    32
  0
VERTEX
  8
0
  5
CB5
 10
8.67035
 20
19.2884
 30
0.000000
  70
    32
  0
VERTEX
  8
0
  5
CB6
 10
8.67531
 20
19.3152
 30
0.000000
  70
    32
  0
VERTEX
  8
0
  5
CB7
 10
8.68023
 20
19.3419
 30
0.000000
  70
    32
  0
VERTEX
  8
0
  5
CB8
 10
8.68512
 20
19.3685
 30
0.000000
  70
    32
  0
VERTEX
  8
0
  5
CB9
 10
8.68997
 20
19.3950
 30
0.000000
  70
    32
  0
VERTEX
  8
0
  5
CBA
 10
8.69479
 20
19.4214
 30
0.000000
  70
    32
  0
VERTEX
  8
0
  5
CBB
 10
8.69957
 20
19.4478
 30
0.000000
  70
    32
  0
VERTEX
  8
0
  5
CBC
 10
8.70431
 20
19.4741
 30
0.000000
  70
    32
  0
VERTEX
  8
0
  5
CBD
 10
8.70903
 20
19.5003
 30
0.000000
  70
    32
  0
VERTEX
  8
0
  5
CBE
 10
8.71370
 20
19.5265
 30
0.000000
  70
    32
  0
VERTEX
  8
0
  5
CBF
 10
8.71835
 20
19.5527
 30
0.000000
  70
    32
  0
VERTEX
  8
0
  5
CC0
 10
8.72295
 20
19.5788
 30
0.000000
  70
    32
  0
VERTEX
  8
0
  5
CC1
 10
8.72753
 20
19.6049
 30
0.000000
  70
    32
  0
VERTEX
  8
0
  5
CC2
 10
8.73207
 20
19.6310
 30
0.000000
  70
    32
  0
VERTEX
  8
0
  5
CC3
 10
8.73658
 20
19.6572
 30
0.000000
  70
    32
  0
VERTEX
  8
0
  5
CC4
 10
8.74105
 20
19.6833
 30
0.000000
  70
    32
  0
VERTEX
  8
0
  5
CC5
 10
8.74549
 20
19.7095
 30
0.000000
  70
    32
  0
VERTEX
  8
0
  5
CC6
 10
8.74990
 20
19.7357
 30
0.000000
  70
    32
  0
VERTEX
  8
0
  5
CC7
 10
8.75427
 20
19.7620
 30
0.000000
  70
    32
  0
VERTEX
  8
0
  5
CC8
 10
8.75861
 20
19.7883
 30
0.000000
  70
    32
  0
VERTEX
  8
0
  5
CC9
 10
8.76292
 20
19.8147
 30
0.000000
  70
    32
  0
VERTEX
  8
0
  5
CCA
 10
8.76720
 20
19.8411
 30
0.000000
  70
    32
  0
VERTEX
  8
0
  5
CCB
 10
8.77144
 20
19.8677
 30
0.000000
  70
    32
  0
VERTEX
  8
0
  5
CCC
 10
8.77565
 20
19.8943
 30
0.000000
  70
    32
  0
VERTEX
  8
0
  5
CCD
 10
8.77983
 20
19.9211
 30
0.000000
  70
    32
  0
VERTEX
  8
0
  5
CCE
 10
8.78398
 20
19.9480
 30
0.000000
  70
    32
  0
VERTEX
  8
0
  5
CCF
 10
8.78809
 20
19.9750
 30
0.000000
  70
    32
  0
VERTEX
  8
0
  5
CD0
 10
8.79217
 20
20.0021
 30
0.000000
  70
    32
  0
VERTEX
  8
0
  5
CD1
 10
8.79622
 20
20.0294
 30
0.000000
  70
    32
  0
VERTEX
  8
0
  5
CD2
 10
8.80024
 20
20.0568
 30
0.000000
  70
    32
  0
VERTEX
  8
0
  5
CD3
 10
8.80423
 20
20.0845
 30
0.000000
  70
    32
  0
VERTEX
  8
0
  5
CD4
 10
8.80819
 20
20.1123
 30
0.000000
  70
    32
  0
VERTEX
  8
0
  5
CD5
 10
8.81212
 20
20.1402
 30
0.000000
  70
    32
  0
VERTEX
  8
0
  5
CD6
 10
8.81601
 20
20.1684
 30
0.000000
  70
    32
  0
VERTEX
  8
0
  5
CD7
 10
8.81988
 20
20.1968
 30
0.000000
  70
    32
  0
VERTEX
  8
0
  5
CD8
 10
8.82371
 20
20.2254
 30
0.000000
  70
    32
  0
VERTEX
  8
0
  5
CD9
 10
8.82752
 20
20.2543
 30
0.000000
  70
    32
  0
VERTEX
  8
0
  5
CDA
 10
8.83129
 20
20.2833
 30
0.000000
  70
    32
  0
VERTEX
  8
0
  5
CDB
 10
8.83504
 20
20.3127
 30
0.000000
  70
    32
  0
VERTEX
  8
0
  5
CDC
 10
8.83875
 20
20.3422
 30
0.000000
  70
    32
  0
VERTEX
  8
0
  5
CDD
 10
8.84244
 20
20.3721
 30
0.000000
  70
    32
  0
VERTEX
  8
0
  5
CDE
 10
8.84609
 20
20.4022
 30
0.000000
  70
    32
  0
VERTEX
  8
0
  5
CDF
 10
8.84972
 20
20.4326
 30
0.000000
  70
    32
  0
VERTEX
  8
0
  5
CE0
 10
8.85332
 20
20.4634
 30
0.000000
  70
    32
  0
VERTEX
  8
0
  5
CE1
 10
8.85689
 20
20.4944
 30
0.000000
  70
    32
  0
VERTEX
  8
0
  5
CE2
 10
8.86043
 20
20.5257
 30
0.000000
  70
    32
  0
VERTEX
  8
0
  5
CE3
 10
8.86394
 20
20.5574
 30
0.000000
  70
    32
  0
VERTEX
  8
0
  5
CE4
 10
8.86742
 20
20.5894
 30
0.000000
  70
    32
  0
VERTEX
  8
0
  5
CE5
 10
8.87087
 20
20.6218
 30
0.000000
  70
    32
  0
VERTEX
  8
0
  5
CE6
 10
8.87430
 20
20.6545
 30
0.000000
  70
    32
  0
VERTEX
  8
0
  5
CE7
 10
8.87769
 20
20.6876
 30
0.000000
  70
    32
  0
VERTEX
  8
0
  5
CE8
 10
8.88106
 20
20.7211
 30
0.000000
  70
    32
  0
VERTEX
  8
0
  5
CE9
 10
8.88440
 20
20.7549
 30
0.000000
  70
    32
  0
VERTEX
  8
0
  5
CEA
 10
8.88772
 20
20.7892
 30
0.000000
  70
    32
  0
VERTEX
  8
0
  5
CEB
 10
8.89100
 20
20.8239
 30
0.000000
  70
    32
  0
VERTEX
  8
0
  5
CEC
 10
8.89426
 20
20.8590
 30
0.000000
  70
    32
  0
VERTEX
  8
0
  5
CED
 10
8.89749
 20
20.8945
 30
0.000000
  70
    32
  0
VERTEX
  8
0
  5
CEE
 10
8.90070
 20
20.9304
 30
0.000000
  70
    32
  0
VERTEX
  8
0
  5
CEF
 10
8.90388
 20
20.9668
 30
0.000000
  70
    32
  0
VERTEX
  8
0
  5
CF0
 10
8.90703
 20
21.0037
 30
0.000000
  70
    32
  0
VERTEX
  8
0
  5
CF1
 10
8.91015
 20
21.0410
 30
0.000000
  70
    32
  0
VERTEX
  8
0
  5
CF2
 10
8.91325
 20
21.0788
 30
0.000000
  70
    32
  0
VERTEX
  8
0
  5
CF3
 10
8.91632
 20
21.1172
 30
0.000000
  70
    32
  0
VERTEX
  8
0
  5
CF4
 10
8.91937
 20
21.1560
 30
0.000000
  70
    32
  0
VERTEX
  8
0
  5
CF5
 10
8.92239
 20
21.1953
 30
0.000000
  70
    32
  0
VERTEX
  8
0
  5
CF6
 10
8.92538
 20
21.2351
 30
0.000000
  70
    32
  0
VERTEX
  8
0
  5
CF7
 10
8.92835
 20
21.2755
 30
0.000000
  70
    32
  0
VERTEX
  8
0
  5
CF8
 10
8.93129
 20
21.3164
 30
0.000000
  70
    32
  0
VERTEX
  8
0
  5
CF9
 10
8.93421
 20
21.3578
 30
0.000000
  70
    32
  0
VERTEX
  8
0
  5
CFA
 10
8.93710
 20
21.3998
 30
0.000000
  70
    32
  0
VERTEX
  8
0
  5
CFB
 10
8.93997
 20
21.4424
 30
0.000000
  70
    32
  0
VERTEX
  8
0
  5
CFC
 10
8.94282
 20
21.4856
 30
0.000000
  70
    32
  0
VERTEX
  8
0
  5
CFD
 10
8.94563
 20
21.5293
 30
0.000000
  70
    32
  0
VERTEX
  8
0
  5
CFE
 10
8.94843
 20
21.5737
 30
0.000000
  70
    32
  0
VERTEX
  8
0
  5
CFF
 10
8.95120
 20
21.6186
 30
0.000000
  70
    32
  0
VERTEX
  8
0
  5
D00
 10
8.95394
 20
21.6642
 30
0.000000
  70
    32
  0
VERTEX
  8
0
  5
D01
 10
8.95666
 20
21.7104
 30
0.000000
  70
    32
  0
SEQEND
  8
0
  5
D02
  0
POLYLINE
  8
0
  5
D03
  66
     1
 10
0.000000
 20
0.000000
 30
0.000000
  70
     8
  0
VERTEX
  8
0
  5
D04
 10
8.95666
 20
21.7104
 30
0.000000
  70
    32
  0
VERTEX
  8
0
  5
D05
 10
8.95936
 20
21.7570
 30
0.000000
  70
    32
  0
VERTEX
  8
0
  5
D06
 10
8.96203
 20
21.8036
 30
0.000000
  70
    32
  0
VERTEX
  8
0
  5
D07
 10
8.96468
 20
21.8501
 30
0.000000
  70
    32
  0
VERTEX
  8
0
  5
D08
 10
8.96731
 20
21.8967
 30
0.000000
  70
    32
  0
VERTEX
  8
0
  5
D09
 10
8.96991
 20
21.9433
 30
0.000000
  70
    32
  0
VERTEX
  8
0
  5
D0A
 10
8.97249
 20
21.9899
 30
0.000000
  70
    32
  0
VERTEX
  8
0
  5
D0B
 10
8.97505
 20
22.0364
 30
0.000000
  70
    32
  0
VERTEX
  8
0
  5
D0C
 10
8.97758
 20
22.0830
 30
0.000000
  70
    32
  0
VERTEX
  8
0
  5
D0D
 10
8.98009
 20
22.1296
 30
0.000000
  70
    32
  0
VERTEX
  8
0
  5
D0E
 10
8.98258
 20
22.1762
 30
0.000000
  70
    32
  0
VERTEX
  8
0
  5
D0F
 10
8.98505
 20
22.2227
 30
0.000000
  70
    32
  0
VERTEX
  8
0
  5
D10
 10
8.98749
 20
22.2693
 30
0.000000
  70
    32
  0
VERTEX
  8
0
  5
D11
 10
8.98992
 20
22.3159
 30
0.000000
  70
    32
  0
VERTEX
  8
0
  5
D12
 10
8.99232
 20
22.3625
 30
0.000000
  70
    32
  0
VERTEX
  8
0
  5
D13
 10
8.99469
 20
22.4090
 30
0.000000
  70
    32
  0
VERTEX
  8
0
  5
D14
 10
8.99705
 20
22.4556
 30
0.000000
  70
    32
  0
VERTEX
  8
0
  5
D15
 10
8.99939
 20
22.5022
 30
0.000000
  70
    32
  0
VERTEX
  8
0
  5
D16
 10
9.00170
 20
22.5488
 30
0.000000
  70
    32
  0
VERTEX
  8
0
  5
D17
 10
9.00399
 20
22.5954
 30
0.000000
  70
    32
  0
VERTEX
  8
0
  5
D18
 10
9.00627
 20
22.6420
 30
0.000000
  70
    32
  0
VERTEX
  8
0
  5
D19
 10
9.00852
 20
22.6885
 30
0.000000
  70
    32
  0
VERTEX
  8
0
  5
D1A
 10
9.01075
 20
22.7351
 30
0.000000
  70
    32
  0
VERTEX
  8
0
  5
D1B
 10
9.01296
 20
22.7817
 30
0.000000
  70
    32
  0
VERTEX
  8
0
  5
D1C
 10
9.01515
 20
22.8283
 30
0.000000
  70
    32
  0
VERTEX
  8
0
  5
D1D
 10
9.01732
 20
22.8749
 30
0.000000
  70
    32
  0
VERTEX
  8
0
  5
D1E
 10
9.01947
 20
22.9215
 30
0.000000
  70
    32
  0
VERTEX
  8
0
  5
D1F
 10
9.02160
 20
22.9680
 30
0.000000
  70
    32
  0
VERTEX
  8
0
  5
D20
 10
9.02371
 20
23.0146
 30
0.000000
  70
    32
  0
VERTEX
  8
0
  5
D21
 10
9.02580
 20
23.0612
 30
0.000000
  70
    32
  0
VERTEX
  8
0
  5
D22
 10
9.02787
 20
23.1078
 30
0.000000
  70
    32
  0
VERTEX
  8
0
  5
D23
 10
9.02992
 20
23.1544
 30
0.000000
  70
    32
  0
VERTEX
  8
0
  5
D24
 10
9.03196
 20
23.2010
 30
0.000000
  70
    32
  0
VERTEX
  8
0
  5
D25
 10
9.03397
 20
23.2476
 30
0.000000
  70
    32
  0
VERTEX
  8
0
  5
D26
 10
9.03597
 20
23.2942
 30
0.000000
  70
    32
  0
VERTEX
  8
0
  5
D27
 10
9.03795
 20
23.3408
 30
0.000000
  70
    32
  0
VERTEX
  8
0
  5
D28
 10
9.03991
 20
23.3874
 30
0.000000
  70
    32
  0
VERTEX
  8
0
  5
D29
 10
9.04185
 20
23.4340
 30
0.000000
  70
    32
  0
VERTEX
  8
0
  5
D2A
 10
9.04377
 20
23.4806
 30
0.000000
  70
    32
  0
VERTEX
  8
0
  5
D2B
 10
9.04567
 20
23.5271
 30
0.000000
  70
    32
  0
VERTEX
  8
0
  5
D2C
 10
9.04756
 20
23.5737
 30
0.000000
  70
    32
  0
VERTEX
  8
0
  5
D2D
 10
9.04943
 20
23.6203
 30
0.000000
  70
    32
  0
VERTEX
  8
0
  5
D2E
 10
9.05128
 20
23.6669
 30
0.000000
  70
    32
  0
VERTEX
  8
0
  5
D2F
 10
9.05312
 20
23.7135
 30
0.000000
  70
    32
  0
VERTEX
  8
0
  5
D30
 10
9.05493
 20
23.7601
 30
0.000000
  70
    32
  0
VERTEX
  8
0
  5
D31
 10
9.05673
 20
23.8067
 30
0.000000
  70
    32
  0
VERTEX
  8
0
  5
D32
 10
9.05852
 20
23.8533
 30
0.000000
  70
    32
  0
VERTEX
  8
0
  5
D33
 10
9.06029
 20
23.8999
 30
0.000000
  70
    32
  0
VERTEX
  8
0
  5
D34
 10
9.06204
 20
23.9465
 30
0.000000
  70
    32
  0
VERTEX
  8
0
  5
D35
 10
9.06377
 20
23.9931
 30
0.000000
  70
    32
  0
VERTEX
  8
0
  5
D36
 10
9.06549
 20
24.0397
 30
0.000000
  70
    32
  0
VERTEX
  8
0
  5
D37
 10
9.06719
 20
24.0863
 30
0.000000
  70
    32
  0
VERTEX
  8
0
  5
D38
 10
9.06888
 20
24.1329
 30
0.000000
  70
    32
  0
VERTEX
  8
0
  5
D39
 10
9.07055
 20
24.1795
 30
0.000000
  70
    32
  0
VERTEX
  8
0
  5
D3A
 10
9.07220
 20
24.2261
 30
0.000000
  70
    32
  0
VERTEX
  8
0
  5
D3B
 10
9.07384
 20
24.2727
 30
0.000000
  70
    32
  0
VERTEX
  8
0
  5
D3C
 10
9.07547
 20
24.3193
 30
0.000000
  70
    32
  0
VERTEX
  8
0
  5
D3D
 10
9.07708
 20
24.3659
 30
0.000000
  70
    32
  0
VERTEX
  8
0
  5
D3E
 10
9.07867
 20
24.4125
 30
0.000000
  70
    32
  0
VERTEX
  8
0
  5
D3F
 10
9.08025
 20
24.4591
 30
0.000000
  70
    32
  0
VERTEX
  8
0
  5
D40
 10
9.08182
 20
24.5057
 30
0.000000
  70
    32
  0
VERTEX
  8
0
  5
D41
 10
9.08337
 20
24.5523
 30
0.000000
  70
    32
  0
VERTEX
  8
0
  5
D42
 10
9.08491
 20
24.5990
 30
0.000000
  70
    32
  0
VERTEX
  8
0
  5
D43
 10
9.08643
 20
24.6456
 30
0.000000
  70
    32
  0
VERTEX
  8
0
  5
D44
 10
9.08794
 20
24.6922
 30
0.000000
  70
    32
  0
VERTEX
  8
0
  5
D45
 10
9.08943
 20
24.7388
 30
0.000000
  70
    32
  0
VERTEX
  8
0
  5
D46
 10
9.09091
 20
24.7854
 30
0.000000
  70
    32
  0
VERTEX
  8
0
  5
D47
 10
9.09238
 20
24.8320
 30
0.000000
  70
    32
  0
VERTEX
  8
0
  5
D48
 10
9.09384
 20
24.8786
 30
0.000000
  70
    32
  0
VERTEX
  8
0
  5
D49
 10
9.09528
 20
24.9252
 30
0.000000
  70
    32
  0
VERTEX
  8
0
  5
D4A
 10
9.09671
 20
24.9718
 30
0.000000
  70
    32
  0
VERTEX
  8
0
  5
D4B
 10
9.09812
 20
25.0184
 30
0.000000
  70
    32
  0
VERTEX
  8
0
  5
D4C
 10
9.09953
 20
25.0650
 30
0.000000
  70
    32
  0
VERTEX
  8
0
  5
D4D
 10
9.10092
 20
25.1116
 30
0.000000
  70
    32
  0
VERTEX
  8
0
  5
D4E
 10
9.10229
 20
25.1582
 30
0.000000
  70
    32
  0
VERTEX
  8
0
  5
D4F
 10
9.10366
 20
25.2048
 30
0.000000
  70
    32
  0
VERTEX
  8
0
  5
D50
 10
9.10501
 20
25.2514
 30
0.000000
  70
    32
  0
VERTEX
  8
0
  5
D51
 10
9.10636
 20
25.2981
 30
0.000000
  70
    32
  0
VERTEX
  8
0
  5
D52
 10
9.10769
 20
25.3447
 30
0.000000
  70
    32
  0
VERTEX
  8
0
  5
D53
 10
9.10901
 20
25.3913
 30
0.000000
  70
    32
  0
VERTEX
  8
0
  5
D54
 10
9.11031
 20
25.4379
 30
0.000000
  70
    32
  0
VERTEX
  8
0
  5
D55
 10
9.11161
 20
25.4845
 30
0.000000
  70
    32
  0
VERTEX
  8
0
  5
D56
 10
9.11290
 20
25.5311
 30
0.000000
  70
    32
  0
VERTEX
  8
0
  5
D57
 10
9.11417
 20
25.5777
 30
0.000000
  70
    32
  0
VERTEX
  8
0
  5
D58
 10
9.11543
 20
25.6243
 30
0.000000
  70
    32
  0
VERTEX
  8
0
  5
D59
 10
9.11669
 20
25.6709
 30
0.000000
  70
    32
  0
VERTEX
  8
0
  5
D5A
 10
9.11793
 20
25.7175
 30
0.000000
  70
    32
  0
VERTEX
  8
0
  5
D5B
 10
9.11916
 20
25.7642
 30
0.000000
  70
    32
  0
VERTEX
  8
0
  5
D5C
 10
9.12038
 20
25.8108
 30
0.000000
  70
    32
  0
VERTEX
  8
0
  5
D5D
 10
9.12160
 20
25.8574
 30
0.000000
  70
    32
  0
VERTEX
  8
0
  5
D5E
 10
9.12280
 20
25.9040
 30
0.000000
  70
    32
  0
VERTEX
  8
0
  5
D5F
 10
9.12399
 20
25.9506
 30
0.000000
  70
    32
  0
VERTEX
  8
0
  5
D60
 10
9.12517
 20
25.9972
 30
0.000000
  70
    32
  0
VERTEX
  8
0
  5
D61
 10
9.12635
 20
26.0438
 30
0.000000
  70
    32
  0
VERTEX
  8
0
  5
D62
 10
9.12751
 20
26.0904
 30
0.000000
  70
    32
  0
VERTEX
  8
0
  5
D63
 10
9.12867
 20
26.1370
 30
0.000000
  70
    32
  0
VERTEX
  8
0
  5
D64
 10
9.12982
 20
26.1837
 30
0.000000
  70
    32
  0
VERTEX
  8
0
  5
D65
 10
9.13096
 20
26.2303
 30
0.000000
  70
    32
  0
VERTEX
  8
0
  5
D66
 10
9.13209
 20
26.2769
 30
0.000000
  70
    32
  0
VERTEX
  8
0
  5
D67
 10
9.13321
 20
26.3235
 30
0.000000
  70
    32
  0
VERTEX
  8
0
  5
D68
 10
9.13432
 20
26.3701
 30
0.000000
  70
    32
  0
VERTEX
  8
0
  5
D69
 10
9.13543
 20
26.4167
 30
0.000000
  70
    32
  0
VERTEX
  8
0
  5
D6A
 10
9.13652
 20
26.4633
 30
0.000000
  70
    32
  0
VERTEX
  8
0
  5
D6B
 10
9.13761
 20
26.5099
 30
0.000000
  70
    32
  0
VERTEX
  8
0
  5
D6C
 10
9.13869
 20
26.5566
 30
0.000000
  70
    32
  0
VERTEX
  8
0
  5
D6D
 10
9.13977
 20
26.6032
 30
0.000000
  70
    32
  0
VERTEX
  8
0
  5
D6E
 10
9.14084
 20
26.6498
 30
0.000000
  70
    32
  0
VERTEX
  8
0
  5
D6F
 10
9.14190
 20
26.6964
 30
0.000000
  70
    32
  0
VERTEX
  8
0
  5
D70
 10
9.14295
 20
26.7430
 30
0.000000
  70
    32
  0
VERTEX
  8
0
  5
D71
 10
9.14400
 20
26.7896
 30
0.000000
  70
    32
  0
VERTEX
  8
0
  5
D72
 10
9.14504
 20
26.8362
 30
0.000000
  70
    32
  0
VERTEX
  8
0
  5
D73
 10
9.14607
 20
26.8828
 30
0.000000
  70
    32
  0
VERTEX
  8
0
  5
D74
 10
9.14710
 20
26.9294
 30
0.000000
  70
    32
  0
VERTEX
  8
0
  5
D75
 10
9.14812
 20
26.9761
 30
0.000000
  70
    32
  0
VERTEX
  8
0
  5
D76
 10
9.14914
 20
27.0227
 30
0.000000
  70
    32
  0
VERTEX
  8
0
  5
D77
 10
9.15014
 20
27.0693
 30
0.000000
  70
    32
  0
VERTEX
  8
0
  5
D78
 10
9.15115
 20
27.1159
 30
0.000000
  70
    32
  0
VERTEX
  8
0
  5
D79
 10
9.15215
 20
27.1625
 30
0.000000
  70
    32
  0
VERTEX
  8
0
  5
D7A
 10
9.15314
 20
27.2091
 30
0.000000
  70
    32
  0
VERTEX
  8
0
  5
D7B
 10
9.15413
 20
27.2557
 30
0.000000
  70
    32
  0
VERTEX
  8
0
  5
D7C
 10
9.15511
 20
27.3023
 30
0.000000
  70
    32
  0
VERTEX
  8
0
  5
D7D
 10
9.15609
 20
27.3489
 30
0.000000
  70
    32
  0
VERTEX
  8
0
  5
D7E
 10
9.15706
 20
27.3956
 30
0.000000
  70
    32
  0
VERTEX
  8
0
  5
D7F
 10
9.15803
 20
27.4422
 30
0.000000
  70
    32
  0
VERTEX
  8
0
  5
D80
 10
9.15900
 20
27.4888
 30
0.000000
  70
    32
  0
VERTEX
  8
0
  5
D81
 10
9.15996
 20
27.5354
 30
0.000000
  70
    32
  0
VERTEX
  8
0
  5
D82
 10
9.16091
 20
27.5820
 30
0.000000
  70
    32
  0
VERTEX
  8
0
  5
D83
 10
9.16186
 20
27.6286
 30
0.000000
  70
    32
  0
SEQEND
  8
0
  5
D84
  0
POLYLINE
  8
0
  5
D85
  66
     1
 10
0.000000
 20
0.000000
 30
0.000000
  70
     8
  0
VERTEX
  8
0
  5
D86
 10
9.16186
 20
27.6286
 30
0.000000
  70
    32
  0
VERTEX
  8
0
  5
D87
 10
9.16202
 20
27.6359
 30
0.000000
  70
    32
  0
VERTEX
  8
0
  5
D88
 10
9.16218
 20
27.6432
 30
0.000000
  70
    32
  0
VERTEX
  8
0
  5
D89
 10
9.16234
 20
27.6505
 30
0.000000
  70
    32
  0
VERTEX
  8
0
  5
D8A
 10
9.16249
 20
27.6578
 30
0.000000
  70
    32
  0
VERTEX
  8
0
  5
D8B
 10
9.16265
 20
27.6651
 30
0.000000
  70
    32
  0
VERTEX
  8
0
  5
D8C
 10
9.16281
 20
27.6723
 30
0.000000
  70
    32
  0
VERTEX
  8
0
  5
D8D
 10
9.16296
 20
27.6796
 30
0.000000
  70
    32
  0
VERTEX
  8
0
  5
D8E
 10
9.16312
 20
27.6869
 30
0.000000
  70
    32
  0
VERTEX
  8
0
  5
D8F
 10
9.16328
 20
27.6942
 30
0.000000
  70
    32
  0
VERTEX
  8
0
  5
D90
 10
9.16343
 20
27.7015
 30
0.000000
  70
    32
  0
VERTEX
  8
0
  5
D91
 10
9.16359
 20
27.7088
 30
0.000000
  70
    32
  0
VERTEX
  8
0
  5
D92
 10
9.16374
 20
27.7161
 30
0.000000
  70
    32
  0
VERTEX
  8
0
  5
D93
 10
9.16390
 20
27.7234
 30
0.000000
  70
    32
  0
VERTEX
  8
0
  5
D94
 10
9.16405
 20
27.7307
 30
0.000000
  70
    32
  0
VERTEX
  8
0
  5
D95
 10
9.16420
 20
27.7379
 30
0.000000
  70
    32
  0
VERTEX
  8
0
  5
D96
 10
9.16436
 20
27.7452
 30
0.000000
  70
    32
  0
VERTEX
  8
0
  5
D97
 10
9.16451
 20
27.7525
 30
0.000000
  70
    32
  0
VERTEX
  8
0
  5
D98
 10
9.16466
 20
27.7598
 30
0.000000
  70
    32
  0
VERTEX
  8
0
  5
D99
 10
9.16482
 20
27.7671
 30
0.000000
  70
    32
  0
VERTEX
  8
0
  5
D9A
 10
9.16497
 20
27.7744
 30
0.000000
  70
    32
  0
VERTEX
  8
0
  5
D9B
 10
9.16512
 20
27.7817
 30
0.000000
  70
    32
  0
VERTEX
  8
0
  5
D9C
 10
9.16527
 20
27.7890
 30
0.000000
  70
    32
  0
VERTEX
  8
0
  5
D9D
 10
9.16542
 20
27.7963
 30
0.000000
  70
    32
  0
VERTEX
  8
0
  5
D9E
 10
9.16558
 20
27.8035
 30
0.000000
  70
    32
  0
VERTEX
  8
0
  5
D9F
 10
9.16573
 20
27.8108
 30
0.000000
  70
    32
  0
VERTEX
  8
0
  5
DA0
 10
9.16588
 20
27.8181
 30
0.000000
  70
    32
  0
VERTEX
  8
0
  5
DA1
 10
9.16603
 20
27.8254
 30
0.000000
  70
    32
  0
VERTEX
  8
0
  5
DA2
 10
9.16618
 20
27.8327
 30
0.000000
  70
    32
  0
VERTEX
  8
0
  5
DA3
 10
9.16633
 20
27.8400
 30
0.000000
  70
    32
  0
VERTEX
  8
0
  5
DA4
 10
9.16648
 20
27.8473
 30
0.000000
  70
    32
  0
VERTEX
  8
0
  5
DA5
 10
9.16663
 20
27.8546
 30
0.000000
  70
    32
  0
VERTEX
  8
0
  5
DA6
 10
9.16678
 20
27.8618
 30
0.000000
  70
    32
  0
VERTEX
  8
0
  5
DA7
 10
9.16693
 20
27.8691
 30
0.000000
  70
    32
  0
VERTEX
  8
0
  5
DA8
 10
9.16708
 20
27.8764
 30
0.000000
  70
    32
  0
VERTEX
  8
0
  5
DA9
 10
9.16722
 20
27.8837
 30
0.000000
  70
    32
  0
VERTEX
  8
0
  5
DAA
 10
9.16737
 20
27.8910
 30
0.000000
  70
    32
  0
VERTEX
  8
0
  5
DAB
 10
9.16752
 20
27.8983
 30
0.000000
  70
    32
  0
VERTEX
  8
0
  5
DAC
 10
9.16767
 20
27.9056
 30
0.000000
  70
    32
  0
VERTEX
  8
0
  5
DAD
 10
9.16782
 20
27.9129
 30
0.000000
  70
    32
  0
VERTEX
  8
0
  5
DAE
 10
9.16796
 20
27.9201
 30
0.000000
  70
    32
  0
VERTEX
  8
0
  5
DAF
 10
9.16811
 20
27.9274
 30
0.000000
  70
    32
  0
VERTEX
  8
0
  5
DB0
 10
9.16826
 20
27.9347
 30
0.000000
  70
    32
  0
VERTEX
  8
0
  5
DB1
 10
9.16840
 20
27.9420
 30
0.000000
  70
    32
  0
VERTEX
  8
0
  5
DB2
 10
9.16855
 20
27.9493
 30
0.000000
  70
    32
  0
VERTEX
  8
0
  5
DB3
 10
9.16870
 20
27.9566
 30
0.000000
  70
    32
  0
VERTEX
  8
0
  5
DB4
 10
9.16884
 20
27.9639
 30
0.000000
  70
    32
  0
VERTEX
  8
0
  5
DB5
 10
9.16899
 20
27.9712
 30
0.000000
  70
    32
  0
VERTEX
  8
0
  5
DB6
 10
9.16914
 20
27.9784
 30
0.000000
  70
    32
  0
VERTEX
  8
0
  5
DB7
 10
9.16928
 20
27.9857
 30
0.000000
  70
    32
  0
VERTEX
  8
0
  5
DB8
 10
9.16943
 20
27.9930
 30
0.000000
  70
    32
  0
VERTEX
  8
0
  5
DB9
 10
9.16957
 20
28.0003
 30
0.000000
  70
    32
  0
VERTEX
  8
0
  5
DBA
 10
9.16972
 20
28.0076
 30
0.000000
  70
    32
  0
VERTEX
  8
0
  5
DBB
 10
9.16986
 20
28.0149
 30
0.000000
  70
    32
  0
VERTEX
  8
0
  5
DBC
 10
9.17001
 20
28.0222
 30
0.000000
  70
    32
  0
VERTEX
  8
0
  5
DBD
 10
9.17015
 20
28.0295
 30
0.000000
  70
    32
  0
VERTEX
  8
0
  5
DBE
 10
9.17029
 20
28.0367
 30
0.000000
  70
    32
  0
VERTEX
  8
0
  5
DBF
 10
9.17044
 20
28.0440
 30
0.000000
  70
    32
  0
VERTEX
  8
0
  5
DC0
 10
9.17058
 20
28.0513
 30
0.000000
  70
    32
  0
VERTEX
  8
0
  5
DC1
 10
9.17073
 20
28.0586
 30
0.000000
  70
    32
  0
VERTEX
  8
0
  5
DC2
 10
9.17087
 20
28.0659
 30
0.000000
  70
    32
  0
VERTEX
  8
0
  5
DC3
 10
9.17101
 20
28.0732
 30
0.000000
  70
    32
  0
VERTEX
  8
0
  5
DC4
 10
9.17115
 20
28.0805
 30
0.000000
  70
    32
  0
VERTEX
  8
0
  5
DC5
 10
9.17130
 20
28.0877
 30
0.000000
  70
    32
  0
VERTEX
  8
0
  5
DC6
 10
9.17144
 20
28.0950
 30
0.000000
  70
    32
  0
VERTEX
  8
0
  5
DC7
 10
9.17158
 20
28.1023
 30
0.000000
  70
    32
  0
VERTEX
  8
0
  5
DC8
 10
9.17173
 20
28.1096
 30
0.000000
  70
    32
  0
VERTEX
  8
0
  5
DC9
 10
9.17187
 20
28.1169
 30
0.000000
  70
    32
  0
VERTEX
  8
0
  5
DCA
 10
9.17201
 20
28.1242
 30
0.000000
  70
    32
  0
VERTEX
  8
0
  5
DCB
 10
9.17215
 20
28.1315
 30
0.000000
  70
    32
  0
VERTEX
  8
0
  5
DCC
 10
9.17229
 20
28.1388
 30
0.000000
  70
    32
  0
VERTEX
  8
0
  5
DCD
 10
9.17244
 20
28.1460
 30
0.000000
  70
    32
  0
VERTEX
  8
0
  5
DCE
 10
9.17258
 20
28.1533
 30
0.000000
  70
    32
  0
VERTEX
  8
0
  5
DCF
 10
9.17272
 20
28.1606
 30
0.000000
  70
    32
  0
VERTEX
  8
0
  5
DD0
 10
9.17286
 20
28.1679
 30
0.000000
  70
    32
  0
VERTEX
  8
0
  5
DD1
 10
9.17300
 20
28.1752
 30
0.000000
  70
    32
  0
VERTEX
  8
0
  5
DD2
 10
9.17314
 20
28.1825
 30
0.000000
  70
    32
  0
VERTEX
  8
0
  5
DD3
 10
9.17328
 20
28.1898
 30
0.000000
  70
    32
  0
VERTEX
  8
0
  5
DD4
 10
9.17342
 20
28.1970
 30
0.000000
  70
    32
  0
VERTEX
  8
0
  5
DD5
 10
9.17356
 20
28.2043
 30
0.000000
  70
    32
  0
VERTEX
  8
0
  5
DD6
 10
9.17370
 20
28.2116
 30
0.000000
  70
    32
  0
VERTEX
  8
0
  5
DD7
 10
9.17384
 20
28.2189
 30
0.000000
  70
    32
  0
VERTEX
  8
0
  5
DD8
 10
9.17398
 20
28.2262
 30
0.000000
  70
    32
  0
VERTEX
  8
0
  5
DD9
 10
9.17412
 20
28.2335
 30
0.000000
  70
    32
  0
VERTEX
  8
0
  5
DDA
 10
9.17426
 20
28.2408
 30
0.000000
  70
    32
  0
VERTEX
  8
0
  5
DDB
 10
9.17440
 20
28.2480
 30
0.000000
  70
    32
  0
VERTEX
  8
0
  5
DDC
 10
9.17454
 20
28.2553
 30
0.000000
  70
    32
  0
VERTEX
  8
0
  5
DDD
 10
9.17468
 20
28.2626
 30
0.000000
  70
    32
  0
VERTEX
  8
0
  5
DDE
 10
9.17482
 20
28.2699
 30
0.000000
  70
    32
  0
VERTEX
  8
0
  5
DDF
 10
9.17496
 20
28.2772
 30
0.000000
  70
    32
  0
VERTEX
  8
0
  5
DE0
 10
9.17510
 20
28.2845
 30
0.000000
  70
    32
  0
VERTEX
  8
0
  5
DE1
 10
9.17524
 20
28.2918
 30
0.000000
  70
    32
  0
VERTEX
  8
0
  5
DE2
 10
9.17538
 20
28.2990
 30
0.000000
  70
    32
  0
VERTEX
  8
0
  5
DE3
 10
9.17552
 20
28.3063
 30
0.000000
  70
    32
  0
VERTEX
  8
0
  5
DE4
 10
9.17566
 20
28.3136
 30
0.000000
  70
    32
  0
VERTEX
  8
0
  5
DE5
 10
9.17580
 20
28.3209
 30
0.000000
  70
    32
  0
VERTEX
  8
0
  5
DE6
 10
9.17594
 20
28.3282
 30
0.000000
  70
    32
  0
VERTEX
  8
0
  5
DE7
 10
9.17608
 20
28.3355
 30
0.000000
  70
    32
  0
VERTEX
  8
0
  5
DE8
 10
9.17621
 20
28.3428
 30
0.000000
  70
    32
  0
VERTEX
  8
0
  5
DE9
 10
9.17635
 20
28.3500
 30
0.000000
  70
    32
  0
VERTEX
  8
0
  5
DEA
 10
9.17649
 20
28.3573
 30
0.000000
  70
    32
  0
VERTEX
  8
0
  5
DEB
 10
9.17663
 20
28.3646
 30
0.000000
  70
    32
  0
VERTEX
  8
0
  5
DEC
 10
9.17677
 20
28.3719
 30
0.000000
  70
    32
  0
VERTEX
  8
0
  5
DED
 10
9.17691
 20
28.3792
 30
0.000000
  70
    32
  0
VERTEX
  8
0
  5
DEE
 10
9.17704
 20
28.3865
 30
0.000000
  70
    32
  0
VERTEX
  8
0
  5
DEF
 10
9.17718
 20
28.3938
 30
0.000000
  70
    32
  0
VERTEX
  8
0
  5
DF0
 10
9.17732
 20
28.4010
 30
0.000000
  70
    32
  0
VERTEX
  8
0
  5
DF1
 10
9.17746
 20
28.4083
 30
0.000000
  70
    32
  0
VERTEX
  8
0
  5
DF2
 10
9.17760
 20
28.4156
 30
0.000000
  70
    32
  0
VERTEX
  8
0
  5
DF3
 10
9.17774
 20
28.4229
 30
0.000000
  70
    32
  0
VERTEX
  8
0
  5
DF4
 10
9.17787
 20
28.4302
 30
0.000000
  70
    32
  0
VERTEX
  8
0
  5
DF5
 10
9.17801
 20
28.4375
 30
0.000000
  70
    32
  0
VERTEX
  8
0
  5
DF6
 10
9.17815
 20
28.4448
 30
0.000000
  70
    32
  0
VERTEX
  8
0
  5
DF7
 10
9.17829
 20
28.4520
 30
0.000000
  70
    32
  0
VERTEX
  8
0
  5
DF8
 10
9.17842
 20
28.4593
 30
0.000000
  70
    32
  0
VERTEX
  8
0
  5
DF9
 10
9.17856
 20
28.4666
 30
0.000000
  70
    32
  0
VERTEX
  8
0
  5
DFA
 10
9.17870
 20
28.4739
 30
0.000000
  70
    32
  0
VERTEX
  8
0
  5
DFB
 10
9.17884
 20
28.4812
 30
0.000000
  70
    32
  0
VERTEX
  8
0
  5
DFC
 10
9.17898
 20
28.4885
 30
0.000000
  70
    32
  0
VERTEX
  8
0
  5
DFD
 10
9.17911
 20
28.4958
 30
0.000000
  70
    32
  0
VERTEX
  8
0
  5
DFE
 10
9.17925
 20
28.5030
 30
0.000000
  70
    32
  0
VERTEX
  8
0
  5
DFF
 10
9.17939
 20
28.5103
 30
0.000000
  70
    32
  0
VERTEX
  8
0
  5
E00
 10
9.17953
 20
28.5176
 30
0.000000
  70
    32
  0
VERTEX
  8
0
  5
E01
 10
9.17966
 20
28.5249
 30
0.000000
  70
    32
  0
VERTEX
  8
0
  5
E02
 10
9.17980
 20
28.5322
 30
0.000000
  70
    32
  0
VERTEX
  8
0
  5
E03
 10
9.17994
 20
28.5395
 30
0.000000
  70
    32
  0
VERTEX
  8
0
  5
E04
 10
9.18008
 20
28.5468
 30
0.000000
  70
    32
  0
VERTEX
  8
0
  5
E05
 10
9.18021
 20
28.5540
 30
0.000000
  70
    32
  0
SEQEND
  8
0
  5
E06
  0
POLYLINE
  8
0
  5
E07
  66
     1
 10
0.000000
 20
0.000000
 30
0.000000
  70
     8
  0
VERTEX
  8
0
  5
E08
 10
1.54156
 20
16.4777
 30
0.000000
  70
    32
  0
VERTEX
  8
0
  5
E09
 10
1.55214
 20
16.4439
 30
0.000000
  70
    32
  0
VERTEX
  8
0
  5
E0A
 10
1.56279
 20
16.4097
 30
0.000000
  70
    32
  0
VERTEX
  8
0
  5
E0B
 10
1.57353
 20
16.3751
 30
0.000000
  70
    32
  0
VERTEX
  8
0
  5
E0C
 10
1.58434
 20
16.3401
 30
0.000000
  70
    32
  0
VERTEX
  8
0
  5
E0D
 10
1.59523
 20
16.3047
 30
0.000000
  70
    32
  0
VERTEX
  8
0
  5
E0E
 10
1.60618
 20
16.2689
 30
0.000000
  70
    32
  0
VERTEX
  8
0
  5
E0F
 10
1.61721
 20
16.2326
 30
0.000000
  70
    32
  0
VERTEX
  8
0
  5
E10
 10
1.62830
 20
16.1960
 30
0.000000
  70
    32
  0
VERTEX
  8
0
  5
E11
 10
1.63946
 20
16.1590
 30
0.000000
  70
    32
  0
VERTEX
  8
0
  5
E12
 10
1.65068
 20
16.1216
 30
0.000000
  70
    32
  0
VERTEX
  8
0
  5
E13
 10
1.66195
 20
16.0838
 30
0.000000
  70
    32
  0
VERTEX
  8
0
  5
E14
 10
1.67328
 20
16.0456
 30
0.000000
  70
    32
  0
VERTEX
  8
0
  5
E15
 10
1.68467
 20
16.0070
 30
0.000000
  70
    32
  0
VERTEX
  8
0
  5
E16
 10
1.69610
 20
15.9681
 30
0.000000
  70
    32
  0
VERTEX
  8
0
  5
E17
 10
1.70758
 20
15.9288
 30
0.000000
  70
    32
  0
VERTEX
  8
0
  5
E18
 10
1.71911
 20
15.8891
 30
0.000000
  70
    32
  0
VERTEX
  8
0
  5
E19
 10
1.73068
 20
15.8490
 30
0.000000
  70
    32
  0
VERTEX
  8
0
  5
E1A
 10
1.74229
 20
15.8086
 30
0.000000
  70
    32
  0
VERTEX
  8
0
  5
E1B
 10
1.75393
 20
15.7678
 30
0.000000
  70
    32
  0
VERTEX
  8
0
  5
E1C
 10
1.76561
 20
15.7266
 30
0.000000
  70
    32
  0
VERTEX
  8
0
  5
E1D
 10
1.77732
 20
15.6851
 30
0.000000
  70
    32
  0
VERTEX
  8
0
  5
E1E
 10
1.78907
 20
15.6432
 30
0.000000
  70
    32
  0
VERTEX
  8
0
  5
E1F
 10
1.80083
 20
15.6010
 30
0.000000
  70
    32
  0
VERTEX
  8
0
  5
E20
 10
1.81262
 20
15.5584
 30
0.000000
  70
    32
  0
VERTEX
  8
0
  5
E21
 10
1.82444
 20
15.5155
 30
0.000000
  70
    32
  0
VERTEX
  8
0
  5
E22
 10
1.83627
 20
15.4723
 30
0.000000
  70
    32
  0
VERTEX
  8
0
  5
E23
 10
1.84812
 20
15.4287
 30
0.000000
  70
    32
  0
VERTEX
  8
0
  5
E24
 10
1.85998
 20
15.3847
 30
0.000000
  70
    32
  0
VERTEX
  8
0
  5
E25
 10
1.87185
 20
15.3405
 30
0.000000
  70
    32
  0
VERTEX
  8
0
  5
E26
 10
1.88373
 20
15.2959
 30
0.000000
  70
    32
  0
VERTEX
  8
0
  5
E27
 10
1.89562
 20
15.2510
 30
0.000000
  70
    32
  0
VERTEX
  8
0
  5
E28
 10
1.90750
 20
15.2057
 30
0.000000
  70
    32
  0
VERTEX
  8
0
  5
E29
 10
1.91939
 20
15.1601
 30
0.000000
  70
    32
  0
VERTEX
  8
0
  5
E2A
 10
1.93128
 20
15.1142
 30
0.000000
  70
    32
  0
VERTEX
  8
0
  5
E2B
 10
1.94316
 20
15.0680
 30
0.000000
  70
    32
  0
VERTEX
  8
0
  5
E2C
 10
1.95503
 20
15.0215
 30
0.000000
  70
    32
  0
VERTEX
  8
0
  5
E2D
 10
1.96690
 20
14.9747
 30
0.000000
  70
    32
  0
VERTEX
  8
0
  5
E2E
 10
1.97875
 20
14.9276
 30
0.000000
  70
    32
  0
VERTEX
  8
0
  5
E2F
 10
1.99058
 20
14.8801
 30
0.000000
  70
    32
  0
VERTEX
  8
0
  5
E30
 10
2.00239
 20
14.8324
 30
0.000000
  70
    32
  0
VERTEX
  8
0
  5
E31
 10
2.01419
 20
14.7843
 30
0.000000
  70
    32
  0
VERTEX
  8
0
  5
E32
 10
2.02596
 20
14.7360
 30
0.000000
  70
    32
  0
VERTEX
  8
0
  5
E33
 10
2.03771
 20
14.6874
 30
0.000000
  70
    32
  0
VERTEX
  8
0
  5
E34
 10
2.04942
 20
14.6385
 30
0.000000
  70
    32
  0
VERTEX
  8
0
  5
E35
 10
2.06111
 20
14.5893
 30
0.000000
  70
    32
  0
VERTEX
  8
0
  5
E36
 10
2.07276
 20
14.5398
 30
0.000000
  70
    32
  0
VERTEX
  8
0
  5
E37
 10
2.08437
 20
14.4900
 30
0.000000
  70
    32
  0
VERTEX
  8
0
  5
E38
 10
2.09595
 20
14.4400
 30
0.000000
  70
    32
  0
VERTEX
  8
0
  5
E39
 10
2.10748
 20
14.3897
 30
0.000000
  70
    32
  0
VERTEX
  8
0
  5
E3A
 10
2.11897
 20
14.3391
 30
0.000000
  70
    32
  0
VERTEX
  8
0
  5
E3B
 10
2.13041
 20
14.2883
 30
0.000000
  70
    32
  0
VERTEX
  8
0
  5
E3C
 10
2.14180
 20
14.2371
 30
0.000000
  70
    32
  0
VERTEX
  8
0
  5
E3D
 10
2.15314
 20
14.1858
 30
0.000000
  70
    32
  0
VERTEX
  8
0
  5
E3E
 10
2.16442
 20
14.1341
 30
0.000000
  70
    32
  0
VERTEX
  8
0
  5
E3F
 10
2.17564
 20
14.0822
 30
0.000000
  70
    32
  0
VERTEX
  8
0
  5
E40
 10
2.18681
 20
14.0301
 30
0.000000
  70
    32
  0
VERTEX
  8
0
  5
E41
 10
2.19791
 20
13.9777
 30
0.000000
  70
    32
  0
VERTEX
  8
0
  5
E42
 10
2.20894
 20
13.9251
 30
0.000000
  70
    32
  0
VERTEX
  8
0
  5
E43
 10
2.21991
 20
13.8722
 30
0.000000
  70
    32
  0
VERTEX
  8
0
  5
E44
 10
2.23081
 20
13.8191
 30
0.000000
  70
    32
  0
VERTEX
  8
0
  5
E45
 10
2.24163
 20
13.7657
 30
0.000000
  70
    32
  0
VERTEX
  8
0
  5
E46
 10
2.25237
 20
13.7121
 30
0.000000
  70
    32
  0
VERTEX
  8
0
  5
E47
 10
2.26304
 20
13.6583
 30
0.000000
  70
    32
  0
VERTEX
  8
0
  5
E48
 10
2.27363
 20
13.6042
 30
0.000000
  70
    32
  0
VERTEX
  8
0
  5
E49
 10
2.28413
 20
13.5500
 30
0.000000
  70
    32
  0
VERTEX
  8
0
  5
E4A
 10
2.29454
 20
13.4955
 30
0.000000
  70
    32
  0
VERTEX
  8
0
  5
E4B
 10
2.30487
 20
13.4407
 30
0.000000
  70
    32
  0
VERTEX
  8
0
  5
E4C
 10
2.31510
 20
13.3858
 30
0.000000
  70
    32
  0
VERTEX
  8
0
  5
E4D
 10
2.32524
 20
13.3307
 30
0.000000
  70
    32
  0
VERTEX
  8
0
  5
E4E
 10
2.33528
 20
13.2753
 30
0.000000
  70
    32
  0
VERTEX
  8
0
  5
E4F
 10
2.34522
 20
13.2197
 30
0.000000
  70
    32
  0
VERTEX
  8
0
  5
E50
 10
2.35505
 20
13.1640
 30
0.000000
  70
    32
  0
VERTEX
  8
0
  5
E51
 10
2.36479
 20
13.1080
 30
0.000000
  70
    32
  0
VERTEX
  8
0
  5
E52
 10
2.37441
 20
13.0518
 30
0.000000
  70
    32
  0
VERTEX
  8
0
  5
E53
 10
2.38392
 20
12.9954
 30
0.000000
  70
    32
  0
VERTEX
  8
0
  5
E54
 10
2.39332
 20
12.9389
 30
0.000000
  70
    32
  0
VERTEX
  8
0
  5
E55
 10
2.40261
 20
12.8821
 30
0.000000
  70
    32
  0
VERTEX
  8
0
  5
E56
 10
2.41177
 20
12.8252
 30
0.000000
  70
    32
  0
VERTEX
  8
0
  5
E57
 10
2.42082
 20
12.7681
 30
0.000000
  70
    32
  0
VERTEX
  8
0
  5
E58
 10
2.42974
 20
12.7108
 30
0.000000
  70
    32
  0
VERTEX
  8
0
  5
E59
 10
2.43853
 20
12.6533
 30
0.000000
  70
    32
  0
VERTEX
  8
0
  5
E5A
 10
2.44720
 20
12.5956
 30
0.000000
  70
    32
  0
VERTEX
  8
0
  5
E5B
 10
2.45573
 20
12.5378
 30
0.000000
  70
    32
  0
VERTEX
  8
0
  5
E5C
 10
2.46413
 20
12.4798
 30
0.000000
  70
    32
  0
VERTEX
  8
0
  5
E5D
 10
2.47239
 20
12.4217
 30
0.000000
  70
    32
  0
VERTEX
  8
0
  5
E5E
 10
2.48052
 20
12.3634
 30
0.000000
  70
    32
  0
VERTEX
  8
0
  5
E5F
 10
2.48850
 20
12.3049
 30
0.000000
  70
    32
  0
VERTEX
  8
0
  5
E60
 10
2.49633
 20
12.2462
 30
0.000000
  70
    32
  0
VERTEX
  8
0
  5
E61
 10
2.50402
 20
12.1875
 30
0.000000
  70
    32
  0
VERTEX
  8
0
  5
E62
 10
2.51156
 20
12.1285
 30
0.000000
  70
    32
  0
VERTEX
  8
0
  5
E63
 10
2.51894
 20
12.0694
 30
0.000000
  70
    32
  0
VERTEX
  8
0
  5
E64
 10
2.52617
 20
12.0102
 30
0.000000
  70
    32
  0
VERTEX
  8
0
  5
E65
 10
2.53324
 20
11.9508
 30
0.000000
  70
    32
  0
VERTEX
  8
0
  5
E66
 10
2.54015
 20
11.8913
 30
0.000000
  70
    32
  0
VERTEX
  8
0
  5
E67
 10
2.54690
 20
11.8317
 30
0.000000
  70
    32
  0
VERTEX
  8
0
  5
E68
 10
2.55348
 20
11.7719
 30
0.000000
  70
    32
  0
VERTEX
  8
0
  5
E69
 10
2.55989
 20
11.7120
 30
0.000000
  70
    32
  0
VERTEX
  8
0
  5
E6A
 10
2.56613
 20
11.6520
 30
0.000000
  70
    32
  0
VERTEX
  8
0
  5
E6B
 10
2.57220
 20
11.5918
 30
0.000000
  70
    32
  0
VERTEX
  8
0
  5
E6C
 10
2.57809
 20
11.5315
 30
0.000000
  70
    32
  0
VERTEX
  8
0
  5
E6D
 10
2.58380
 20
11.4711
 30
0.000000
  70
    32
  0
VERTEX
  8
0
  5
E6E
 10
2.58933
 20
11.4106
 30
0.000000
  70
    32
  0
VERTEX
  8
0
  5
E6F
 10
2.59467
 20
11.3500
 30
0.000000
  70
    32
  0
VERTEX
  8
0
  5
E70
 10
2.59983
 20
11.2893
 30
0.000000
  70
    32
  0
VERTEX
  8
0
  5
E71
 10
2.60480
 20
11.2285
 30
0.000000
  70
    32
  0
VERTEX
  8
0
  5
E72
 10
2.60957
 20
11.1675
 30
0.000000
  70
    32
  0
VERTEX
  8
0
  5
E73
 10
2.61415
 20
11.1065
 30
0.000000
  70
    32
  0
VERTEX
  8
0
  5
E74
 10
2.61853
 20
11.0454
 30
0.000000
  70
    32
  0
VERTEX
  8
0
  5
E75
 10
2.62272
 20
10.9841
 30
0.000000
  70
    32
  0
VERTEX
  8
0
  5
E76
 10
2.62669
 20
10.9228
 30
0.000000
  70
    32
  0
VERTEX
  8
0
  5
E77
 10
2.63047
 20
10.8614
 30
0.000000
  70
    32
  0
VERTEX
  8
0
  5
E78
 10
2.63403
 20
10.8000
 30
0.000000
  70
    32
  0
VERTEX
  8
0
  5
E79
 10
2.63739
 20
10.7384
 30
0.000000
  70
    32
  0
VERTEX
  8
0
  5
E7A
 10
2.64053
 20
10.6768
 30
0.000000
  70
    32
  0
VERTEX
  8
0
  5
E7B
 10
2.64345
 20
10.6150
 30
0.000000
  70
    32
  0
VERTEX
  8
0
  5
E7C
 10
2.64616
 20
10.5532
 30
0.000000
  70
    32
  0
VERTEX
  8
0
  5
E7D
 10
2.64864
 20
10.4914
 30
0.000000
  70
    32
  0
VERTEX
  8
0
  5
E7E
 10
2.65090
 20
10.4295
 30
0.000000
  70
    32
  0
VERTEX
  8
0
  5
E7F
 10
2.65294
 20
10.3675
 30
0.000000
  70
    32
  0
VERTEX
  8
0
  5
E80
 10
2.65474
 20
10.3054
 30
0.000000
  70
    32
  0
VERTEX
  8
0
  5
E81
 10
2.65631
 20
10.2433
 30
0.000000
  70
    32
  0
VERTEX
  8
0
  5
E82
 10
2.65765
 20
10.1812
 30
0.000000
  70
    32
  0
VERTEX
  8
0
  5
E83
 10
2.65875
 20
10.1190
 30
0.000000
  70
    32
  0
VERTEX
  8
0
  5
E84
 10
2.65961
 20
10.0567
 30
0.000000
  70
    32
  0
VERTEX
  8
0
  5
E85
 10
2.66023
 20
9.99440
 30
0.000000
  70
    32
  0
VERTEX
  8
0
  5
E86
 10
2.66060
 20
9.93205
 30
0.000000
  70
    32
  0
VERTEX
  8
0
  5
E87
 10
2.66073
 20
9.86967
 30
0.000000
  70
    32
  0
SEQEND
  8
0
  5
E88
  0
POLYLINE
  8
0
  5
E89
  66
     1
 10
0.000000
 20
0.000000
 30
0.000000
  70
     8
  0
VERTEX
  8
0
  5
E8A
 10
2.66073
 20
9.86967
 30
0.000000
  70
    32
  0
VERTEX
  8
0
  5
E8B
 10
2.66069
 20
9.86936
 30
0.000000
  70
    32
  0
VERTEX
  8
0
  5
E8C
 10
2.66057
 20
9.86844
 30
0.000000
  70
    32
  0
VERTEX
  8
0
  5
E8D
 10
2.66037
 20
9.86691
 30
0.000000
  70
    32
  0
VERTEX
  8
0
  5
E8E
 10
2.66010
 20
9.86480
 30
0.000000
  70
    32
  0
VERTEX
  8
0
  5
E8F
 10
2.65975
 20
9.86210
 30
0.000000
  70
    32
  0
VERTEX
  8
0
  5
E90
 10
2.65933
 20
9.85883
 30
0.000000
  70
    32
  0
VERTEX
  8
0
  5
E91
 10
2.65884
 20
9.85499
 30
0.000000
  70
    32
  0
VERTEX
  8
0
  5
E92
 10
2.65827
 20
9.85060
 30
0.000000
  70
    32
  0
VERTEX
  8
0
  5
E93
 10
2.65764
 20
9.84567
 30
0.000000
  70
    32
  0
VERTEX
  8
0
  5
E94
 10
2.65693
 20
9.84020
 30
0.000000
  70
    32
  0
VERTEX
  8
0
  5
E95
 10
2.65616
 20
9.83421
 30
0.000000
  70
    32
  0
VERTEX
  8
0
  5
E96
 10
2.65532
 20
9.82771
 30
0.000000
  70
    32
  0
VERTEX
  8
0
  5
E97
 10
2.65442
 20
9.82070
 30
0.000000
  70
    32
  0
VERTEX
  8
0
  5
E98
 10
2.65346
 20
9.81320
 30
0.000000
  70
    32
  0
VERTEX
  8
0
  5
E99
 10
2.65243
 20
9.80521
 30
0.000000
  70
    32
  0
VERTEX
  8
0
  5
E9A
 10
2.65134
 20
9.79674
 30
0.000000
  70
    32
  0
VERTEX
  8
0
  5
E9B
 10
2.65019
 20
9.78782
 30
0.000000
  70
    32
  0
VERTEX
  8
0
  5
E9C
 10
2.64898
 20
9.77843
 30
0.000000
  70
    32
  0
VERTEX
  8
0
  5
E9D
 10
2.64771
 20
9.76860
 30
0.000000
  70
    32
  0
VERTEX
  8
0
  5
E9E
 10
2.64639
 20
9.75834
 30
0.000000
  70
    32
  0
VERTEX
  8
0
  5
E9F
 10
2.64502
 20
9.74764
 30
0.000000
  70
    32
  0
VERTEX
  8
0
  5
EA0
 10
2.64359
 20
9.73654
 30
0.000000
  70
    32
  0
VERTEX
  8
0
  5
EA1
 10
2.64210
 20
9.72502
 30
0.000000
  70
    32
  0
VERTEX
  8
0
  5
EA2
 10
2.64057
 20
9.71311
 30
0.000000
  70
    32
  0
VERTEX
  8
0
  5
EA3
 10
2.63899
 20
9.70081
 30
0.000000
  70
    32
  0
VERTEX
  8
0
  5
EA4
 10
2.63736
 20
9.68814
 30
0.000000
  70
    32
  0
VERTEX
  8
0
  5
EA5
 10
2.63568
 20
9.67509
 30
0.000000
  70
    32
  0
VERTEX
  8
0
  5
EA6
 10
2.63395
 20
9.66169
 30
0.000000
  70
    32
  0
VERTEX
  8
0
  5
EA7
 10
2.63218
 20
9.64795
 30
0.000000
  70
    32
  0
VERTEX
  8
0
  5
EA8
 10
2.63037
 20
9.63386
 30
0.000000
  70
    32
  0
VERTEX
  8
0
  5
EA9
 10
2.62851
 20
9.61945
 30
0.000000
  70
    32
  0
VERTEX
  8
0
  5
EAA
 10
2.62661
 20
9.60471
 30
0.000000
  70
    32
  0
VERTEX
  8
0
  5
EAB
 10
2.62468
 20
9.58967
 30
0.000000
  70
    32
  0
VERTEX
  8
0
  5
EAC
 10
2.62270
 20
9.57433
 30
0.000000
  70
    32
  0
VERTEX
  8
0
  5
EAD
 10
2.62069
 20
9.55871
 30
0.000000
  70
    32
  0
VERTEX
  8
0
  5
EAE
 10
2.61864
 20
9.54280
 30
0.000000
  70
    32
  0
VERTEX
  8
0
  5
EAF
 10
2.61656
 20
9.52662
 30
0.000000
  70
    32
  0
VERTEX
  8
0
  5
EB0
 10
2.61444
 20
9.51019
 30
0.000000
  70
    32
  0
VERTEX
  8
0
  5
EB1
 10
2.61230
 20
9.49350
 30
0.000000
  70
    32
  0
VERTEX
  8
0
  5
EB2
 10
2.61012
 20
9.47657
 30
0.000000
  70
    32
  0
VERTEX
  8
0
  5
EB3
 10
2.60791
 20
9.45942
 30
0.000000
  70
    32
  0
VERTEX
  8
0
  5
EB4
 10
2.60567
 20
9.44204
 30
0.000000
  70
    32
  0
VERTEX
  8
0
  5
EB5
 10
2.60341
 20
9.42445
 30
0.000000
  70
    32
  0
VERTEX
  8
0
  5
EB6
 10
2.60112
 20
9.40666
 30
0.000000
  70
    32
  0
VERTEX
  8
0
  5
EB7
 10
2.59880
 20
9.38869
 30
0.000000
  70
    32
  0
VERTEX
  8
0
  5
EB8
 10
2.59646
 20
9.37052
 30
0.000000
  70
    32
  0
VERTEX
  8
0
  5
EB9
 10
2.59410
 20
9.35219
 30
0.000000
  70
    32
  0
VERTEX
  8
0
  5
EBA
 10
2.59172
 20
9.33370
 30
0.000000
  70
    32
  0
VERTEX
  8
0
  5
EBB
 10
2.58932
 20
9.31505
 30
0.000000
  70
    32
  0
VERTEX
  8
0
  5
EBC
 10
2.58690
 20
9.29627
 30
0.000000
  70
    32
  0
VERTEX
  8
0
  5
EBD
 10
2.58447
 20
9.27735
 30
0.000000
  70
    32
  0
VERTEX
  8
0
  5
EBE
 10
2.58202
 20
9.25831
 30
0.000000
  70
    32
  0
VERTEX
  8
0
  5
EBF
 10
2.57955
 20
9.23915
 30
0.000000
  70
    32
  0
VERTEX
  8
0
  5
EC0
 10
2.57707
 20
9.21989
 30
0.000000
  70
    32
  0
VERTEX
  8
0
  5
EC1
 10
2.57458
 20
9.20054
 30
0.000000
  70
    32
  0
VERTEX
  8
0
  5
EC2
 10
2.57208
 20
9.18111
 30
0.000000
  70
    32
  0
VERTEX
  8
0
  5
EC3
 10
2.56957
 20
9.16160
 30
0.000000
  70
    32
  0
VERTEX
  8
0
  5
EC4
 10
2.56705
 20
9.14203
 30
0.000000
  70
    32
  0
VERTEX
  8
0
  5
EC5
 10
2.56452
 20
9.12241
 30
0.000000
  70
    32
  0
VERTEX
  8
0
  5
EC6
 10
2.56199
 20
9.10274
 30
0.000000
  70
    32
  0
VERTEX
  8
0
  5
EC7
 10
2.55945
 20
9.08304
 30
0.000000
  70
    32
  0
VERTEX
  8
0
  5
EC8
 10
2.55691
 20
9.06331
 30
0.000000
  70
    32
  0
VERTEX
  8
0
  5
EC9
 10
2.55437
 20
9.04357
 30
0.000000
  70
    32
  0
VERTEX
  8
0
  5
ECA
 10
2.55183
 20
9.02382
 30
0.000000
  70
    32
  0
VERTEX
  8
0
  5
ECB
 10
2.54929
 20
9.00408
 30
0.000000
  70
    32
  0
VERTEX
  8
0
  5
ECC
 10
2.54675
 20
8.98435
 30
0.000000
  70
    32
  0
VERTEX
  8
0
  5
ECD
 10
2.54421
 20
8.96465
 30
0.000000
  70
    32
  0
VERTEX
  8
0
  5
ECE
 10
2.54168
 20
8.94498
 30
0.000000
  70
    32
  0
VERTEX
  8
0
  5
ECF
 10
2.53915
 20
8.92535
 30
0.000000
  70
    32
  0
VERTEX
  8
0
  5
ED0
 10
2.53663
 20
8.90578
 30
0.000000
  70
    32
  0
VERTEX
  8
0
  5
ED1
 10
2.53412
 20
8.88628
 30
0.000000
  70
    32
  0
VERTEX
  8
0
  5
ED2
 10
2.53162
 20
8.86684
 30
0.000000
  70
    32
  0
VERTEX
  8
0
  5
ED3
 10
2.52913
 20
8.84749
 30
0.000000
  70
    32
  0
VERTEX
  8
0
  5
ED4
 10
2.52665
 20
8.82823
 30
0.000000
  70
    32
  0
VERTEX
  8
0
  5
ED5
 10
2.52418
 20
8.80908
 30
0.000000
  70
    32
  0
VERTEX
  8
0
  5
ED6
 10
2.52173
 20
8.79004
 30
0.000000
  70
    32
  0
VERTEX
  8
0
  5
ED7
 10
2.51929
 20
8.77112
 30
0.000000
  70
    32
  0
VERTEX
  8
0
  5
ED8
 10
2.51687
 20
8.75233
 30
0.000000
  70
    32
  0
VERTEX
  8
0
  5
ED9
 10
2.51447
 20
8.73369
 30
0.000000
  70
    32
  0
VERTEX
  8
0
  5
EDA
 10
2.51209
 20
8.71519
 30
0.000000
  70
    32
  0
VERTEX
  8
0
  5
EDB
 10
2.50973
 20
8.69686
 30
0.000000
  70
    32
  0
VERTEX
  8
0
  5
EDC
 10
2.50739
 20
8.67870
 30
0.000000
  70
    32
  0
VERTEX
  8
0
  5
EDD
 10
2.50508
 20
8.66072
 30
0.000000
  70
    32
  0
VERTEX
  8
0
  5
EDE
 10
2.50279
 20
8.64293
 30
0.000000
  70
    32
  0
VERTEX
  8
0
  5
EDF
 10
2.50052
 20
8.62535
 30
0.000000
  70
    32
  0
VERTEX
  8
0
  5
EE0
 10
2.49829
 20
8.60797
 30
0.000000
  70
    32
  0
VERTEX
  8
0
  5
EE1
 10
2.49608
 20
8.59081
 30
0.000000
  70
    32
  0
VERTEX
  8
0
  5
EE2
 10
2.49390
 20
8.57389
 30
0.000000
  70
    32
  0
VERTEX
  8
0
  5
EE3
 10
2.49175
 20
8.55720
 30
0.000000
  70
    32
  0
VERTEX
  8
0
  5
EE4
 10
2.48964
 20
8.54076
 30
0.000000
  70
    32
  0
VERTEX
  8
0
  5
EE5
 10
2.48755
 20
8.52459
 30
0.000000
  70
    32
  0
VERTEX
  8
0
  5
EE6
 10
2.48550
 20
8.50868
 30
0.000000
  70
    32
  0
VERTEX
  8
0
  5
EE7
 10
2.48349
 20
8.49305
 30
0.000000
  70
    32
  0
VERTEX
  8
0
  5
EE8
 10
2.48152
 20
8.47771
 30
0.000000
  70
    32
  0
VERTEX
  8
0
  5
EE9
 10
2.47958
 20
8.46267
 30
0.000000
  70
    32
  0
VERTEX
  8
0
  5
EEA
 10
2.47768
 20
8.44794
 30
0.000000
  70
    32
  0
VERTEX
  8
0
  5
EEB
 10
2.47583
 20
8.43353
 30
0.000000
  70
    32
  0
VERTEX
  8
0
  5
EEC
 10
2.47402
 20
8.41944
 30
0.000000
  70
    32
  0
VERTEX
  8
0
  5
EED
 10
2.47225
 20
8.40569
 30
0.000000
  70
    32
  0
VERTEX
  8
0
  5
EEE
 10
2.47052
 20
8.39229
 30
0.000000
  70
    32
  0
VERTEX
  8
0
  5
EEF
 10
2.46884
 20
8.37925
 30
0.000000
  70
    32
  0
VERTEX
  8
0
  5
EF0
 10
2.46721
 20
8.36657
 30
0.000000
  70
    32
  0
VERTEX
  8
0
  5
EF1
 10
2.46563
 20
8.35428
 30
0.000000
  70
    32
  0
VERTEX
  8
0
  5
EF2
 10
2.46409
 20
8.34237
 30
0.000000
  70
    32
  0
VERTEX
  8
0
  5
EF3
 10
2.46261
 20
8.33085
 30
0.000000
  70
    32
  0
VERTEX
  8
0
  5
EF4
 10
2.46118
 20
8.31974
 30
0.000000
  70
    32
  0
VERTEX
  8
0
  5
EF5
 10
2.45980
 20
8.30905
 30
0.000000
  70
    32
  0
VERTEX
  8
0
  5
EF6
 10
2.45848
 20
8.29878
 30
0.000000
  70
    32
  0
VERTEX
  8
0
  5
EF7
 10
2.45722
 20
8.28895
 30
0.000000
  70
    32
  0
VERTEX
  8
0
  5
EF8
 10
2.45601
 20
8.27957
 30
0.000000
  70
    32
  0
VERTEX
  8
0
  5
EF9
 10
2.45486
 20
8.27064
 30
0.000000
  70
    32
  0
VERTEX
  8
0
  5
EFA
 10
2.45377
 20
8.26218
 30
0.000000
  70
    32
  0
VERTEX
  8
0
  5
EFB
 10
2.45274
 20
8.25419
 30
0.000000
  70
    32
  0
VERTEX
  8
0
  5
EFC
 10
2.45177
 20
8.24669
 30
0.000000
  70
    32
  0
VERTEX
  8
0
  5
EFD
 10
2.45087
 20
8.23968
 30
0.000000
  70
    32
  0
VERTEX
  8
0
  5
EFE
 10
2.45003
 20
8.23317
 30
0.000000
  70
    32
  0
VERTEX
  8
0
  5
EFF
 10
2.44926
 20
8.22718
 30
0.000000
  70
    32
  0
VERTEX
  8
0
  5
F00
 10
2.44856
 20
8.22172
 30
0.000000
  70
    32
  0
VERTEX
  8
0
  5
F01
 10
2.44792
 20
8.21678
 30
0.000000
  70
    32
  0
VERTEX
  8
0
  5
F02
 10
2.44736
 20
8.21239
 30
0.000000
  70
    32
  0
VERTEX
  8
0
  5
F03
 10
2.44687
 20
8.20856
 30
0.000000
  70
    32
  0
VERTEX
  8
0
  5
F04
 10
2.44644
 20
8.20529
 30
0.000000
  70
    32
  0
VERTEX
  8
0
  5
F05
 10
2.44610
 20
8.20259
 30
0.000000
  70
    32
  0
VERTEX
  8
0
  5
F06
 10
2.44582
 20
8.20047
 30
0.000000
  70
    32
  0
VERTEX
  8
0
  5
F07
 10
2.44563
 20
8.19895
 30
0.000000
  70
    32
  0
VERTEX
  8
0
  5
F08
 10
2.44551
 20
8.19803
 30
0.000000
  70
    32
  0
VERTEX
  8
0
  5
F09
 10
2.44547
 20
8.19772
 30
0.000000
  70
    32
  0
SEQEND
  8
0
  5
F0A
  0
POLYLINE
  8
0
  5
F0B
  66
     1
 10
0.000000
 20
0.000000
 30
0.000000
  70
     8
  0
VERTEX
  8
0
  5
F0C
 10
2.44547
 20
8.19772
 30
0.000000
  70
    32
  0
VERTEX
  8
0
  5
F0D
 10
2.44190
 20
8.15799
 30
0.000000
  70
    32
  0
VERTEX
  8
0
  5
F0E
 10
2.43833
 20
8.11753
 30
0.000000
  70
    32
  0
VERTEX
  8
0
  5
F0F
 10
2.43478
 20
8.07637
 30
0.000000
  70
    32
  0
VERTEX
  8
0
  5
F10
 10
2.43124
 20
8.03452
 30
0.000000
  70
    32
  0
VERTEX
  8
0
  5
F11
 10
2.42770
 20
7.99199
 30
0.000000
  70
    32
  0
VERTEX
  8
0
  5
F12
 10
2.42417
 20
7.94880
 30
0.000000
  70
    32
  0
VERTEX
  8
0
  5
F13
 10
2.42066
 20
7.90498
 30
0.000000
  70
    32
  0
VERTEX
  8
0
  5
F14
 10
2.41715
 20
7.86054
 30
0.000000
  70
    32
  0
VERTEX
  8
0
  5
F15
 10
2.41366
 20
7.81550
 30
0.000000
  70
    32
  0
VERTEX
  8
0
  5
F16
 10
2.41018
 20
7.76987
 30
0.000000
  70
    32
  0
VERTEX
  8
0
  5
F17
 10
2.40671
 20
7.72367
 30
0.000000
  70
    32
  0
VERTEX
  8
0
  5
F18
 10
2.40325
 20
7.67693
 30
0.000000
  70
    32
  0
VERTEX
  8
0
  5
F19
 10
2.39980
 20
7.62965
 30
0.000000
  70
    32
  0
VERTEX
  8
0
  5
F1A
 10
2.39637
 20
7.58186
 30
0.000000
  70
    32
  0
VERTEX
  8
0
  5
F1B
 10
2.39295
 20
7.53358
 30
0.000000
  70
    32
  0
VERTEX
  8
0
  5
F1C
 10
2.38955
 20
7.48481
 30
0.000000
  70
    32
  0
VERTEX
  8
0
  5
F1D
 10
2.38616
 20
7.43559
 30
0.000000
  70
    32
  0
VERTEX
  8
0
  5
F1E
 10
2.38278
 20
7.38592
 30
0.000000
  70
    32
  0
VERTEX
  8
0
  5
F1F
 10
2.37942
 20
7.33583
 30
0.000000
  70
    32
  0
VERTEX
  8
0
  5
F20
 10
2.37608
 20
7.28534
 30
0.000000
  70
    32
  0
VERTEX
  8
0
  5
F21
 10
2.37275
 20
7.23445
 30
0.000000
  70
    32
  0
VERTEX
  8
0
  5
F22
 10
2.36943
 20
7.18319
 30
0.000000
  70
    32
  0
VERTEX
  8
0
  5
F23
 10
2.36614
 20
7.13158
 30
0.000000
  70
    32
  0
VERTEX
  8
0
  5
F24
 10
2.36286
 20
7.07963
 30
0.000000
  70
    32
  0
VERTEX
  8
0
  5
F25
 10
2.35960
 20
7.02736
 30
0.000000
  70
    32
  0
VERTEX
  8
0
  5
F26
 10
2.35636
 20
6.97479
 30
0.000000
  70
    32
  0
VERTEX
  8
0
  5
F27
 10
2.35314
 20
6.92194
 30
0.000000
  70
    32
  0
VERTEX
  8
0
  5
F28
 10
2.34993
 20
6.86882
 30
0.000000
  70
    32
  0
VERTEX
  8
0
  5
F29
 10
2.34674
 20
6.81546
 30
0.000000
  70
    32
  0
VERTEX
  8
0
  5
F2A
 10
2.34358
 20
6.76187
 30
0.000000
  70
    32
  0
VERTEX
  8
0
  5
F2B
 10
2.34043
 20
6.70806
 30
0.000000
  70
    32
  0
VERTEX
  8
0
  5
F2C
 10
2.33731
 20
6.65406
 30
0.000000
  70
    32
  0
VERTEX
  8
0
  5
F2D
 10
2.33420
 20
6.59989
 30
0.000000
  70
    32
  0
VERTEX
  8
0
  5
F2E
 10
2.33112
 20
6.54556
 30
0.000000
  70
    32
  0
VERTEX
  8
0
  5
F2F
 10
2.32806
 20
6.49108
 30
0.000000
  70
    32
  0
VERTEX
  8
0
  5
F30
 10
2.32502
 20
6.43648
 30
0.000000
  70
    32
  0
VERTEX
  8
0
  5
F31
 10
2.32201
 20
6.38178
 30
0.000000
  70
    32
  0
VERTEX
  8
0
  5
F32
 10
2.31901
 20
6.32699
 30
0.000000
  70
    32
  0
VERTEX
  8
0
  5
F33
 10
2.31604
 20
6.27213
 30
0.000000
  70
    32
  0
VERTEX
  8
0
  5
F34
 10
2.31310
 20
6.21722
 30
0.000000
  70
    32
  0
VERTEX
  8
0
  5
F35
 10
2.31018
 20
6.16227
 30
0.000000
  70
    32
  0
VERTEX
  8
0
  5
F36
 10
2.30728
 20
6.10730
 30
0.000000
  70
    32
  0
VERTEX
  8
0
  5
F37
 10
2.30441
 20
6.05234
 30
0.000000
  70
    32
  0
VERTEX
  8
0
  5
F38
 10
2.30156
 20
5.99740
 30
0.000000
  70
    32
  0
VERTEX
  8
0
  5
F39
 10
2.29874
 20
5.94249
 30
0.000000
  70
    32
  0
VERTEX
  8
0
  5
F3A
 10
2.29595
 20
5.88764
 30
0.000000
  70
    32
  0
VERTEX
  8
0
  5
F3B
 10
2.29318
 20
5.83286
 30
0.000000
  70
    32
  0
VERTEX
  8
0
  5
F3C
 10
2.29044
 20
5.77817
 30
0.000000
  70
    32
  0
VERTEX
  8
0
  5
F3D
 10
2.28773
 20
5.72359
 30
0.000000
  70
    32
  0
VERTEX
  8
0
  5
F3E
 10
2.28505
 20
5.66913
 30
0.000000
  70
    32
  0
VERTEX
  8
0
  5
F3F
 10
2.28239
 20
5.61481
 30
0.000000
  70
    32
  0
VERTEX
  8
0
  5
F40
 10
2.27976
 20
5.56066
 30
0.000000
  70
    32
  0
VERTEX
  8
0
  5
F41
 10
2.27717
 20
5.50669
 30
0.000000
  70
    32
  0
VERTEX
  8
0
  5
F42
 10
2.27460
 20
5.45291
 30
0.000000
  70
    32
  0
VERTEX
  8
0
  5
F43
 10
2.27206
 20
5.39934
 30
0.000000
  70
    32
  0
VERTEX
  8
0
  5
F44
 10
2.26955
 20
5.34601
 30
0.000000
  70
    32
  0
VERTEX
  8
0
  5
F45
 10
2.26708
 20
5.29293
 30
0.000000
  70
    32
  0
VERTEX
  8
0
  5
F46
 10
2.26463
 20
5.24011
 30
0.000000
  70
    32
  0
VERTEX
  8
0
  5
F47
 10
2.26222
 20
5.18758
 30
0.000000
  70
    32
  0
VERTEX
  8
0
  5
F48
 10
2.25983
 20
5.13536
 30
0.000000
  70
    32
  0
VERTEX
  8
0
  5
F49
 10
2.25749
 20
5.08345
 30
0.000000
  70
    32
  0
VERTEX
  8
0
  5
F4A
 10
2.25517
 20
5.03188
 30
0.000000
  70
    32
  0
VERTEX
  8
0
  5
F4B
 10
2.25289
 20
4.98067
 30
0.000000
  70
    32
  0
VERTEX
  8
0
  5
F4C
 10
2.25064
 20
4.92983
 30
0.000000
  70
    32
  0
VERTEX
  8
0
  5
F4D
 10
2.24842
 20
4.87939
 30
0.000000
  70
    32
  0
VERTEX
  8
0
  5
F4E
 10
2.24624
 20
4.82935
 30
0.000000
  70
    32
  0
VERTEX
  8
0
  5
F4F
 10
2.24410
 20
4.77974
 30
0.000000
  70
    32
  0
VERTEX
  8
0
  5
F50
 10
2.24199
 20
4.73058
 30
0.000000
  70
    32
  0
VERTEX
  8
0
  5
F51
 10
2.23991
 20
4.68187
 30
0.000000
  70
    32
  0
VERTEX
  8
0
  5
F52
 10
2.23788
 20
4.63365
 30
0.000000
  70
    32
  0
VERTEX
  8
0
  5
F53
 10
2.23587
 20
4.58593
 30
0.000000
  70
    32
  0
VERTEX
  8
0
  5
F54
 10
2.23391
 20
4.53872
 30
0.000000
  70
    32
  0
VERTEX
  8
0
  5
F55
 10
2.23198
 20
4.49205
 30
0.000000
  70
    32
  0
VERTEX
  8
0
  5
F56
 10
2.23009
 20
4.44592
 30
0.000000
  70
    32
  0
VERTEX
  8
0
  5
F57
 10
2.22824
 20
4.40037
 30
0.000000
  70
    32
  0
VERTEX
  8
0
  5
F58
 10
2.22643
 20
4.35540
 30
0.000000
  70
    32
  0
VERTEX
  8
0
  5
F59
 10
2.22466
 20
4.31104
 30
0.000000
  70
    32
  0
VERTEX
  8
0
  5
F5A
 10
2.22293
 20
4.26730
 30
0.000000
  70
    32
  0
VERTEX
  8
0
  5
F5B
 10
2.22123
 20
4.22420
 30
0.000000
  70
    32
  0
VERTEX
  8
0
  5
F5C
 10
2.21958
 20
4.18176
 30
0.000000
  70
    32
  0
VERTEX
  8
0
  5
F5D
 10
2.21797
 20
4.14000
 30
0.000000
  70
    32
  0
VERTEX
  8
0
  5
F5E
 10
2.21640
 20
4.09892
 30
0.000000
  70
    32
  0
VERTEX
  8
0
  5
F5F
 10
2.21487
 20
4.05856
 30
0.000000
  70
    32
  0
VERTEX
  8
0
  5
F60
 10
2.21338
 20
4.01893
 30
0.000000
  70
    32
  0
VERTEX
  8
0
  5
F61
 10
2.21194
 20
3.98004
 30
0.000000
  70
    32
  0
VERTEX
  8
0
  5
F62
 10
2.21053
 20
3.94192
 30
0.000000
  70
    32
  0
VERTEX
  8
0
  5
F63
 10
2.20918
 20
3.90458
 30
0.000000
  70
    32
  0
VERTEX
  8
0
  5
F64
 10
2.20786
 20
3.86804
 30
0.000000
  70
    32
  0
VERTEX
  8
0
  5
F65
 10
2.20659
 20
3.83232
 30
0.000000
  70
    32
  0
VERTEX
  8
0
  5
F66
 10
2.20536
 20
3.79744
 30
0.000000
  70
    32
  0
VERTEX
  8
0
  5
F67
 10
2.20418
 20
3.76340
 30
0.000000
  70
    32
  0
VERTEX
  8
0
  5
F68
 10
2.20304
 20
3.73024
 30
0.000000
  70
    32
  0
VERTEX
  8
0
  5
F69
 10
2.20195
 20
3.69797
 30
0.000000
  70
    32
  0
VERTEX
  8
0
  5
F6A
 10
2.20091
 20
3.66660
 30
0.000000
  70
    32
  0
VERTEX
  8
0
  5
F6B
 10
2.19991
 20
3.63616
 30
0.000000
  70
    32
  0
VERTEX
  8
0
  5
F6C
 10
2.19896
 20
3.60666
 30
0.000000
  70
    32
  0
VERTEX
  8
0
  5
F6D
 10
2.19806
 20
3.57812
 30
0.000000
  70
    32
  0
VERTEX
  8
0
  5
F6E
 10
2.19720
 20
3.55055
 30
0.000000
  70
    32
  0
VERTEX
  8
0
  5
F6F
 10
2.19639
 20
3.52398
 30
0.000000
  70
    32
  0
VERTEX
  8
0
  5
F70
 10
2.19563
 20
3.49843
 30
0.000000
  70
    32
  0
VERTEX
  8
0
  5
F71
 10
2.19492
 20
3.47390
 30
0.000000
  70
    32
  0
VERTEX
  8
0
  5
F72
 10
2.19426
 20
3.45043
 30
0.000000
  70
    32
  0
VERTEX
  8
0
  5
F73
 10
2.19365
 20
3.42802
 30
0.000000
  70
    32
  0
VERTEX
  8
0
  5
F74
 10
2.19309
 20
3.40669
 30
0.000000
  70
    32
  0
VERTEX
  8
0
  5
F75
 10
2.19258
 20
3.38646
 30
0.000000
  70
    32
  0
VERTEX
  8
0
  5
F76
 10
2.19212
 20
3.36736
 30
0.000000
  70
    32
  0
VERTEX
  8
0
  5
F77
 10
2.19171
 20
3.34939
 30
0.000000
  70
    32
  0
VERTEX
  8
0
  5
F78
 10
2.19136
 20
3.33258
 30
0.000000
  70
    32
  0
VERTEX
  8
0
  5
F79
 10
2.19105
 20
3.31694
 30
0.000000
  70
    32
  0
VERTEX
  8
0
  5
F7A
 10
2.19080
 20
3.30248
 30
0.000000
  70
    32
  0
VERTEX
  8
0
  5
F7B
 10
2.19061
 20
3.28924
 30
0.000000
  70
    32
  0
VERTEX
  8
0
  5
F7C
 10
2.19046
 20
3.27723
 30
0.000000
  70
    32
  0
VERTEX
  8
0
  5
F7D
 10
2.19037
 20
3.26645
 30
0.000000
  70
    32
  0
VERTEX
  8
0
  5
F7E
 10
2.19034
 20
3.25694
 30
0.000000
  70
    32
  0
VERTEX
  8
0
  5
F7F
 10
2.19034
 20
3.24827
 30
0.000000
  70
    32
  0
VERTEX
  8
0
  5
F80
 10
2.19036
 20
3.23971
 30
0.000000
  70
    32
  0
VERTEX
  8
0
  5
F81
 10
2.19041
 20
3.23125
 30
0.000000
  70
    32
  0
VERTEX
  8
0
  5
F82
 10
2.19047
 20
3.22290
 30
0.000000
  70
    32
  0
VERTEX
  8
0
  5
F83
 10
2.19055
 20
3.21465
 30
0.000000
  70
    32
  0
VERTEX
  8
0
  5
F84
 10
2.19065
 20
3.20650
 30
0.000000
  70
    32
  0
VERTEX
  8
0
  5
F85
 10
2.19078
 20
3.19846
 30
0.000000
  70
    32
  0
VERTEX
  8
0
  5
F86
 10
2.19094
 20
3.19051
 30
0.000000
  70
    32
  0
VERTEX
  8
0
  5
F87
 10
2.19112
 20
3.18267
 30
0.000000
  70
    32
  0
VERTEX
  8
0
  5
F88
 10
2.19134
 20
3.17492
 30
0.000000
  70
    32
  0
VERTEX
  8
0
  5
F89
 10
2.19158
 20
3.16727
 30
0.000000
  70
    32
  0
VERTEX
  8
0
  5
F8A
 10
2.19185
 20
3.15973
 30
0.000000
  70
    32
  0
VERTEX
  8
0
  5
F8B
 10
2.19216
 20
3.15228
 30
0.000000
  70
    32
  0
VERTEX
  8
0
  5
F8C
 10
2.19251
 20
3.14493
 30
0.000000
  70
    32
  0
VERTEX
  8
0
  5
F8D
 10
2.19289
 20
3.13768
 30
0.000000
  70
    32
  0
VERTEX
  8
0
  5
F8E
 10
2.19331
 20
3.13052
 30
0.000000
  70
    32
  0
VERTEX
  8
0
  5
F8F
 10
2.19376
 20
3.12346
 30
0.000000
  70
    32
  0
VERTEX
  8
0
  5
F90
 10
2.19426
 20
3.11650
 30
0.000000
  70
    32
  0
VERTEX
  8
0
  5
F91
 10
2.19480
 20
3.10963
 30
0.000000
  70
    32
  0
VERTEX
  8
0
  5
F92
 10
2.19539
 20
3.10286
 30
0.000000
  70
    32
  0
VERTEX
  8
0
  5
F93
 10
2.19602
 20
3.09618
 30
0.000000
  70
    32
  0
VERTEX
  8
0
  5
F94
 10
2.19670
 20
3.08959
 30
0.000000
  70
    32
  0
VERTEX
  8
0
  5
F95
 10
2.19743
 20
3.08310
 30
0.000000
  70
    32
  0
VERTEX
  8
0
  5
F96
 10
2.19820
 20
3.07670
 30
0.000000
  70
    32
  0
VERTEX
  8
0
  5
F97
 10
2.19903
 20
3.07040
 30
0.000000
  70
    32
  0
VERTEX
  8
0
  5
F98
 10
2.19991
 20
3.06419
 30
0.000000
  70
    32
  0
VERTEX
  8
0
  5
F99
 10
2.20085
 20
3.05807
 30
0.000000
  70
    32
  0
VERTEX
  8
0
  5
F9A
 10
2.20184
 20
3.05203
 30
0.000000
  70
    32
  0
VERTEX
  8
0
  5
F9B
 10
2.20289
 20
3.04609
 30
0.000000
  70
    32
  0
VERTEX
  8
0
  5
F9C
 10
2.20400
 20
3.04025
 30
0.000000
  70
    32
  0
VERTEX
  8
0
  5
F9D
 10
2.20518
 20
3.03449
 30
0.000000
  70
    32
  0
VERTEX
  8
0
  5
F9E
 10
2.20641
 20
3.02881
 30
0.000000
  70
    32
  0
VERTEX
  8
0
  5
F9F
 10
2.20770
 20
3.02323
 30
0.000000
  70
    32
  0
VERTEX
  8
0
  5
FA0
 10
2.20907
 20
3.01774
 30
0.000000
  70
    32
  0
VERTEX
  8
0
  5
FA1
 10
2.21049
 20
3.01233
 30
0.000000
  70
    32
  0
VERTEX
  8
0
  5
FA2
 10
2.21199
 20
3.00701
 30
0.000000
  70
    32
  0
VERTEX
  8
0
  5
FA3
 10
2.21356
 20
3.00178
 30
0.000000
  70
    32
  0
VERTEX
  8
0
  5
FA4
 10
2.21519
 20
2.99663
 30
0.000000
  70
    32
  0
VERTEX
  8
0
  5
FA5
 10
2.21690
 20
2.99157
 30
0.000000
  70
    32
  0
VERTEX
  8
0
  5
FA6
 10
2.21869
 20
2.98660
 30
0.000000
  70
    32
  0
VERTEX
  8
0
  5
FA7
 10
2.22055
 20
2.98171
 30
0.000000
  70
    32
  0
VERTEX
  8
0
  5
FA8
 10
2.22249
 20
2.97690
 30
0.000000
  70
    32
  0
VERTEX
  8
0
  5
FA9
 10
2.22450
 20
2.97218
 30
0.000000
  70
    32
  0
VERTEX
  8
0
  5
FAA
 10
2.22660
 20
2.96754
 30
0.000000
  70
    32
  0
VERTEX
  8
0
  5
FAB
 10
2.22878
 20
2.96298
 30
0.000000
  70
    32
  0
VERTEX
  8
0
  5
FAC
 10
2.23104
 20
2.95850
 30
0.000000
  70
    32
  0
VERTEX
  8
0
  5
FAD
 10
2.23339
 20
2.95411
 30
0.000000
  70
    32
  0
VERTEX
  8
0
  5
FAE
 10
2.23582
 20
2.94980
 30
0.000000
  70
    32
  0
VERTEX
  8
0
  5
FAF
 10
2.23834
 20
2.94557
 30
0.000000
  70
    32
  0
VERTEX
  8
0
  5
FB0
 10
2.24095
 20
2.94142
 30
0.000000
  70
    32
  0
VERTEX
  8
0
  5
FB1
 10
2.24365
 20
2.93735
 30
0.000000
  70
    32
  0
VERTEX
  8
0
  5
FB2
 10
2.24645
 20
2.93335
 30
0.000000
  70
    32
  0
VERTEX
  8
0
  5
FB3
 10
2.24933
 20
2.92944
 30
0.000000
  70
    32
  0
VERTEX
  8
0
  5
FB4
 10
2.25232
 20
2.92561
 30
0.000000
  70
    32
  0
VERTEX
  8
0
  5
FB5
 10
2.25539
 20
2.92185
 30
0.000000
  70
    32
  0
VERTEX
  8
0
  5
FB6
 10
2.25857
 20
2.91817
 30
0.000000
  70
    32
  0
VERTEX
  8
0
  5
FB7
 10
2.26185
 20
2.91457
 30
0.000000
  70
    32
  0
VERTEX
  8
0
  5
FB8
 10
2.26523
 20
2.91104
 30
0.000000
  70
    32
  0
VERTEX
  8
0
  5
FB9
 10
2.26871
 20
2.90759
 30
0.000000
  70
    32
  0
VERTEX
  8
0
  5
FBA
 10
2.27230
 20
2.90421
 30
0.000000
  70
    32
  0
VERTEX
  8
0
  5
FBB
 10
2.27599
 20
2.90091
 30
0.000000
  70
    32
  0
VERTEX
  8
0
  5
FBC
 10
2.27979
 20
2.89769
 30
0.000000
  70
    32
  0
VERTEX
  8
0
  5
FBD
 10
2.28370
 20
2.89453
 30
0.000000
  70
    32
  0
VERTEX
  8
0
  5
FBE
 10
2.28772
 20
2.89145
 30
0.000000
  70
    32
  0
VERTEX
  8
0
  5
FBF
 10
2.29185
 20
2.88845
 30
0.000000
  70
    32
  0
VERTEX
  8
0
  5
FC0
 10
2.29610
 20
2.88551
 30
0.000000
  70
    32
  0
VERTEX
  8
0
  5
FC1
 10
2.30046
 20
2.88265
 30
0.000000
  70
    32
  0
VERTEX
  8
0
  5
FC2
 10
2.30493
 20
2.87986
 30
0.000000
  70
    32
  0
VERTEX
  8
0
  5
FC3
 10
2.30953
 20
2.87714
 30
0.000000
  70
    32
  0
VERTEX
  8
0
  5
FC4
 10
2.31424
 20
2.87449
 30
0.000000
  70
    32
  0
VERTEX
  8
0
  5
FC5
 10
2.31907
 20
2.87191
 30
0.000000
  70
    32
  0
VERTEX
  8
0
  5
FC6
 10
2.32403
 20
2.86940
 30
0.000000
  70
    32
  0
VERTEX
  8
0
  5
FC7
 10
2.32911
 20
2.86696
 30
0.000000
  70
    32
  0
VERTEX
  8
0
  5
FC8
 10
2.33432
 20
2.86459
 30
0.000000
  70
    32
  0
VERTEX
  8
0
  5
FC9
 10
2.33965
 20
2.86229
 30
0.000000
  70
    32
  0
VERTEX
  8
0
  5
FCA
 10
2.34512
 20
2.86005
 30
0.000000
  70
    32
  0
VERTEX
  8
0
  5
FCB
 10
2.35071
 20
2.85788
 30
0.000000
  70
    32
  0
VERTEX
  8
0
  5
FCC
 10
2.35643
 20
2.85578
 30
0.000000
  70
    32
  0
VERTEX
  8
0
  5
FCD
 10
2.36229
 20
2.85374
 30
0.000000
  70
    32
  0
VERTEX
  8
0
  5
FCE
 10
2.36828
 20
2.85177
 30
0.000000
  70
    32
  0
VERTEX
  8
0
  5
FCF
 10
2.37441
 20
2.84986
 30
0.000000
  70
    32
  0
VERTEX
  8
0
  5
FD0
 10
2.38068
 20
2.84802
 30
0.000000
  70
    32
  0
VERTEX
  8
0
  5
FD1
 10
2.38708
 20
2.84624
 30
0.000000
  70
    32
  0
VERTEX
  8
0
  5
FD2
 10
2.39363
 20
2.84452
 30
0.000000
  70
    32
  0
VERTEX
  8
0
  5
FD3
 10
2.40031
 20
2.84287
 30
0.000000
  70
    32
  0
VERTEX
  8
0
  5
FD4
 10
2.40715
 20
2.84128
 30
0.000000
  70
    32
  0
VERTEX
  8
0
  5
FD5
 10
2.41412
 20
2.83975
 30
0.000000
  70
    32
  0
VERTEX
  8
0
  5
FD6
 10
2.42124
 20
2.83829
 30
0.000000
  70
    32
  0
VERTEX
  8
0
  5
FD7
 10
2.42852
 20
2.83688
 30
0.000000
  70
    32
  0
VERTEX
  8
0
  5
FD8
 10
2.43594
 20
2.83554
 30
0.000000
  70
    32
  0
VERTEX
  8
0
  5
FD9
 10
2.44351
 20
2.83425
 30
0.000000
  70
    32
  0
VERTEX
  8
0
  5
FDA
 10
2.45123
 20
2.83303
 30
0.000000
  70
    32
  0
VERTEX
  8
0
  5
FDB
 10
2.45911
 20
2.83186
 30
0.000000
  70
    32
  0
VERTEX
  8
0
  5
FDC
 10
2.46715
 20
2.83076
 30
0.000000
  70
    32
  0
VERTEX
  8
0
  5
FDD
 10
2.47534
 20
2.82971
 30
0.000000
  70
    32
  0
VERTEX
  8
0
  5
FDE
 10
2.48369
 20
2.82871
 30
0.000000
  70
    32
  0
VERTEX
  8
0
  5
FDF
 10
2.49220
 20
2.82778
 30
0.000000
  70
    32
  0
VERTEX
  8
0
  5
FE0
 10
2.50087
 20
2.82690
 30
0.000000
  70
    32
  0
VERTEX
  8
0
  5
FE1
 10
2.50971
 20
2.82608
 30
0.000000
  70
    32
  0
VERTEX
  8
0
  5
FE2
 10
2.51871
 20
2.82531
 30
0.000000
  70
    32
  0
VERTEX
  8
0
  5
FE3
 10
2.52787
 20
2.82460
 30
0.000000
  70
    32
  0
VERTEX
  8
0
  5
FE4
 10
2.53721
 20
2.82395
 30
0.000000
  70
    32
  0
VERTEX
  8
0
  5
FE5
 10
2.54671
 20
2.82335
 30
0.000000
  70
    32
  0
VERTEX
  8
0
  5
FE6
 10
2.55639
 20
2.82280
 30
0.000000
  70
    32
  0
VERTEX
  8
0
  5
FE7
 10
2.56623
 20
2.82230
 30
0.000000
  70
    32
  0
VERTEX
  8
0
  5
FE8
 10
2.57625
 20
2.82186
 30
0.000000
  70
    32
  0
VERTEX
  8
0
  5
FE9
 10
2.58645
 20
2.82147
 30
0.000000
  70
    32
  0
VERTEX
  8
0
  5
FEA
 10
2.59682
 20
2.82113
 30
0.000000
  70
    32
  0
VERTEX
  8
0
  5
FEB
 10
2.60737
 20
2.82084
 30
0.000000
  70
    32
  0
SEQEND
  8
0
  5
FEC
  0
LINE
  5
100
  8
0
  6
CONTINUOUS
 10
2.70254330513478
 20
-0.0719645221412932
 30
0.0
 11
27.088775288519411
 21
-0.0719645221412932
 31
0.0
  0
LINE
  5
102
  8
0
  6
CONTINUOUS
 10
2.5642137398670739
 20
0.0874401869212172
 30
0.0
 11
2.5642137398670739
 21
0.0162558638721571
 31
0.0
  0
ENDSEC
  0
EOF
